0
SECTION
2
HEADER
9
$ACADVER
1
AC1009
9
$INSBASE
10
0.0
20
0.0
30
0.0
9
$EXTMIN
10
0.000000
20
0.000000
30
0.000000
9
$EXTMAX
10
0.000000
20
0.000000
30
0.000000
9
$UCSORG
10
0.0
20
0.0
30
0.0
9
$UCSXDIR
10
1.0
20
0.0
30
0.0
9
$UCSYDIR
10
0.0
20
1.0
30
0.0
9
$CLAYER
8
0
9
$SHADEDGE
70
3
0
ENDSEC
0
SECTION
2
TABLES
0
TABLE
2
LTYPE
70
2
0
LTYPE
2
CONTINUOUS
70
0
3
Solid line
72
65
73
0
40
0.0
0
ENDTAB
0
TABLE
2
LAYER
70
5
0
LAYER
2
0
70
0
62
7
6
CONTINUOUS
0
ENDTAB
0
TABLE
2
APPID
70
1
0
APPID
2
ACAD
70
64
0
ENDTAB
0
ENDSEC
0
SECTION
2
BLOCKS
0
ENDSEC
0
SECTION
2
ENTITIES
0
POLYLINE
66
1
8
0
6
CONTINUOUS
62
252
70
64
75
0
10
0.000000
20
0.000000
30
0.000000
0
VERTEX
8
0
6
CONTINUOUS
62
252
70
192
10
-52.990942
20
-13.700000
30
-52.862896
0
VERTEX
8
0
6
CONTINUOUS
62
252
70
192
10
-52.990942
20
-18.700000
30
-52.862896
0
VERTEX
8
0
6
CONTINUOUS
62
252
70
192
10
-54.363817
20
-18.700000
30
-53.503078
0
VERTEX
8
0
6
CONTINUOUS
62
252
70
192
10
-54.363817
20
-13.700000
30
-53.503078
0
VERTEX
8
0
6
CONTINUOUS
62
252
70
128
10
0.000000
20
0.000000
30
0.000000
71
2
72
3
73
1
0
VERTEX
8
0
6
CONTINUOUS
62
252
70
128
10
0.000000
20
0.000000
30
0.000000
71
1
72
3
73
4
0
SEQEND
0
POLYLINE
66
1
8
0
6
CONTINUOUS
62
252
70
64
75
0
10
0.000000
20
0.000000
30
0.000000
0
VERTEX
8
0
6
CONTINUOUS
62
252
70
192
10
-52.990942
20
-18.700000
30
-52.862896
0
VERTEX
8
0
6
CONTINUOUS
62
252
70
192
10
-54.655795
20
-18.700000
30
-49.966213
0
VERTEX
8
0
6
CONTINUOUS
62
252
70
192
10
-56.074363
20
-18.700000
30
-46.941288
0
VERTEX
8
0
6
CONTINUOUS
62
252
70
192
10
-57.236846
20
-18.700000
30
-43.809014
0
VERTEX
8
0
6
CONTINUOUS
62
252
70
192
10
-58.590000
20
-18.700000
30
-44.440000
0
VERTEX
8
0
6
CONTINUOUS
62
252
70
192
10
-54.363817
20
-18.700000
30
-53.503078
0
VERTEX
8
0
6
CONTINUOUS
62
252
70
128
10
0.000000
20
0.000000
30
0.000000
71
1
72
2
73
6
0
VERTEX
8
0
6
CONTINUOUS
62
252
70
128
10
0.000000
20
0.000000
30
0.000000
71
6
72
2
73
3
0
VERTEX
8
0
6
CONTINUOUS
62
252
70
128
10
0.000000
20
0.000000
30
0.000000
71
6
72
3
73
5
0
VERTEX
8
0
6
CONTINUOUS
62
252
70
128
10
0.000000
20
0.000000
30
0.000000
71
5
72
3
73
4
0
SEQEND
0
POLYLINE
66
1
8
0
6
CONTINUOUS
62
252
70
64
75
0
10
0.000000
20
0.000000
30
0.000000
0
VERTEX
8
0
6
CONTINUOUS
62
252
70
192
10
-54.363817
20
-13.700000
30
-53.503078
0
VERTEX
8
0
6
CONTINUOUS
62
252
70
192
10
-54.363817
20
-18.700000
30
-53.503078
0
VERTEX
8
0
6
CONTINUOUS
62
252
70
192
10
-58.590000
20
-18.700000
30
-44.440000
0
VERTEX
8
0
6
CONTINUOUS
62
252
70
192
10
-58.590000
20
-13.700000
30
-44.440000
0
VERTEX
8
0
6
CONTINUOUS
62
252
70
128
10
0.000000
20
0.000000
30
0.000000
71
2
72
3
73
1
0
VERTEX
8
0
6
CONTINUOUS
62
252
70
128
10
0.000000
20
0.000000
30
0.000000
71
1
72
3
73
4
0
SEQEND
0
POLYLINE
66
1
8
0
6
CONTINUOUS
62
252
70
64
75
0
10
0.000000
20
0.000000
30
0.000000
0
VERTEX
8
0
6
CONTINUOUS
62
252
70
192
10
-57.236846
20
-18.700000
30
-43.809014
0
VERTEX
8
0
6
CONTINUOUS
62
252
70
192
10
-57.236846
20
-13.700000
30
-43.809014
0
VERTEX
8
0
6
CONTINUOUS
62
252
70
192
10
-58.590000
20
-13.700000
30
-44.440000
0
VERTEX
8
0
6
CONTINUOUS
62
252
70
192
10
-58.590000
20
-18.700000
30
-44.440000
0
VERTEX
8
0
6
CONTINUOUS
62
252
70
128
10
0.000000
20
0.000000
30
0.000000
71
2
72
3
73
1
0
VERTEX
8
0
6
CONTINUOUS
62
252
70
128
10
0.000000
20
0.000000
30
0.000000
71
1
72
3
73
4
0
SEQEND
0
POLYLINE
66
1
8
0
6
CONTINUOUS
62
252
70
64
75
0
10
0.000000
20
0.000000
30
0.000000
0
VERTEX
8
0
6
CONTINUOUS
62
252
70
192
10
-57.236846
20
-13.700000
30
-43.809014
0
VERTEX
8
0
6
CONTINUOUS
62
252
70
192
10
-56.074363
20
-13.700000
30
-46.941288
0
VERTEX
8
0
6
CONTINUOUS
62
252
70
192
10
-54.655795
20
-13.700000
30
-49.966213
0
VERTEX
8
0
6
CONTINUOUS
62
252
70
192
10
-52.990942
20
-13.700000
30
-52.862896
0
VERTEX
8
0
6
CONTINUOUS
62
252
70
192
10
-54.363817
20
-13.700000
30
-53.503078
0
VERTEX
8
0
6
CONTINUOUS
62
252
70
192
10
-58.590000
20
-13.700000
30
-44.440000
0
VERTEX
8
0
6
CONTINUOUS
62
252
70
128
10
0.000000
20
0.000000
30
0.000000
71
1
72
2
73
6
0
VERTEX
8
0
6
CONTINUOUS
62
252
70
128
10
0.000000
20
0.000000
30
0.000000
71
6
72
2
73
5
0
VERTEX
8
0
6
CONTINUOUS
62
252
70
128
10
0.000000
20
0.000000
30
0.000000
71
5
72
2
73
3
0
VERTEX
8
0
6
CONTINUOUS
62
252
70
128
10
0.000000
20
0.000000
30
0.000000
71
5
72
3
73
4
0
SEQEND
0
POLYLINE
66
1
8
0
6
CONTINUOUS
62
252
70
64
75
0
10
0.000000
20
0.000000
30
0.000000
0
VERTEX
8
0
6
CONTINUOUS
62
252
70
192
10
6.500000
20
-13.700000
30
-71.600001
0
VERTEX
8
0
6
CONTINUOUS
62
252
70
192
10
6.500000
20
-18.700000
30
-71.600001
0
VERTEX
8
0
6
CONTINUOUS
62
252
70
192
10
6.500000
20
-18.700000
30
-73.200000
0
VERTEX
8
0
6
CONTINUOUS
62
252
70
192
10
6.500000
20
-13.700000
30
-73.200000
0
VERTEX
8
0
6
CONTINUOUS
62
252
70
128
10
0.000000
20
0.000000
30
0.000000
71
2
72
3
73
1
0
VERTEX
8
0
6
CONTINUOUS
62
252
70
128
10
0.000000
20
0.000000
30
0.000000
71
1
72
3
73
4
0
SEQEND
0
POLYLINE
66
1
8
0
6
CONTINUOUS
62
252
70
64
75
0
10
0.000000
20
0.000000
30
0.000000
0
VERTEX
8
0
6
CONTINUOUS
62
252
70
192
10
6.500000
20
-18.700000
30
-71.600001
0
VERTEX
8
0
6
CONTINUOUS
62
252
70
192
10
-3.500000
20
-18.700000
30
-71.600001
0
VERTEX
8
0
6
CONTINUOUS
62
252
70
192
10
-3.500000
20
-18.700000
30
-73.200000
0
VERTEX
8
0
6
CONTINUOUS
62
252
70
192
10
6.500000
20
-18.700000
30
-73.200000
0
VERTEX
8
0
6
CONTINUOUS
62
252
70
128
10
0.000000
20
0.000000
30
0.000000
71
2
72
3
73
1
0
VERTEX
8
0
6
CONTINUOUS
62
252
70
128
10
0.000000
20
0.000000
30
0.000000
71
1
72
3
73
4
0
SEQEND
0
POLYLINE
66
1
8
0
6
CONTINUOUS
62
252
70
64
75
0
10
0.000000
20
0.000000
30
0.000000
0
VERTEX
8
0
6
CONTINUOUS
62
252
70
192
10
6.500000
20
-13.700000
30
-73.200000
0
VERTEX
8
0
6
CONTINUOUS
62
252
70
192
10
6.500000
20
-18.700000
30
-73.200000
0
VERTEX
8
0
6
CONTINUOUS
62
252
70
192
10
-3.500000
20
-18.700000
30
-73.200000
0
VERTEX
8
0
6
CONTINUOUS
62
252
70
192
10
-3.500000
20
-13.700000
30
-73.200000
0
VERTEX
8
0
6
CONTINUOUS
62
252
70
128
10
0.000000
20
0.000000
30
0.000000
71
2
72
3
73
1
0
VERTEX
8
0
6
CONTINUOUS
62
252
70
128
10
0.000000
20
0.000000
30
0.000000
71
1
72
3
73
4
0
SEQEND
0
POLYLINE
66
1
8
0
6
CONTINUOUS
62
252
70
64
75
0
10
0.000000
20
0.000000
30
0.000000
0
VERTEX
8
0
6
CONTINUOUS
62
252
70
192
10
-3.500000
20
-18.700000
30
-71.600001
0
VERTEX
8
0
6
CONTINUOUS
62
252
70
192
10
-3.500000
20
-13.700000
30
-71.600001
0
VERTEX
8
0
6
CONTINUOUS
62
252
70
192
10
-3.500000
20
-13.700000
30
-73.200000
0
VERTEX
8
0
6
CONTINUOUS
62
252
70
192
10
-3.500000
20
-18.700000
30
-73.200000
0
VERTEX
8
0
6
CONTINUOUS
62
252
70
128
10
0.000000
20
0.000000
30
0.000000
71
2
72
3
73
1
0
VERTEX
8
0
6
CONTINUOUS
62
252
70
128
10
0.000000
20
0.000000
30
0.000000
71
1
72
3
73
4
0
SEQEND
0
POLYLINE
66
1
8
0
6
CONTINUOUS
62
252
70
64
75
0
10
0.000000
20
0.000000
30
0.000000
0
VERTEX
8
0
6
CONTINUOUS
62
252
70
192
10
-3.500000
20
-13.700000
30
-71.600001
0
VERTEX
8
0
6
CONTINUOUS
62
252
70
192
10
6.500000
20
-13.700000
30
-71.600001
0
VERTEX
8
0
6
CONTINUOUS
62
252
70
192
10
6.500000
20
-13.700000
30
-73.200000
0
VERTEX
8
0
6
CONTINUOUS
62
252
70
192
10
-3.500000
20
-13.700000
30
-73.200000
0
VERTEX
8
0
6
CONTINUOUS
62
252
70
128
10
0.000000
20
0.000000
30
0.000000
71
2
72
3
73
1
0
VERTEX
8
0
6
CONTINUOUS
62
252
70
128
10
0.000000
20
0.000000
30
0.000000
71
1
72
3
73
4
0
SEQEND
0
POLYLINE
66
1
8
0
6
CONTINUOUS
62
252
70
64
75
0
10
0.000000
20
0.000000
30
0.000000
0
VERTEX
8
0
6
CONTINUOUS
62
252
70
192
10
-11.273429
20
-0.590227
30
19.384806
0
VERTEX
8
0
6
CONTINUOUS
62
252
70
192
10
-14.825606
20
-0.590227
30
3.093050
0
VERTEX
8
0
6
CONTINUOUS
62
252
70
192
10
-14.862608
20
-0.467320
30
3.102170
0
VERTEX
8
0
6
CONTINUOUS
62
252
70
192
10
-14.919689
20
-0.352765
30
3.116152
0
VERTEX
8
0
6
CONTINUOUS
62
252
70
192
10
-14.993089
20
-0.251663
30
3.133982
0
VERTEX
8
0
6
CONTINUOUS
62
252
70
192
10
-15.079898
20
-0.166640
30
3.154848
0
VERTEX
8
0
6
CONTINUOUS
62
252
70
192
10
-15.182472
20
-0.095389
30
3.179199
0
VERTEX
8
0
6
CONTINUOUS
62
252
70
192
10
-15.238496
20
-0.066275
30
3.192361
0
VERTEX
8
0
6
CONTINUOUS
62
252
70
192
10
-15.296917
20
-0.042319
30
3.205978
0
VERTEX
8
0
6
CONTINUOUS
62
252
70
192
10
-15.417931
20
-0.010530
30
3.233842
0
VERTEX
8
0
6
CONTINUOUS
62
252
70
192
10
-15.538931
20
0.000000
30
3.261257
0
VERTEX
8
0
6
CONTINUOUS
62
252
70
192
10
-15.639279
20
-0.007253
30
3.283634
0
VERTEX
8
0
6
CONTINUOUS
62
252
70
192
10
-15.740553
20
-0.029128
30
3.305908
0
VERTEX
8
0
6
CONTINUOUS
62
252
70
192
10
-15.838909
20
-0.065794
30
3.327238
0
VERTEX
8
0
6
CONTINUOUS
62
252
70
192
10
-15.930852
20
-0.116539
30
3.346898
0
VERTEX
8
0
6
CONTINUOUS
62
252
70
192
10
-16.013658
20
-0.178717
30
3.364385
0
VERTEX
8
0
6
CONTINUOUS
62
252
70
192
10
-16.085261
20
-0.249994
30
3.379334
0
VERTEX
8
0
6
CONTINUOUS
62
252
70
192
10
-16.147890
20
-0.332625
30
3.392278
0
VERTEX
8
0
6
CONTINUOUS
62
252
70
192
10
-16.199860
20
-0.425131
30
3.402930
0
VERTEX
8
0
6
CONTINUOUS
62
252
70
192
10
-16.238428
20
-0.524803
30
3.410781
0
VERTEX
8
0
6
CONTINUOUS
62
252
70
192
10
-16.262501
20
-0.628234
30
3.415659
0
VERTEX
8
0
6
CONTINUOUS
62
252
70
192
10
-16.272213
20
-0.731501
30
3.417619
0
VERTEX
8
0
6
CONTINUOUS
62
252
70
192
10
-16.267697
20
-0.833888
30
3.416709
0
VERTEX
8
0
6
CONTINUOUS
62
252
70
192
10
-16.248879
20
-0.937716
30
3.412902
0
VERTEX
8
0
6
CONTINUOUS
62
252
70
192
10
-16.215596
20
-1.039206
30
3.406138
0
VERTEX
8
0
6
CONTINUOUS
62
252
70
192
10
-16.168224
20
-1.134651
30
3.396455
0
VERTEX
8
0
6
CONTINUOUS
62
252
70
192
10
-16.109150
20
-1.221190
30
3.384286
0
VERTEX
8
0
6
CONTINUOUS
62
252
70
192
10
-16.041062
20
-1.296338
30
3.370126
0
VERTEX
8
0
6
CONTINUOUS
62
252
70
192
10
-15.962239
20
-1.361962
30
3.353551
0
VERTEX
8
0
6
CONTINUOUS
62
252
70
192
10
-15.873325
20
-1.417212
30
3.334627
0
VERTEX
8
0
6
CONTINUOUS
62
252
70
192
10
-15.776954
20
-1.459225
30
3.313838
0
VERTEX
8
0
6
CONTINUOUS
62
252
70
192
10
-15.676298
20
-1.486474
30
3.291811
0
VERTEX
8
0
6
CONTINUOUS
62
252
70
192
10
-15.575167
20
-1.499038
30
3.269375
0
VERTEX
8
0
6
CONTINUOUS
62
252
70
192
10
-15.475508
20
-1.497076
30
3.246945
0
VERTEX
8
0
6
CONTINUOUS
62
252
70
192
10
-15.374282
20
-1.480553
30
3.223843
0
VERTEX
8
0
6
CONTINUOUS
62
252
70
192
10
-15.274699
20
-1.449301
30
3.200813
0
VERTEX
8
0
6
CONTINUOUS
62
252
70
192
10
-15.180467
20
-1.403451
30
3.178726
0
VERTEX
8
0
6
CONTINUOUS
62
252
70
192
10
-15.094482
20
-1.345113
30
3.158330
0
VERTEX
8
0
6
CONTINUOUS
62
252
70
192
10
-15.019311
20
-1.277183
30
3.140311
0
VERTEX
8
0
6
CONTINUOUS
62
252
70
192
10
-14.953981
20
-1.198827
30
3.124503
0
VERTEX
8
0
6
CONTINUOUS
62
252
70
192
10
-14.898237
20
-1.109624
30
3.110909
0
VERTEX
8
0
6
CONTINUOUS
62
252
70
192
10
-14.854869
20
-1.012241
30
3.100266
0
VERTEX
8
0
6
CONTINUOUS
62
252
70
192
10
-14.825606
20
-0.909773
30
3.093050
0
VERTEX
8
0
6
CONTINUOUS
62
252
70
192
10
-11.273429
20
-0.909773
30
19.384806
0
VERTEX
8
0
6
CONTINUOUS
62
252
70
192
10
-11.310759
20
-1.032953
30
19.392945
0
VERTEX
8
0
6
CONTINUOUS
62
252
70
192
10
-11.368155
20
-1.147766
30
19.405460
0
VERTEX
8
0
6
CONTINUOUS
62
252
70
192
10
-11.443922
20
-1.250817
30
19.421980
0
VERTEX
8
0
6
CONTINUOUS
62
252
70
192
10
-11.535819
20
-1.339059
30
19.442016
0
VERTEX
8
0
6
CONTINUOUS
62
252
70
192
10
-11.641127
20
-1.409883
30
19.464977
0
VERTEX
8
0
6
CONTINUOUS
62
252
70
192
10
-11.756734
20
-1.461194
30
19.490184
0
VERTEX
8
0
6
CONTINUOUS
62
252
70
192
10
-11.879220
20
-1.491475
30
19.516890
0
VERTEX
8
0
6
CONTINUOUS
62
252
70
192
10
-12.004964
20
-1.499831
30
19.544307
0
VERTEX
8
0
6
CONTINUOUS
62
252
70
192
10
-12.130248
20
-1.486014
30
19.571623
0
VERTEX
8
0
6
CONTINUOUS
62
252
70
192
10
-12.251366
20
-1.450433
30
19.598031
0
VERTEX
8
0
6
CONTINUOUS
62
252
70
192
10
-12.364738
20
-1.394141
30
19.622750
0
VERTEX
8
0
6
CONTINUOUS
62
252
70
192
10
-12.467011
20
-1.318802
30
19.645049
0
VERTEX
8
0
6
CONTINUOUS
62
252
70
192
10
-12.555161
20
-1.226643
30
19.664269
0
VERTEX
8
0
6
CONTINUOUS
62
252
70
192
10
-12.626582
20
-1.120389
30
19.679841
0
VERTEX
8
0
6
CONTINUOUS
62
252
70
192
10
-12.679160
20
-1.003184
30
19.691305
0
VERTEX
8
0
6
CONTINUOUS
62
252
70
192
10
-12.711342
20
-0.878492
30
19.698322
0
VERTEX
8
0
6
CONTINUOUS
62
252
70
192
10
-12.722176
20
-0.750000
30
19.700684
0
VERTEX
8
0
6
CONTINUOUS
62
252
70
192
10
-12.711342
20
-0.621508
30
19.698322
0
VERTEX
8
0
6
CONTINUOUS
62
252
70
192
10
-12.679160
20
-0.496816
30
19.691305
0
VERTEX
8
0
6
CONTINUOUS
62
252
70
192
10
-12.626582
20
-0.379611
30
19.679841
0
VERTEX
8
0
6
CONTINUOUS
62
252
70
192
10
-12.555161
20
-0.273357
30
19.664269
0
VERTEX
8
0
6
CONTINUOUS
62
252
70
192
10
-12.467011
20
-0.181198
30
19.645049
0
VERTEX
8
0
6
CONTINUOUS
62
252
70
192
10
-12.364738
20
-0.105859
30
19.622750
0
VERTEX
8
0
6
CONTINUOUS
62
252
70
192
10
-12.251366
20
-0.049567
30
19.598031
0
VERTEX
8
0
6
CONTINUOUS
62
252
70
192
10
-12.130248
20
-0.013986
30
19.571623
0
VERTEX
8
0
6
CONTINUOUS
62
252
70
192
10
-12.004964
20
-0.000169
30
19.544307
0
VERTEX
8
0
6
CONTINUOUS
62
252
70
192
10
-11.879220
20
-0.008525
30
19.516890
0
VERTEX
8
0
6
CONTINUOUS
62
252
70
192
10
-11.756734
20
-0.038806
30
19.490184
0
VERTEX
8
0
6
CONTINUOUS
62
252
70
192
10
-11.641127
20
-0.090117
30
19.464977
0
VERTEX
8
0
6
CONTINUOUS
62
252
70
192
10
-11.535819
20
-0.160941
30
19.442016
0
VERTEX
8
0
6
CONTINUOUS
62
252
70
192
10
-11.443922
20
-0.249183
30
19.421980
0
VERTEX
8
0
6
CONTINUOUS
62
252
70
192
10
-11.368155
20
-0.352234
30
19.405460
0
VERTEX
8
0
6
CONTINUOUS
62
252
70
192
10
-11.310759
20
-0.467047
30
19.392945
0
VERTEX
8
0
6
CONTINUOUS
62
252
70
128
10
0.000000
20
0.000000
30
0.000000
71
2
72
3
73
1
0
VERTEX
8
0
6
CONTINUOUS
62
252
70
128
10
0.000000
20
0.000000
30
0.000000
71
1
72
3
73
77
0
VERTEX
8
0
6
CONTINUOUS
62
252
70
128
10
0.000000
20
0.000000
30
0.000000
71
77
72
3
73
4
0
VERTEX
8
0
6
CONTINUOUS
62
252
70
128
10
0.000000
20
0.000000
30
0.000000
71
77
72
4
73
76
0
VERTEX
8
0
6
CONTINUOUS
62
252
70
128
10
0.000000
20
0.000000
30
0.000000
71
76
72
4
73
5
0
VERTEX
8
0
6
CONTINUOUS
62
252
70
128
10
0.000000
20
0.000000
30
0.000000
71
76
72
5
73
75
0
VERTEX
8
0
6
CONTINUOUS
62
252
70
128
10
0.000000
20
0.000000
30
0.000000
71
75
72
5
73
6
0
VERTEX
8
0
6
CONTINUOUS
62
252
70
128
10
0.000000
20
0.000000
30
0.000000
71
75
72
6
73
74
0
VERTEX
8
0
6
CONTINUOUS
62
252
70
128
10
0.000000
20
0.000000
30
0.000000
71
74
72
6
73
7
0
VERTEX
8
0
6
CONTINUOUS
62
252
70
128
10
0.000000
20
0.000000
30
0.000000
71
74
72
7
73
73
0
VERTEX
8
0
6
CONTINUOUS
62
252
70
128
10
0.000000
20
0.000000
30
0.000000
71
73
72
7
73
8
0
VERTEX
8
0
6
CONTINUOUS
62
252
70
128
10
0.000000
20
0.000000
30
0.000000
71
73
72
8
73
72
0
VERTEX
8
0
6
CONTINUOUS
62
252
70
128
10
0.000000
20
0.000000
30
0.000000
71
72
72
8
73
9
0
VERTEX
8
0
6
CONTINUOUS
62
252
70
128
10
0.000000
20
0.000000
30
0.000000
71
72
72
9
73
10
0
VERTEX
8
0
6
CONTINUOUS
62
252
70
128
10
0.000000
20
0.000000
30
0.000000
71
72
72
10
73
71
0
VERTEX
8
0
6
CONTINUOUS
62
252
70
128
10
0.000000
20
0.000000
30
0.000000
71
71
72
10
73
11
0
VERTEX
8
0
6
CONTINUOUS
62
252
70
128
10
0.000000
20
0.000000
30
0.000000
71
71
72
11
73
70
0
VERTEX
8
0
6
CONTINUOUS
62
252
70
128
10
0.000000
20
0.000000
30
0.000000
71
70
72
11
73
12
0
VERTEX
8
0
6
CONTINUOUS
62
252
70
128
10
0.000000
20
0.000000
30
0.000000
71
70
72
12
73
69
0
VERTEX
8
0
6
CONTINUOUS
62
252
70
128
10
0.000000
20
0.000000
30
0.000000
71
69
72
12
73
13
0
VERTEX
8
0
6
CONTINUOUS
62
252
70
128
10
0.000000
20
0.000000
30
0.000000
71
69
72
13
73
68
0
VERTEX
8
0
6
CONTINUOUS
62
252
70
128
10
0.000000
20
0.000000
30
0.000000
71
68
72
13
73
14
0
VERTEX
8
0
6
CONTINUOUS
62
252
70
128
10
0.000000
20
0.000000
30
0.000000
71
68
72
14
73
67
0
VERTEX
8
0
6
CONTINUOUS
62
252
70
128
10
0.000000
20
0.000000
30
0.000000
71
67
72
14
73
15
0
VERTEX
8
0
6
CONTINUOUS
62
252
70
128
10
0.000000
20
0.000000
30
0.000000
71
67
72
15
73
66
0
VERTEX
8
0
6
CONTINUOUS
62
252
70
128
10
0.000000
20
0.000000
30
0.000000
71
66
72
15
73
16
0
VERTEX
8
0
6
CONTINUOUS
62
252
70
128
10
0.000000
20
0.000000
30
0.000000
71
66
72
16
73
17
0
VERTEX
8
0
6
CONTINUOUS
62
252
70
128
10
0.000000
20
0.000000
30
0.000000
71
66
72
17
73
65
0
VERTEX
8
0
6
CONTINUOUS
62
252
70
128
10
0.000000
20
0.000000
30
0.000000
71
65
72
17
73
18
0
VERTEX
8
0
6
CONTINUOUS
62
252
70
128
10
0.000000
20
0.000000
30
0.000000
71
65
72
18
73
64
0
VERTEX
8
0
6
CONTINUOUS
62
252
70
128
10
0.000000
20
0.000000
30
0.000000
71
64
72
18
73
19
0
VERTEX
8
0
6
CONTINUOUS
62
252
70
128
10
0.000000
20
0.000000
30
0.000000
71
64
72
19
73
63
0
VERTEX
8
0
6
CONTINUOUS
62
252
70
128
10
0.000000
20
0.000000
30
0.000000
71
63
72
19
73
20
0
VERTEX
8
0
6
CONTINUOUS
62
252
70
128
10
0.000000
20
0.000000
30
0.000000
71
63
72
20
73
62
0
VERTEX
8
0
6
CONTINUOUS
62
252
70
128
10
0.000000
20
0.000000
30
0.000000
71
62
72
20
73
21
0
VERTEX
8
0
6
CONTINUOUS
62
252
70
128
10
0.000000
20
0.000000
30
0.000000
71
62
72
21
73
22
0
VERTEX
8
0
6
CONTINUOUS
62
252
70
128
10
0.000000
20
0.000000
30
0.000000
71
62
72
22
73
61
0
VERTEX
8
0
6
CONTINUOUS
62
252
70
128
10
0.000000
20
0.000000
30
0.000000
71
61
72
22
73
23
0
VERTEX
8
0
6
CONTINUOUS
62
252
70
128
10
0.000000
20
0.000000
30
0.000000
71
61
72
23
73
60
0
VERTEX
8
0
6
CONTINUOUS
62
252
70
128
10
0.000000
20
0.000000
30
0.000000
71
60
72
23
73
24
0
VERTEX
8
0
6
CONTINUOUS
62
252
70
128
10
0.000000
20
0.000000
30
0.000000
71
60
72
24
73
59
0
VERTEX
8
0
6
CONTINUOUS
62
252
70
128
10
0.000000
20
0.000000
30
0.000000
71
59
72
24
73
25
0
VERTEX
8
0
6
CONTINUOUS
62
252
70
128
10
0.000000
20
0.000000
30
0.000000
71
59
72
25
73
58
0
VERTEX
8
0
6
CONTINUOUS
62
252
70
128
10
0.000000
20
0.000000
30
0.000000
71
58
72
25
73
26
0
VERTEX
8
0
6
CONTINUOUS
62
252
70
128
10
0.000000
20
0.000000
30
0.000000
71
58
72
26
73
57
0
VERTEX
8
0
6
CONTINUOUS
62
252
70
128
10
0.000000
20
0.000000
30
0.000000
71
57
72
26
73
27
0
VERTEX
8
0
6
CONTINUOUS
62
252
70
128
10
0.000000
20
0.000000
30
0.000000
71
57
72
27
73
28
0
VERTEX
8
0
6
CONTINUOUS
62
252
70
128
10
0.000000
20
0.000000
30
0.000000
71
57
72
28
73
56
0
VERTEX
8
0
6
CONTINUOUS
62
252
70
128
10
0.000000
20
0.000000
30
0.000000
71
56
72
28
73
29
0
VERTEX
8
0
6
CONTINUOUS
62
252
70
128
10
0.000000
20
0.000000
30
0.000000
71
56
72
29
73
55
0
VERTEX
8
0
6
CONTINUOUS
62
252
70
128
10
0.000000
20
0.000000
30
0.000000
71
55
72
29
73
30
0
VERTEX
8
0
6
CONTINUOUS
62
252
70
128
10
0.000000
20
0.000000
30
0.000000
71
55
72
30
73
54
0
VERTEX
8
0
6
CONTINUOUS
62
252
70
128
10
0.000000
20
0.000000
30
0.000000
71
54
72
30
73
31
0
VERTEX
8
0
6
CONTINUOUS
62
252
70
128
10
0.000000
20
0.000000
30
0.000000
71
54
72
31
73
53
0
VERTEX
8
0
6
CONTINUOUS
62
252
70
128
10
0.000000
20
0.000000
30
0.000000
71
53
72
31
73
32
0
VERTEX
8
0
6
CONTINUOUS
62
252
70
128
10
0.000000
20
0.000000
30
0.000000
71
53
72
32
73
33
0
VERTEX
8
0
6
CONTINUOUS
62
252
70
128
10
0.000000
20
0.000000
30
0.000000
71
53
72
33
73
52
0
VERTEX
8
0
6
CONTINUOUS
62
252
70
128
10
0.000000
20
0.000000
30
0.000000
71
52
72
33
73
34
0
VERTEX
8
0
6
CONTINUOUS
62
252
70
128
10
0.000000
20
0.000000
30
0.000000
71
52
72
34
73
51
0
VERTEX
8
0
6
CONTINUOUS
62
252
70
128
10
0.000000
20
0.000000
30
0.000000
71
51
72
34
73
35
0
VERTEX
8
0
6
CONTINUOUS
62
252
70
128
10
0.000000
20
0.000000
30
0.000000
71
51
72
35
73
50
0
VERTEX
8
0
6
CONTINUOUS
62
252
70
128
10
0.000000
20
0.000000
30
0.000000
71
50
72
35
73
36
0
VERTEX
8
0
6
CONTINUOUS
62
252
70
128
10
0.000000
20
0.000000
30
0.000000
71
50
72
36
73
49
0
VERTEX
8
0
6
CONTINUOUS
62
252
70
128
10
0.000000
20
0.000000
30
0.000000
71
49
72
36
73
37
0
VERTEX
8
0
6
CONTINUOUS
62
252
70
128
10
0.000000
20
0.000000
30
0.000000
71
49
72
37
73
48
0
VERTEX
8
0
6
CONTINUOUS
62
252
70
128
10
0.000000
20
0.000000
30
0.000000
71
48
72
37
73
38
0
VERTEX
8
0
6
CONTINUOUS
62
252
70
128
10
0.000000
20
0.000000
30
0.000000
71
48
72
38
73
39
0
VERTEX
8
0
6
CONTINUOUS
62
252
70
128
10
0.000000
20
0.000000
30
0.000000
71
48
72
39
73
47
0
VERTEX
8
0
6
CONTINUOUS
62
252
70
128
10
0.000000
20
0.000000
30
0.000000
71
47
72
39
73
40
0
VERTEX
8
0
6
CONTINUOUS
62
252
70
128
10
0.000000
20
0.000000
30
0.000000
71
47
72
40
73
46
0
VERTEX
8
0
6
CONTINUOUS
62
252
70
128
10
0.000000
20
0.000000
30
0.000000
71
46
72
40
73
41
0
VERTEX
8
0
6
CONTINUOUS
62
252
70
128
10
0.000000
20
0.000000
30
0.000000
71
46
72
41
73
45
0
VERTEX
8
0
6
CONTINUOUS
62
252
70
128
10
0.000000
20
0.000000
30
0.000000
71
45
72
41
73
42
0
VERTEX
8
0
6
CONTINUOUS
62
252
70
128
10
0.000000
20
0.000000
30
0.000000
71
45
72
42
73
44
0
VERTEX
8
0
6
CONTINUOUS
62
252
70
128
10
0.000000
20
0.000000
30
0.000000
71
44
72
42
73
43
0
SEQEND
0
POLYLINE
66
1
8
0
6
CONTINUOUS
62
252
70
64
75
0
10
0.000000
20
0.000000
30
0.000000
0
VERTEX
8
0
6
CONTINUOUS
62
252
70
192
10
-11.273429
20
-0.909773
30
19.384806
0
VERTEX
8
0
6
CONTINUOUS
62
252
70
192
10
-11.288374
20
-0.803623
30
19.388065
0
VERTEX
8
0
6
CONTINUOUS
62
252
70
192
10
-11.288374
20
-0.696377
30
19.388065
0
VERTEX
8
0
6
CONTINUOUS
62
252
70
192
10
-11.273429
20
-0.590227
30
19.384806
0
VERTEX
8
0
6
CONTINUOUS
62
252
70
192
10
-11.310759
20
-0.467047
30
19.392945
0
VERTEX
8
0
6
CONTINUOUS
62
252
70
192
10
-11.368155
20
-0.352234
30
19.405460
0
VERTEX
8
0
6
CONTINUOUS
62
252
70
192
10
-11.443922
20
-0.249183
30
19.421980
0
VERTEX
8
0
6
CONTINUOUS
62
252
70
192
10
-11.535819
20
-0.160941
30
19.442016
0
VERTEX
8
0
6
CONTINUOUS
62
252
70
192
10
-11.641127
20
-0.090117
30
19.464977
0
VERTEX
8
0
6
CONTINUOUS
62
252
70
192
10
-11.756734
20
-0.038806
30
19.490184
0
VERTEX
8
0
6
CONTINUOUS
62
252
70
192
10
-11.879220
20
-0.008525
30
19.516890
0
VERTEX
8
0
6
CONTINUOUS
62
252
70
192
10
-12.004964
20
-0.000169
30
19.544307
0
VERTEX
8
0
6
CONTINUOUS
62
252
70
192
10
-12.130248
20
-0.013986
30
19.571623
0
VERTEX
8
0
6
CONTINUOUS
62
252
70
192
10
-12.251366
20
-0.049567
30
19.598031
0
VERTEX
8
0
6
CONTINUOUS
62
252
70
192
10
-12.364738
20
-0.105859
30
19.622750
0
VERTEX
8
0
6
CONTINUOUS
62
252
70
192
10
-12.467011
20
-0.181198
30
19.645049
0
VERTEX
8
0
6
CONTINUOUS
62
252
70
192
10
-12.555161
20
-0.273357
30
19.664269
0
VERTEX
8
0
6
CONTINUOUS
62
252
70
192
10
-12.626582
20
-0.379611
30
19.679841
0
VERTEX
8
0
6
CONTINUOUS
62
252
70
192
10
-12.679160
20
-0.496816
30
19.691305
0
VERTEX
8
0
6
CONTINUOUS
62
252
70
192
10
-12.711342
20
-0.621508
30
19.698322
0
VERTEX
8
0
6
CONTINUOUS
62
252
70
192
10
-12.722176
20
-0.750000
30
19.700684
0
VERTEX
8
0
6
CONTINUOUS
62
252
70
192
10
-12.711342
20
-0.878492
30
19.698322
0
VERTEX
8
0
6
CONTINUOUS
62
252
70
192
10
-12.679160
20
-1.003184
30
19.691305
0
VERTEX
8
0
6
CONTINUOUS
62
252
70
192
10
-12.626582
20
-1.120389
30
19.679841
0
VERTEX
8
0
6
CONTINUOUS
62
252
70
192
10
-12.555161
20
-1.226643
30
19.664269
0
VERTEX
8
0
6
CONTINUOUS
62
252
70
192
10
-12.467011
20
-1.318802
30
19.645049
0
VERTEX
8
0
6
CONTINUOUS
62
252
70
192
10
-12.364738
20
-1.394141
30
19.622750
0
VERTEX
8
0
6
CONTINUOUS
62
252
70
192
10
-12.251366
20
-1.450433
30
19.598031
0
VERTEX
8
0
6
CONTINUOUS
62
252
70
192
10
-12.130248
20
-1.486014
30
19.571623
0
VERTEX
8
0
6
CONTINUOUS
62
252
70
192
10
-12.004964
20
-1.499831
30
19.544307
0
VERTEX
8
0
6
CONTINUOUS
62
252
70
192
10
-11.879220
20
-1.491475
30
19.516890
0
VERTEX
8
0
6
CONTINUOUS
62
252
70
192
10
-11.756734
20
-1.461194
30
19.490184
0
VERTEX
8
0
6
CONTINUOUS
62
252
70
192
10
-11.641127
20
-1.409883
30
19.464977
0
VERTEX
8
0
6
CONTINUOUS
62
252
70
192
10
-11.535819
20
-1.339059
30
19.442016
0
VERTEX
8
0
6
CONTINUOUS
62
252
70
192
10
-11.443922
20
-1.250817
30
19.421980
0
VERTEX
8
0
6
CONTINUOUS
62
252
70
192
10
-11.368155
20
-1.147766
30
19.405460
0
VERTEX
8
0
6
CONTINUOUS
62
252
70
192
10
-11.310759
20
-1.032953
30
19.392945
0
VERTEX
8
0
6
CONTINUOUS
62
252
70
128
10
0.000000
20
0.000000
30
0.000000
71
1
72
2
73
37
0
VERTEX
8
0
6
CONTINUOUS
62
252
70
128
10
0.000000
20
0.000000
30
0.000000
71
37
72
2
73
36
0
VERTEX
8
0
6
CONTINUOUS
62
252
70
128
10
0.000000
20
0.000000
30
0.000000
71
36
72
2
73
35
0
VERTEX
8
0
6
CONTINUOUS
62
252
70
128
10
0.000000
20
0.000000
30
0.000000
71
35
72
2
73
34
0
VERTEX
8
0
6
CONTINUOUS
62
252
70
128
10
0.000000
20
0.000000
30
0.000000
71
34
72
2
73
33
0
VERTEX
8
0
6
CONTINUOUS
62
252
70
128
10
0.000000
20
0.000000
30
0.000000
71
33
72
2
73
32
0
VERTEX
8
0
6
CONTINUOUS
62
252
70
128
10
0.000000
20
0.000000
30
0.000000
71
32
72
2
73
31
0
VERTEX
8
0
6
CONTINUOUS
62
252
70
128
10
0.000000
20
0.000000
30
0.000000
71
31
72
2
73
30
0
VERTEX
8
0
6
CONTINUOUS
62
252
70
128
10
0.000000
20
0.000000
30
0.000000
71
30
72
2
73
29
0
VERTEX
8
0
6
CONTINUOUS
62
252
70
128
10
0.000000
20
0.000000
30
0.000000
71
29
72
2
73
28
0
VERTEX
8
0
6
CONTINUOUS
62
252
70
128
10
0.000000
20
0.000000
30
0.000000
71
28
72
2
73
27
0
VERTEX
8
0
6
CONTINUOUS
62
252
70
128
10
0.000000
20
0.000000
30
0.000000
71
27
72
2
73
26
0
VERTEX
8
0
6
CONTINUOUS
62
252
70
128
10
0.000000
20
0.000000
30
0.000000
71
26
72
2
73
25
0
VERTEX
8
0
6
CONTINUOUS
62
252
70
128
10
0.000000
20
0.000000
30
0.000000
71
25
72
2
73
24
0
VERTEX
8
0
6
CONTINUOUS
62
252
70
128
10
0.000000
20
0.000000
30
0.000000
71
24
72
2
73
23
0
VERTEX
8
0
6
CONTINUOUS
62
252
70
128
10
0.000000
20
0.000000
30
0.000000
71
23
72
2
73
22
0
VERTEX
8
0
6
CONTINUOUS
62
252
70
128
10
0.000000
20
0.000000
30
0.000000
71
22
72
2
73
21
0
VERTEX
8
0
6
CONTINUOUS
62
252
70
128
10
0.000000
20
0.000000
30
0.000000
71
21
72
2
73
3
0
VERTEX
8
0
6
CONTINUOUS
62
252
70
128
10
0.000000
20
0.000000
30
0.000000
71
21
72
3
73
20
0
VERTEX
8
0
6
CONTINUOUS
62
252
70
128
10
0.000000
20
0.000000
30
0.000000
71
20
72
3
73
19
0
VERTEX
8
0
6
CONTINUOUS
62
252
70
128
10
0.000000
20
0.000000
30
0.000000
71
19
72
3
73
18
0
VERTEX
8
0
6
CONTINUOUS
62
252
70
128
10
0.000000
20
0.000000
30
0.000000
71
18
72
3
73
17
0
VERTEX
8
0
6
CONTINUOUS
62
252
70
128
10
0.000000
20
0.000000
30
0.000000
71
17
72
3
73
16
0
VERTEX
8
0
6
CONTINUOUS
62
252
70
128
10
0.000000
20
0.000000
30
0.000000
71
16
72
3
73
15
0
VERTEX
8
0
6
CONTINUOUS
62
252
70
128
10
0.000000
20
0.000000
30
0.000000
71
15
72
3
73
14
0
VERTEX
8
0
6
CONTINUOUS
62
252
70
128
10
0.000000
20
0.000000
30
0.000000
71
14
72
3
73
13
0
VERTEX
8
0
6
CONTINUOUS
62
252
70
128
10
0.000000
20
0.000000
30
0.000000
71
13
72
3
73
12
0
VERTEX
8
0
6
CONTINUOUS
62
252
70
128
10
0.000000
20
0.000000
30
0.000000
71
12
72
3
73
11
0
VERTEX
8
0
6
CONTINUOUS
62
252
70
128
10
0.000000
20
0.000000
30
0.000000
71
11
72
3
73
10
0
VERTEX
8
0
6
CONTINUOUS
62
252
70
128
10
0.000000
20
0.000000
30
0.000000
71
10
72
3
73
9
0
VERTEX
8
0
6
CONTINUOUS
62
252
70
128
10
0.000000
20
0.000000
30
0.000000
71
9
72
3
73
8
0
VERTEX
8
0
6
CONTINUOUS
62
252
70
128
10
0.000000
20
0.000000
30
0.000000
71
8
72
3
73
7
0
VERTEX
8
0
6
CONTINUOUS
62
252
70
128
10
0.000000
20
0.000000
30
0.000000
71
7
72
3
73
6
0
VERTEX
8
0
6
CONTINUOUS
62
252
70
128
10
0.000000
20
0.000000
30
0.000000
71
6
72
3
73
5
0
VERTEX
8
0
6
CONTINUOUS
62
252
70
128
10
0.000000
20
0.000000
30
0.000000
71
5
72
3
73
4
0
SEQEND
0
POLYLINE
66
1
8
0
6
CONTINUOUS
62
252
70
64
75
0
10
0.000000
20
0.000000
30
0.000000
0
VERTEX
8
0
6
CONTINUOUS
62
252
70
192
10
-9.756608
20
-0.750000
30
19.381139
0
VERTEX
8
0
6
CONTINUOUS
62
252
70
192
10
-9.767741
20
-0.880236
30
19.383566
0
VERTEX
8
0
6
CONTINUOUS
62
252
70
192
10
-9.800800
20
-1.006515
30
19.390774
0
VERTEX
8
0
6
CONTINUOUS
62
252
70
192
10
-9.854783
20
-1.125000
30
19.402544
0
VERTEX
8
0
6
CONTINUOUS
62
252
70
192
10
-9.928047
20
-1.232091
30
19.418518
0
VERTEX
8
0
6
CONTINUOUS
62
252
70
192
10
-10.018368
20
-1.324533
30
19.438212
0
VERTEX
8
0
6
CONTINUOUS
62
252
70
192
10
-10.123000
20
-1.399519
30
19.461025
0
VERTEX
8
0
6
CONTINUOUS
62
252
70
192
10
-10.238765
20
-1.454769
30
19.486266
0
VERTEX
8
0
6
CONTINUOUS
62
252
70
192
10
-10.362146
20
-1.488606
30
19.513167
0
VERTEX
8
0
6
CONTINUOUS
62
252
70
192
10
-10.489392
20
-1.500000
30
19.540911
0
VERTEX
8
0
6
CONTINUOUS
62
252
70
192
10
-10.616639
20
-1.488606
30
19.568656
0
VERTEX
8
0
6
CONTINUOUS
62
252
70
192
10
-10.740019
20
-1.454769
30
19.595557
0
VERTEX
8
0
6
CONTINUOUS
62
252
70
192
10
-10.855784
20
-1.399519
30
19.620798
0
VERTEX
8
0
6
CONTINUOUS
62
252
70
192
10
-10.960417
20
-1.324533
30
19.643611
0
VERTEX
8
0
6
CONTINUOUS
62
252
70
192
10
-11.050738
20
-1.232091
30
19.663305
0
VERTEX
8
0
6
CONTINUOUS
62
252
70
192
10
-11.124002
20
-1.125000
30
19.679279
0
VERTEX
8
0
6
CONTINUOUS
62
252
70
192
10
-11.177984
20
-1.006515
30
19.691049
0
VERTEX
8
0
6
CONTINUOUS
62
252
70
192
10
-11.211044
20
-0.880236
30
19.698257
0
VERTEX
8
0
6
CONTINUOUS
62
252
70
192
10
-11.222176
20
-0.750000
30
19.700684
0
VERTEX
8
0
6
CONTINUOUS
62
252
70
192
10
-11.211044
20
-0.619764
30
19.698257
0
VERTEX
8
0
6
CONTINUOUS
62
252
70
192
10
-11.177984
20
-0.493485
30
19.691049
0
VERTEX
8
0
6
CONTINUOUS
62
252
70
192
10
-11.124002
20
-0.375000
30
19.679279
0
VERTEX
8
0
6
CONTINUOUS
62
252
70
192
10
-11.050738
20
-0.267909
30
19.663305
0
VERTEX
8
0
6
CONTINUOUS
62
252
70
192
10
-10.960417
20
-0.175467
30
19.643611
0
VERTEX
8
0
6
CONTINUOUS
62
252
70
192
10
-10.855784
20
-0.100481
30
19.620798
0
VERTEX
8
0
6
CONTINUOUS
62
252
70
192
10
-10.740019
20
-0.045231
30
19.595557
0
VERTEX
8
0
6
CONTINUOUS
62
252
70
192
10
-10.616639
20
-0.011394
30
19.568656
0
VERTEX
8
0
6
CONTINUOUS
62
252
70
192
10
-10.489392
20
0.000000
30
19.540911
0
VERTEX
8
0
6
CONTINUOUS
62
252
70
192
10
-10.362146
20
-0.011394
30
19.513167
0
VERTEX
8
0
6
CONTINUOUS
62
252
70
192
10
-10.238765
20
-0.045231
30
19.486266
0
VERTEX
8
0
6
CONTINUOUS
62
252
70
192
10
-10.123000
20
-0.100481
30
19.461025
0
VERTEX
8
0
6
CONTINUOUS
62
252
70
192
10
-10.018368
20
-0.175467
30
19.438212
0
VERTEX
8
0
6
CONTINUOUS
62
252
70
192
10
-9.928047
20
-0.267909
30
19.418518
0
VERTEX
8
0
6
CONTINUOUS
62
252
70
192
10
-9.854783
20
-0.375000
30
19.402544
0
VERTEX
8
0
6
CONTINUOUS
62
252
70
192
10
-9.800800
20
-0.493485
30
19.390774
0
VERTEX
8
0
6
CONTINUOUS
62
252
70
192
10
-9.767741
20
-0.619764
30
19.383566
0
VERTEX
8
0
6
CONTINUOUS
62
252
70
192
10
-14.825606
20
-0.590227
30
3.093050
0
VERTEX
8
0
6
CONTINUOUS
62
252
70
192
10
-11.273429
20
-0.590227
30
19.384806
0
VERTEX
8
0
6
CONTINUOUS
62
252
70
192
10
-11.288374
20
-0.696377
30
19.388065
0
VERTEX
8
0
6
CONTINUOUS
62
252
70
192
10
-11.288374
20
-0.803623
30
19.388065
0
VERTEX
8
0
6
CONTINUOUS
62
252
70
192
10
-11.273429
20
-0.909773
30
19.384806
0
VERTEX
8
0
6
CONTINUOUS
62
252
70
192
10
-14.825606
20
-0.909773
30
3.093050
0
VERTEX
8
0
6
CONTINUOUS
62
252
70
192
10
-14.796323
20
-1.012312
30
3.085802
0
VERTEX
8
0
6
CONTINUOUS
62
252
70
192
10
-14.752940
20
-1.109754
30
3.075014
0
VERTEX
8
0
6
CONTINUOUS
62
252
70
192
10
-14.697217
20
-1.198998
30
3.061069
0
VERTEX
8
0
6
CONTINUOUS
62
252
70
192
10
-14.631968
20
-1.277370
30
3.044617
0
VERTEX
8
0
6
CONTINUOUS
62
252
70
192
10
-14.556955
20
-1.345308
30
3.025533
0
VERTEX
8
0
6
CONTINUOUS
62
252
70
192
10
-14.471263
20
-1.403629
30
3.003514
0
VERTEX
8
0
6
CONTINUOUS
62
252
70
192
10
-14.377486
20
-1.449438
30
2.979151
0
VERTEX
8
0
6
CONTINUOUS
62
252
70
192
10
-14.278544
20
-1.480638
30
2.953132
0
VERTEX
8
0
6
CONTINUOUS
62
252
70
192
10
-14.178129
20
-1.497107
30
2.926416
0
VERTEX
8
0
6
CONTINUOUS
62
252
70
192
10
-14.079422
20
-1.499023
30
2.899836
0
VERTEX
8
0
6
CONTINUOUS
62
252
70
192
10
-13.979400
20
-1.486428
30
2.872573
0
VERTEX
8
0
6
CONTINUOUS
62
252
70
192
10
-13.879989
20
-1.459165
30
2.845169
0
VERTEX
8
0
6
CONTINUOUS
62
252
70
192
10
-13.784936
20
-1.417159
30
2.818662
0
VERTEX
8
0
6
CONTINUOUS
62
252
70
192
10
-13.697337
20
-1.361929
30
2.793971
0
VERTEX
8
0
6
CONTINUOUS
62
252
70
192
10
-13.619749
20
-1.296327
30
2.771898
0
VERTEX
8
0
6
CONTINUOUS
62
252
70
192
10
-13.552781
20
-1.221200
30
2.752685
0
VERTEX
8
0
6
CONTINUOUS
62
252
70
192
10
-13.494712
20
-1.134663
30
2.735908
0
VERTEX
8
0
6
CONTINUOUS
62
252
70
192
10
-13.448167
20
-1.039198
30
2.722381
0
VERTEX
8
0
6
CONTINUOUS
62
252
70
192
10
-13.415480
20
-0.937667
30
2.712841
0
VERTEX
8
0
6
CONTINUOUS
62
252
70
192
10
-13.397012
20
-0.833784
30
2.707434
0
VERTEX
8
0
6
CONTINUOUS
62
252
70
192
10
-13.392597
20
-0.731331
30
2.706137
0
VERTEX
8
0
6
CONTINUOUS
62
252
70
192
10
-13.402160
20
-0.627996
30
2.708943
0
VERTEX
8
0
6
CONTINUOUS
62
252
70
192
10
-13.425837
20
-0.524519
30
2.715867
0
VERTEX
8
0
6
CONTINUOUS
62
252
70
192
10
-13.463765
20
-0.424831
30
2.726922
0
VERTEX
8
0
6
CONTINUOUS
62
252
70
192
10
-13.514872
20
-0.332340
30
2.741744
0
VERTEX
8
0
6
CONTINUOUS
62
252
70
192
10
-13.576475
20
-0.249754
30
2.759500
0
VERTEX
8
0
6
CONTINUOUS
62
252
70
192
10
-13.646952
20
-0.178529
30
2.779660
0
VERTEX
8
0
6
CONTINUOUS
62
252
70
192
10
-13.728517
20
-0.116404
30
2.802788
0
VERTEX
8
0
6
CONTINUOUS
62
252
70
192
10
-13.819158
20
-0.065715
30
2.828240
0
VERTEX
8
0
6
CONTINUOUS
62
252
70
192
10
-13.916230
20
-0.029095
30
2.855196
0
VERTEX
8
0
6
CONTINUOUS
62
252
70
192
10
-14.016307
20
-0.007245
30
2.882669
0
VERTEX
8
0
6
CONTINUOUS
62
252
70
192
10
-14.115601
20
0.000000
30
2.909617
0
VERTEX
8
0
6
CONTINUOUS
62
252
70
192
10
-14.235497
20
-0.010516
30
2.941717
0
VERTEX
8
0
6
CONTINUOUS
62
252
70
192
10
-14.355624
20
-0.042275
30
2.973429
0
VERTEX
8
0
6
CONTINUOUS
62
252
70
192
10
-14.413698
20
-0.066214
30
2.988593
0
VERTEX
8
0
6
CONTINUOUS
62
252
70
192
10
-14.469440
20
-0.095312
30
3.003043
0
VERTEX
8
0
6
CONTINUOUS
62
252
70
192
10
-14.571623
20
-0.166546
30
3.029279
0
VERTEX
8
0
6
CONTINUOUS
62
252
70
192
10
-14.658226
20
-0.251569
30
3.051255
0
VERTEX
8
0
6
CONTINUOUS
62
252
70
192
10
-14.731533
20
-0.352685
30
3.069668
0
VERTEX
8
0
6
CONTINUOUS
62
252
70
192
10
-14.788595
20
-0.467275
30
3.083885
0
VERTEX
8
0
6
CONTINUOUS
62
252
70
128
10
0.000000
20
0.000000
30
0.000000
71
2
72
62
73
1
0
VERTEX
8
0
6
CONTINUOUS
62
252
70
128
10
0.000000
20
0.000000
30
0.000000
71
1
72
62
73
63
0
VERTEX
8
0
6
CONTINUOUS
62
252
70
128
10
0.000000
20
0.000000
30
0.000000
71
1
72
63
73
36
0
VERTEX
8
0
6
CONTINUOUS
62
252
70
128
10
0.000000
20
0.000000
30
0.000000
71
36
72
63
73
64
0
VERTEX
8
0
6
CONTINUOUS
62
252
70
128
10
0.000000
20
0.000000
30
0.000000
71
36
72
64
73
65
0
VERTEX
8
0
6
CONTINUOUS
62
252
70
128
10
0.000000
20
0.000000
30
0.000000
71
62
72
2
73
61
0
VERTEX
8
0
6
CONTINUOUS
62
252
70
128
10
0.000000
20
0.000000
30
0.000000
71
61
72
2
73
3
0
VERTEX
8
0
6
CONTINUOUS
62
252
70
128
10
0.000000
20
0.000000
30
0.000000
71
61
72
3
73
60
0
VERTEX
8
0
6
CONTINUOUS
62
252
70
128
10
0.000000
20
0.000000
30
0.000000
71
60
72
3
73
4
0
VERTEX
8
0
6
CONTINUOUS
62
252
70
128
10
0.000000
20
0.000000
30
0.000000
71
60
72
4
73
59
0
VERTEX
8
0
6
CONTINUOUS
62
252
70
128
10
0.000000
20
0.000000
30
0.000000
71
59
72
4
73
58
0
VERTEX
8
0
6
CONTINUOUS
62
252
70
128
10
0.000000
20
0.000000
30
0.000000
71
58
72
4
73
5
0
VERTEX
8
0
6
CONTINUOUS
62
252
70
128
10
0.000000
20
0.000000
30
0.000000
71
58
72
5
73
57
0
VERTEX
8
0
6
CONTINUOUS
62
252
70
128
10
0.000000
20
0.000000
30
0.000000
71
57
72
5
73
6
0
VERTEX
8
0
6
CONTINUOUS
62
252
70
128
10
0.000000
20
0.000000
30
0.000000
71
57
72
6
73
56
0
VERTEX
8
0
6
CONTINUOUS
62
252
70
128
10
0.000000
20
0.000000
30
0.000000
71
56
72
6
73
7
0
VERTEX
8
0
6
CONTINUOUS
62
252
70
128
10
0.000000
20
0.000000
30
0.000000
71
56
72
7
73
55
0
VERTEX
8
0
6
CONTINUOUS
62
252
70
128
10
0.000000
20
0.000000
30
0.000000
71
55
72
7
73
8
0
VERTEX
8
0
6
CONTINUOUS
62
252
70
128
10
0.000000
20
0.000000
30
0.000000
71
55
72
8
73
54
0
VERTEX
8
0
6
CONTINUOUS
62
252
70
128
10
0.000000
20
0.000000
30
0.000000
71
54
72
8
73
9
0
VERTEX
8
0
6
CONTINUOUS
62
252
70
128
10
0.000000
20
0.000000
30
0.000000
71
54
72
9
73
53
0
VERTEX
8
0
6
CONTINUOUS
62
252
70
128
10
0.000000
20
0.000000
30
0.000000
71
53
72
9
73
52
0
VERTEX
8
0
6
CONTINUOUS
62
252
70
128
10
0.000000
20
0.000000
30
0.000000
71
52
72
9
73
10
0
VERTEX
8
0
6
CONTINUOUS
62
252
70
128
10
0.000000
20
0.000000
30
0.000000
71
52
72
10
73
51
0
VERTEX
8
0
6
CONTINUOUS
62
252
70
128
10
0.000000
20
0.000000
30
0.000000
71
51
72
10
73
11
0
VERTEX
8
0
6
CONTINUOUS
62
252
70
128
10
0.000000
20
0.000000
30
0.000000
71
51
72
11
73
50
0
VERTEX
8
0
6
CONTINUOUS
62
252
70
128
10
0.000000
20
0.000000
30
0.000000
71
50
72
11
73
12
0
VERTEX
8
0
6
CONTINUOUS
62
252
70
128
10
0.000000
20
0.000000
30
0.000000
71
50
72
12
73
49
0
VERTEX
8
0
6
CONTINUOUS
62
252
70
128
10
0.000000
20
0.000000
30
0.000000
71
49
72
12
73
13
0
VERTEX
8
0
6
CONTINUOUS
62
252
70
128
10
0.000000
20
0.000000
30
0.000000
71
49
72
13
73
48
0
VERTEX
8
0
6
CONTINUOUS
62
252
70
128
10
0.000000
20
0.000000
30
0.000000
71
48
72
13
73
47
0
VERTEX
8
0
6
CONTINUOUS
62
252
70
128
10
0.000000
20
0.000000
30
0.000000
71
47
72
13
73
14
0
VERTEX
8
0
6
CONTINUOUS
62
252
70
128
10
0.000000
20
0.000000
30
0.000000
71
47
72
14
73
46
0
VERTEX
8
0
6
CONTINUOUS
62
252
70
128
10
0.000000
20
0.000000
30
0.000000
71
46
72
14
73
15
0
VERTEX
8
0
6
CONTINUOUS
62
252
70
128
10
0.000000
20
0.000000
30
0.000000
71
46
72
15
73
45
0
VERTEX
8
0
6
CONTINUOUS
62
252
70
128
10
0.000000
20
0.000000
30
0.000000
71
45
72
15
73
16
0
VERTEX
8
0
6
CONTINUOUS
62
252
70
128
10
0.000000
20
0.000000
30
0.000000
71
45
72
16
73
44
0
VERTEX
8
0
6
CONTINUOUS
62
252
70
128
10
0.000000
20
0.000000
30
0.000000
71
44
72
16
73
17
0
VERTEX
8
0
6
CONTINUOUS
62
252
70
128
10
0.000000
20
0.000000
30
0.000000
71
44
72
17
73
43
0
VERTEX
8
0
6
CONTINUOUS
62
252
70
128
10
0.000000
20
0.000000
30
0.000000
71
43
72
17
73
42
0
VERTEX
8
0
6
CONTINUOUS
62
252
70
128
10
0.000000
20
0.000000
30
0.000000
71
42
72
17
73
41
0
VERTEX
8
0
6
CONTINUOUS
62
252
70
128
10
0.000000
20
0.000000
30
0.000000
71
41
72
17
73
18
0
VERTEX
8
0
6
CONTINUOUS
62
252
70
128
10
0.000000
20
0.000000
30
0.000000
71
41
72
18
73
40
0
VERTEX
8
0
6
CONTINUOUS
62
252
70
128
10
0.000000
20
0.000000
30
0.000000
71
40
72
18
73
19
0
VERTEX
8
0
6
CONTINUOUS
62
252
70
128
10
0.000000
20
0.000000
30
0.000000
71
40
72
19
73
39
0
VERTEX
8
0
6
CONTINUOUS
62
252
70
128
10
0.000000
20
0.000000
30
0.000000
71
39
72
19
73
20
0
VERTEX
8
0
6
CONTINUOUS
62
252
70
128
10
0.000000
20
0.000000
30
0.000000
71
39
72
20
73
38
0
VERTEX
8
0
6
CONTINUOUS
62
252
70
128
10
0.000000
20
0.000000
30
0.000000
71
38
72
20
73
21
0
VERTEX
8
0
6
CONTINUOUS
62
252
70
128
10
0.000000
20
0.000000
30
0.000000
71
38
72
21
73
37
0
VERTEX
8
0
6
CONTINUOUS
62
252
70
128
10
0.000000
20
0.000000
30
0.000000
71
37
72
21
73
82
0
VERTEX
8
0
6
CONTINUOUS
62
252
70
128
10
0.000000
20
0.000000
30
0.000000
71
82
72
21
73
22
0
VERTEX
8
0
6
CONTINUOUS
62
252
70
128
10
0.000000
20
0.000000
30
0.000000
71
82
72
22
73
81
0
VERTEX
8
0
6
CONTINUOUS
62
252
70
128
10
0.000000
20
0.000000
30
0.000000
71
81
72
22
73
23
0
VERTEX
8
0
6
CONTINUOUS
62
252
70
128
10
0.000000
20
0.000000
30
0.000000
71
81
72
23
73
80
0
VERTEX
8
0
6
CONTINUOUS
62
252
70
128
10
0.000000
20
0.000000
30
0.000000
71
80
72
23
73
24
0
VERTEX
8
0
6
CONTINUOUS
62
252
70
128
10
0.000000
20
0.000000
30
0.000000
71
80
72
24
73
79
0
VERTEX
8
0
6
CONTINUOUS
62
252
70
128
10
0.000000
20
0.000000
30
0.000000
71
79
72
24
73
25
0
VERTEX
8
0
6
CONTINUOUS
62
252
70
128
10
0.000000
20
0.000000
30
0.000000
71
79
72
25
73
78
0
VERTEX
8
0
6
CONTINUOUS
62
252
70
128
10
0.000000
20
0.000000
30
0.000000
71
78
72
25
73
77
0
VERTEX
8
0
6
CONTINUOUS
62
252
70
128
10
0.000000
20
0.000000
30
0.000000
71
77
72
25
73
26
0
VERTEX
8
0
6
CONTINUOUS
62
252
70
128
10
0.000000
20
0.000000
30
0.000000
71
77
72
26
73
76
0
VERTEX
8
0
6
CONTINUOUS
62
252
70
128
10
0.000000
20
0.000000
30
0.000000
71
76
72
26
73
27
0
VERTEX
8
0
6
CONTINUOUS
62
252
70
128
10
0.000000
20
0.000000
30
0.000000
71
76
72
27
73
75
0
VERTEX
8
0
6
CONTINUOUS
62
252
70
128
10
0.000000
20
0.000000
30
0.000000
71
75
72
27
73
28
0
VERTEX
8
0
6
CONTINUOUS
62
252
70
128
10
0.000000
20
0.000000
30
0.000000
71
75
72
28
73
74
0
VERTEX
8
0
6
CONTINUOUS
62
252
70
128
10
0.000000
20
0.000000
30
0.000000
71
74
72
28
73
73
0
VERTEX
8
0
6
CONTINUOUS
62
252
70
128
10
0.000000
20
0.000000
30
0.000000
71
73
72
28
73
29
0
VERTEX
8
0
6
CONTINUOUS
62
252
70
128
10
0.000000
20
0.000000
30
0.000000
71
73
72
29
73
72
0
VERTEX
8
0
6
CONTINUOUS
62
252
70
128
10
0.000000
20
0.000000
30
0.000000
71
72
72
29
73
30
0
VERTEX
8
0
6
CONTINUOUS
62
252
70
128
10
0.000000
20
0.000000
30
0.000000
71
72
72
30
73
71
0
VERTEX
8
0
6
CONTINUOUS
62
252
70
128
10
0.000000
20
0.000000
30
0.000000
71
71
72
30
73
31
0
VERTEX
8
0
6
CONTINUOUS
62
252
70
128
10
0.000000
20
0.000000
30
0.000000
71
71
72
31
73
70
0
VERTEX
8
0
6
CONTINUOUS
62
252
70
128
10
0.000000
20
0.000000
30
0.000000
71
70
72
31
73
32
0
VERTEX
8
0
6
CONTINUOUS
62
252
70
128
10
0.000000
20
0.000000
30
0.000000
71
70
72
32
73
69
0
VERTEX
8
0
6
CONTINUOUS
62
252
70
128
10
0.000000
20
0.000000
30
0.000000
71
69
72
32
73
68
0
VERTEX
8
0
6
CONTINUOUS
62
252
70
128
10
0.000000
20
0.000000
30
0.000000
71
68
72
32
73
33
0
VERTEX
8
0
6
CONTINUOUS
62
252
70
128
10
0.000000
20
0.000000
30
0.000000
71
68
72
33
73
67
0
VERTEX
8
0
6
CONTINUOUS
62
252
70
128
10
0.000000
20
0.000000
30
0.000000
71
67
72
33
73
34
0
VERTEX
8
0
6
CONTINUOUS
62
252
70
128
10
0.000000
20
0.000000
30
0.000000
71
67
72
34
73
66
0
VERTEX
8
0
6
CONTINUOUS
62
252
70
128
10
0.000000
20
0.000000
30
0.000000
71
66
72
34
73
35
0
VERTEX
8
0
6
CONTINUOUS
62
252
70
128
10
0.000000
20
0.000000
30
0.000000
71
66
72
35
73
65
0
VERTEX
8
0
6
CONTINUOUS
62
252
70
128
10
0.000000
20
0.000000
30
0.000000
71
65
72
35
73
36
0
SEQEND
0
POLYLINE
66
1
8
0
6
CONTINUOUS
62
252
70
64
75
0
10
0.000000
20
0.000000
30
0.000000
0
VERTEX
8
0
6
CONTINUOUS
62
252
70
192
10
-14.825606
20
-0.909773
30
3.093050
0
VERTEX
8
0
6
CONTINUOUS
62
252
70
192
10
-14.854869
20
-1.012241
30
3.100266
0
VERTEX
8
0
6
CONTINUOUS
62
252
70
192
10
-14.898237
20
-1.109624
30
3.110909
0
VERTEX
8
0
6
CONTINUOUS
62
252
70
192
10
-14.953981
20
-1.198827
30
3.124503
0
VERTEX
8
0
6
CONTINUOUS
62
252
70
192
10
-15.019311
20
-1.277183
30
3.140311
0
VERTEX
8
0
6
CONTINUOUS
62
252
70
192
10
-15.094482
20
-1.345113
30
3.158330
0
VERTEX
8
0
6
CONTINUOUS
62
252
70
192
10
-15.180467
20
-1.403451
30
3.178726
0
VERTEX
8
0
6
CONTINUOUS
62
252
70
192
10
-15.274699
20
-1.449301
30
3.200813
0
VERTEX
8
0
6
CONTINUOUS
62
252
70
192
10
-15.374282
20
-1.480553
30
3.223843
0
VERTEX
8
0
6
CONTINUOUS
62
252
70
192
10
-15.475508
20
-1.497076
30
3.246945
0
VERTEX
8
0
6
CONTINUOUS
62
252
70
192
10
-15.575167
20
-1.499038
30
3.269375
0
VERTEX
8
0
6
CONTINUOUS
62
252
70
192
10
-15.676298
20
-1.486474
30
3.291811
0
VERTEX
8
0
6
CONTINUOUS
62
252
70
192
10
-15.776954
20
-1.459225
30
3.313838
0
VERTEX
8
0
6
CONTINUOUS
62
252
70
192
10
-15.873325
20
-1.417212
30
3.334627
0
VERTEX
8
0
6
CONTINUOUS
62
252
70
192
10
-15.962239
20
-1.361962
30
3.353551
0
VERTEX
8
0
6
CONTINUOUS
62
252
70
192
10
-16.041062
20
-1.296338
30
3.370126
0
VERTEX
8
0
6
CONTINUOUS
62
252
70
192
10
-16.109150
20
-1.221190
30
3.384286
0
VERTEX
8
0
6
CONTINUOUS
62
252
70
192
10
-16.168224
20
-1.134651
30
3.396455
0
VERTEX
8
0
6
CONTINUOUS
62
252
70
192
10
-16.215596
20
-1.039206
30
3.406138
0
VERTEX
8
0
6
CONTINUOUS
62
252
70
192
10
-16.248879
20
-0.937716
30
3.412902
0
VERTEX
8
0
6
CONTINUOUS
62
252
70
192
10
-16.267697
20
-0.833888
30
3.416709
0
VERTEX
8
0
6
CONTINUOUS
62
252
70
192
10
-16.272213
20
-0.731501
30
3.417619
0
VERTEX
8
0
6
CONTINUOUS
62
252
70
192
10
-16.262501
20
-0.628234
30
3.415659
0
VERTEX
8
0
6
CONTINUOUS
62
252
70
192
10
-16.238428
20
-0.524803
30
3.410781
0
VERTEX
8
0
6
CONTINUOUS
62
252
70
192
10
-16.199860
20
-0.425131
30
3.402930
0
VERTEX
8
0
6
CONTINUOUS
62
252
70
192
10
-16.147890
20
-0.332625
30
3.392278
0
VERTEX
8
0
6
CONTINUOUS
62
252
70
192
10
-16.085261
20
-0.249994
30
3.379334
0
VERTEX
8
0
6
CONTINUOUS
62
252
70
192
10
-16.013658
20
-0.178717
30
3.364385
0
VERTEX
8
0
6
CONTINUOUS
62
252
70
192
10
-15.930852
20
-0.116539
30
3.346898
0
VERTEX
8
0
6
CONTINUOUS
62
252
70
192
10
-15.838909
20
-0.065794
30
3.327238
0
VERTEX
8
0
6
CONTINUOUS
62
252
70
192
10
-15.740553
20
-0.029128
30
3.305908
0
VERTEX
8
0
6
CONTINUOUS
62
252
70
192
10
-15.639279
20
-0.007253
30
3.283634
0
VERTEX
8
0
6
CONTINUOUS
62
252
70
192
10
-15.538931
20
0.000000
30
3.261257
0
VERTEX
8
0
6
CONTINUOUS
62
252
70
192
10
-20.398094
20
0.000000
30
3.994036
0
VERTEX
8
0
6
CONTINUOUS
62
252
70
192
10
-25.312075
20
0.000000
30
4.029010
0
VERTEX
8
0
6
CONTINUOUS
62
252
70
192
10
-30.181176
20
0.000000
30
3.365470
0
VERTEX
8
0
6
CONTINUOUS
62
252
70
192
10
-34.906610
20
0.000000
30
2.016878
0
VERTEX
8
0
6
CONTINUOUS
62
252
70
192
10
-39.392506
20
0.000000
30
0.010594
0
VERTEX
8
0
6
CONTINUOUS
62
252
70
192
10
-39.392506
20
-30.000000
30
0.010594
0
VERTEX
8
0
6
CONTINUOUS
62
252
70
192
10
-34.565195
20
-30.000000
30
2.139197
0
VERTEX
8
0
6
CONTINUOUS
62
252
70
192
10
-29.469771
20
-30.000000
30
3.506873
0
VERTEX
8
0
6
CONTINUOUS
62
252
70
192
10
-24.225390
20
-30.000000
30
4.081640
0
VERTEX
8
0
6
CONTINUOUS
62
252
70
192
10
-18.954692
20
-30.000000
30
3.850057
0
VERTEX
8
0
6
CONTINUOUS
62
252
70
192
10
-13.780933
20
-30.000000
30
2.817540
0
VERTEX
8
0
6
CONTINUOUS
62
252
70
192
10
-8.825098
20
-30.000000
30
1.008234
0
VERTEX
8
0
6
CONTINUOUS
62
252
70
192
10
-8.825098
20
0.000000
30
1.008234
0
VERTEX
8
0
6
CONTINUOUS
62
252
70
192
10
-10.553248
20
0.000000
30
1.737657
0
VERTEX
8
0
6
CONTINUOUS
62
252
70
192
10
-12.318489
20
0.000000
30
2.372077
0
VERTEX
8
0
6
CONTINUOUS
62
252
70
192
10
-14.115601
20
0.000000
30
2.909617
0
VERTEX
8
0
6
CONTINUOUS
62
252
70
192
10
-14.016307
20
-0.007245
30
2.882669
0
VERTEX
8
0
6
CONTINUOUS
62
252
70
192
10
-13.916230
20
-0.029095
30
2.855196
0
VERTEX
8
0
6
CONTINUOUS
62
252
70
192
10
-13.819158
20
-0.065715
30
2.828240
0
VERTEX
8
0
6
CONTINUOUS
62
252
70
192
10
-13.728517
20
-0.116404
30
2.802788
0
VERTEX
8
0
6
CONTINUOUS
62
252
70
192
10
-13.646952
20
-0.178529
30
2.779660
0
VERTEX
8
0
6
CONTINUOUS
62
252
70
192
10
-13.576475
20
-0.249754
30
2.759500
0
VERTEX
8
0
6
CONTINUOUS
62
252
70
192
10
-13.514872
20
-0.332340
30
2.741744
0
VERTEX
8
0
6
CONTINUOUS
62
252
70
192
10
-13.463765
20
-0.424831
30
2.726922
0
VERTEX
8
0
6
CONTINUOUS
62
252
70
192
10
-13.425837
20
-0.524519
30
2.715867
0
VERTEX
8
0
6
CONTINUOUS
62
252
70
192
10
-13.402160
20
-0.627996
30
2.708943
0
VERTEX
8
0
6
CONTINUOUS
62
252
70
192
10
-13.392597
20
-0.731331
30
2.706137
0
VERTEX
8
0
6
CONTINUOUS
62
252
70
192
10
-13.397012
20
-0.833784
30
2.707434
0
VERTEX
8
0
6
CONTINUOUS
62
252
70
192
10
-13.415480
20
-0.937667
30
2.712841
0
VERTEX
8
0
6
CONTINUOUS
62
252
70
192
10
-13.448167
20
-1.039198
30
2.722381
0
VERTEX
8
0
6
CONTINUOUS
62
252
70
192
10
-13.494712
20
-1.134663
30
2.735908
0
VERTEX
8
0
6
CONTINUOUS
62
252
70
192
10
-13.552781
20
-1.221200
30
2.752685
0
VERTEX
8
0
6
CONTINUOUS
62
252
70
192
10
-13.619749
20
-1.296327
30
2.771898
0
VERTEX
8
0
6
CONTINUOUS
62
252
70
192
10
-13.697337
20
-1.361929
30
2.793971
0
VERTEX
8
0
6
CONTINUOUS
62
252
70
192
10
-13.784936
20
-1.417159
30
2.818662
0
VERTEX
8
0
6
CONTINUOUS
62
252
70
192
10
-13.879989
20
-1.459165
30
2.845169
0
VERTEX
8
0
6
CONTINUOUS
62
252
70
192
10
-13.979400
20
-1.486428
30
2.872573
0
VERTEX
8
0
6
CONTINUOUS
62
252
70
192
10
-14.079422
20
-1.499023
30
2.899836
0
VERTEX
8
0
6
CONTINUOUS
62
252
70
192
10
-14.178129
20
-1.497107
30
2.926416
0
VERTEX
8
0
6
CONTINUOUS
62
252
70
192
10
-14.278544
20
-1.480638
30
2.953132
0
VERTEX
8
0
6
CONTINUOUS
62
252
70
192
10
-14.377486
20
-1.449438
30
2.979151
0
VERTEX
8
0
6
CONTINUOUS
62
252
70
192
10
-14.471263
20
-1.403629
30
3.003514
0
VERTEX
8
0
6
CONTINUOUS
62
252
70
192
10
-14.556955
20
-1.345308
30
3.025533
0
VERTEX
8
0
6
CONTINUOUS
62
252
70
192
10
-14.631968
20
-1.277370
30
3.044617
0
VERTEX
8
0
6
CONTINUOUS
62
252
70
192
10
-14.697217
20
-1.198998
30
3.061069
0
VERTEX
8
0
6
CONTINUOUS
62
252
70
192
10
-14.752940
20
-1.109754
30
3.075014
0
VERTEX
8
0
6
CONTINUOUS
62
252
70
192
10
-14.796323
20
-1.012312
30
3.085802
0
VERTEX
8
0
6
CONTINUOUS
62
252
70
192
10
-19.020946
20
-13.700000
30
3.858011
0
VERTEX
8
0
6
CONTINUOUS
62
252
70
192
10
-15.719627
20
-13.700000
30
3.301337
0
VERTEX
8
0
6
CONTINUOUS
62
252
70
192
10
-12.487810
20
-13.700000
30
2.427297
0
VERTEX
8
0
6
CONTINUOUS
62
252
70
192
10
-9.355928
20
-13.700000
30
1.244123
0
VERTEX
8
0
6
CONTINUOUS
62
252
70
192
10
-9.355928
20
-18.700000
30
1.244123
0
VERTEX
8
0
6
CONTINUOUS
62
252
70
192
10
-12.487810
20
-18.700000
30
2.427297
0
VERTEX
8
0
6
CONTINUOUS
62
252
70
192
10
-15.719627
20
-18.700000
30
3.301337
0
VERTEX
8
0
6
CONTINUOUS
62
252
70
192
10
-19.020946
20
-18.700000
30
3.858011
0
VERTEX
8
0
6
CONTINUOUS
62
252
70
128
10
0.000000
20
0.000000
30
0.000000
71
1
72
2
73
80
0
VERTEX
8
0
6
CONTINUOUS
62
252
70
128
10
0.000000
20
0.000000
30
0.000000
71
80
72
2
73
3
0
VERTEX
8
0
6
CONTINUOUS
62
252
70
128
10
0.000000
20
0.000000
30
0.000000
71
80
72
3
73
79
0
VERTEX
8
0
6
CONTINUOUS
62
252
70
128
10
0.000000
20
0.000000
30
0.000000
71
79
72
3
73
4
0
VERTEX
8
0
6
CONTINUOUS
62
252
70
128
10
0.000000
20
0.000000
30
0.000000
71
79
72
4
73
78
0
VERTEX
8
0
6
CONTINUOUS
62
252
70
128
10
0.000000
20
0.000000
30
0.000000
71
78
72
4
73
5
0
VERTEX
8
0
6
CONTINUOUS
62
252
70
128
10
0.000000
20
0.000000
30
0.000000
71
78
72
5
73
77
0
VERTEX
8
0
6
CONTINUOUS
62
252
70
128
10
0.000000
20
0.000000
30
0.000000
71
77
72
5
73
82
0
VERTEX
8
0
6
CONTINUOUS
62
252
70
128
10
0.000000
20
0.000000
30
0.000000
71
77
72
82
73
76
0
VERTEX
8
0
6
CONTINUOUS
62
252
70
128
10
0.000000
20
0.000000
30
0.000000
71
76
72
82
73
75
0
VERTEX
8
0
6
CONTINUOUS
62
252
70
128
10
0.000000
20
0.000000
30
0.000000
71
75
72
82
73
74
0
VERTEX
8
0
6
CONTINUOUS
62
252
70
128
10
0.000000
20
0.000000
30
0.000000
71
74
72
82
73
73
0
VERTEX
8
0
6
CONTINUOUS
62
252
70
128
10
0.000000
20
0.000000
30
0.000000
71
73
72
82
73
72
0
VERTEX
8
0
6
CONTINUOUS
62
252
70
128
10
0.000000
20
0.000000
30
0.000000
71
72
72
82
73
71
0
VERTEX
8
0
6
CONTINUOUS
62
252
70
128
10
0.000000
20
0.000000
30
0.000000
71
71
72
82
73
83
0
VERTEX
8
0
6
CONTINUOUS
62
252
70
128
10
0.000000
20
0.000000
30
0.000000
71
71
72
83
73
70
0
VERTEX
8
0
6
CONTINUOUS
62
252
70
128
10
0.000000
20
0.000000
30
0.000000
71
70
72
83
73
69
0
VERTEX
8
0
6
CONTINUOUS
62
252
70
128
10
0.000000
20
0.000000
30
0.000000
71
69
72
83
73
68
0
VERTEX
8
0
6
CONTINUOUS
62
252
70
128
10
0.000000
20
0.000000
30
0.000000
71
68
72
83
73
67
0
VERTEX
8
0
6
CONTINUOUS
62
252
70
128
10
0.000000
20
0.000000
30
0.000000
71
67
72
83
73
66
0
VERTEX
8
0
6
CONTINUOUS
62
252
70
128
10
0.000000
20
0.000000
30
0.000000
71
66
72
83
73
65
0
VERTEX
8
0
6
CONTINUOUS
62
252
70
128
10
0.000000
20
0.000000
30
0.000000
71
65
72
83
73
64
0
VERTEX
8
0
6
CONTINUOUS
62
252
70
128
10
0.000000
20
0.000000
30
0.000000
71
64
72
83
73
63
0
VERTEX
8
0
6
CONTINUOUS
62
252
70
128
10
0.000000
20
0.000000
30
0.000000
71
63
72
83
73
62
0
VERTEX
8
0
6
CONTINUOUS
62
252
70
128
10
0.000000
20
0.000000
30
0.000000
71
62
72
83
73
48
0
VERTEX
8
0
6
CONTINUOUS
62
252
70
128
10
0.000000
20
0.000000
30
0.000000
71
62
72
48
73
61
0
VERTEX
8
0
6
CONTINUOUS
62
252
70
128
10
0.000000
20
0.000000
30
0.000000
71
61
72
48
73
60
0
VERTEX
8
0
6
CONTINUOUS
62
252
70
128
10
0.000000
20
0.000000
30
0.000000
71
60
72
48
73
59
0
VERTEX
8
0
6
CONTINUOUS
62
252
70
128
10
0.000000
20
0.000000
30
0.000000
71
59
72
48
73
58
0
VERTEX
8
0
6
CONTINUOUS
62
252
70
128
10
0.000000
20
0.000000
30
0.000000
71
58
72
48
73
57
0
VERTEX
8
0
6
CONTINUOUS
62
252
70
128
10
0.000000
20
0.000000
30
0.000000
71
57
72
48
73
56
0
VERTEX
8
0
6
CONTINUOUS
62
252
70
128
10
0.000000
20
0.000000
30
0.000000
71
56
72
48
73
55
0
VERTEX
8
0
6
CONTINUOUS
62
252
70
128
10
0.000000
20
0.000000
30
0.000000
71
55
72
48
73
54
0
VERTEX
8
0
6
CONTINUOUS
62
252
70
128
10
0.000000
20
0.000000
30
0.000000
71
54
72
48
73
53
0
VERTEX
8
0
6
CONTINUOUS
62
252
70
128
10
0.000000
20
0.000000
30
0.000000
71
53
72
48
73
52
0
VERTEX
8
0
6
CONTINUOUS
62
252
70
128
10
0.000000
20
0.000000
30
0.000000
71
52
72
48
73
51
0
VERTEX
8
0
6
CONTINUOUS
62
252
70
128
10
0.000000
20
0.000000
30
0.000000
71
51
72
48
73
50
0
VERTEX
8
0
6
CONTINUOUS
62
252
70
128
10
0.000000
20
0.000000
30
0.000000
71
50
72
48
73
49
0
VERTEX
8
0
6
CONTINUOUS
62
252
70
128
10
0.000000
20
0.000000
30
0.000000
71
5
72
6
73
82
0
VERTEX
8
0
6
CONTINUOUS
62
252
70
128
10
0.000000
20
0.000000
30
0.000000
71
82
72
6
73
7
0
VERTEX
8
0
6
CONTINUOUS
62
252
70
128
10
0.000000
20
0.000000
30
0.000000
71
82
72
7
73
8
0
VERTEX
8
0
6
CONTINUOUS
62
252
70
128
10
0.000000
20
0.000000
30
0.000000
71
8
72
9
73
82
0
VERTEX
8
0
6
CONTINUOUS
62
252
70
128
10
0.000000
20
0.000000
30
0.000000
71
82
72
9
73
10
0
VERTEX
8
0
6
CONTINUOUS
62
252
70
128
10
0.000000
20
0.000000
30
0.000000
71
82
72
10
73
11
0
VERTEX
8
0
6
CONTINUOUS
62
252
70
128
10
0.000000
20
0.000000
30
0.000000
71
11
72
12
73
82
0
VERTEX
8
0
6
CONTINUOUS
62
252
70
128
10
0.000000
20
0.000000
30
0.000000
71
82
72
12
73
13
0
VERTEX
8
0
6
CONTINUOUS
62
252
70
128
10
0.000000
20
0.000000
30
0.000000
71
82
72
13
73
14
0
VERTEX
8
0
6
CONTINUOUS
62
252
70
128
10
0.000000
20
0.000000
30
0.000000
71
14
72
15
73
82
0
VERTEX
8
0
6
CONTINUOUS
62
252
70
128
10
0.000000
20
0.000000
30
0.000000
71
82
72
15
73
16
0
VERTEX
8
0
6
CONTINUOUS
62
252
70
128
10
0.000000
20
0.000000
30
0.000000
71
82
72
16
73
17
0
VERTEX
8
0
6
CONTINUOUS
62
252
70
128
10
0.000000
20
0.000000
30
0.000000
71
17
72
18
73
82
0
VERTEX
8
0
6
CONTINUOUS
62
252
70
128
10
0.000000
20
0.000000
30
0.000000
71
82
72
18
73
19
0
VERTEX
8
0
6
CONTINUOUS
62
252
70
128
10
0.000000
20
0.000000
30
0.000000
71
82
72
19
73
20
0
VERTEX
8
0
6
CONTINUOUS
62
252
70
128
10
0.000000
20
0.000000
30
0.000000
71
82
72
20
73
81
0
VERTEX
8
0
6
CONTINUOUS
62
252
70
128
10
0.000000
20
0.000000
30
0.000000
71
81
72
20
73
21
0
VERTEX
8
0
6
CONTINUOUS
62
252
70
128
10
0.000000
20
0.000000
30
0.000000
71
81
72
21
73
22
0
VERTEX
8
0
6
CONTINUOUS
62
252
70
128
10
0.000000
20
0.000000
30
0.000000
71
81
72
22
73
34
0
VERTEX
8
0
6
CONTINUOUS
62
252
70
128
10
0.000000
20
0.000000
30
0.000000
71
34
72
22
73
23
0
VERTEX
8
0
6
CONTINUOUS
62
252
70
128
10
0.000000
20
0.000000
30
0.000000
71
34
72
23
73
24
0
VERTEX
8
0
6
CONTINUOUS
62
252
70
128
10
0.000000
20
0.000000
30
0.000000
71
24
72
25
73
34
0
VERTEX
8
0
6
CONTINUOUS
62
252
70
128
10
0.000000
20
0.000000
30
0.000000
71
34
72
25
73
26
0
VERTEX
8
0
6
CONTINUOUS
62
252
70
128
10
0.000000
20
0.000000
30
0.000000
71
34
72
26
73
27
0
VERTEX
8
0
6
CONTINUOUS
62
252
70
128
10
0.000000
20
0.000000
30
0.000000
71
27
72
28
73
34
0
VERTEX
8
0
6
CONTINUOUS
62
252
70
128
10
0.000000
20
0.000000
30
0.000000
71
34
72
28
73
29
0
VERTEX
8
0
6
CONTINUOUS
62
252
70
128
10
0.000000
20
0.000000
30
0.000000
71
34
72
29
73
30
0
VERTEX
8
0
6
CONTINUOUS
62
252
70
128
10
0.000000
20
0.000000
30
0.000000
71
30
72
31
73
34
0
VERTEX
8
0
6
CONTINUOUS
62
252
70
128
10
0.000000
20
0.000000
30
0.000000
71
34
72
31
73
32
0
VERTEX
8
0
6
CONTINUOUS
62
252
70
128
10
0.000000
20
0.000000
30
0.000000
71
34
72
32
73
33
0
VERTEX
8
0
6
CONTINUOUS
62
252
70
128
10
0.000000
20
0.000000
30
0.000000
71
81
72
34
73
42
0
VERTEX
8
0
6
CONTINUOUS
62
252
70
128
10
0.000000
20
0.000000
30
0.000000
71
42
72
34
73
35
0
VERTEX
8
0
6
CONTINUOUS
62
252
70
128
10
0.000000
20
0.000000
30
0.000000
71
42
72
35
73
41
0
VERTEX
8
0
6
CONTINUOUS
62
252
70
128
10
0.000000
20
0.000000
30
0.000000
71
41
72
35
73
36
0
VERTEX
8
0
6
CONTINUOUS
62
252
70
128
10
0.000000
20
0.000000
30
0.000000
71
41
72
36
73
40
0
VERTEX
8
0
6
CONTINUOUS
62
252
70
128
10
0.000000
20
0.000000
30
0.000000
71
40
72
36
73
37
0
VERTEX
8
0
6
CONTINUOUS
62
252
70
128
10
0.000000
20
0.000000
30
0.000000
71
40
72
37
73
39
0
VERTEX
8
0
6
CONTINUOUS
62
252
70
128
10
0.000000
20
0.000000
30
0.000000
71
39
72
37
73
38
0
VERTEX
8
0
6
CONTINUOUS
62
252
70
128
10
0.000000
20
0.000000
30
0.000000
71
81
72
42
73
88
0
VERTEX
8
0
6
CONTINUOUS
62
252
70
128
10
0.000000
20
0.000000
30
0.000000
71
88
72
42
73
43
0
VERTEX
8
0
6
CONTINUOUS
62
252
70
128
10
0.000000
20
0.000000
30
0.000000
71
88
72
43
73
87
0
VERTEX
8
0
6
CONTINUOUS
62
252
70
128
10
0.000000
20
0.000000
30
0.000000
71
87
72
43
73
44
0
VERTEX
8
0
6
CONTINUOUS
62
252
70
128
10
0.000000
20
0.000000
30
0.000000
71
87
72
44
73
86
0
VERTEX
8
0
6
CONTINUOUS
62
252
70
128
10
0.000000
20
0.000000
30
0.000000
71
86
72
44
73
45
0
VERTEX
8
0
6
CONTINUOUS
62
252
70
128
10
0.000000
20
0.000000
30
0.000000
71
86
72
45
73
85
0
VERTEX
8
0
6
CONTINUOUS
62
252
70
128
10
0.000000
20
0.000000
30
0.000000
71
85
72
45
73
84
0
VERTEX
8
0
6
CONTINUOUS
62
252
70
128
10
0.000000
20
0.000000
30
0.000000
71
84
72
45
73
46
0
VERTEX
8
0
6
CONTINUOUS
62
252
70
128
10
0.000000
20
0.000000
30
0.000000
71
84
72
46
73
47
0
VERTEX
8
0
6
CONTINUOUS
62
252
70
128
10
0.000000
20
0.000000
30
0.000000
71
84
72
47
73
83
0
VERTEX
8
0
6
CONTINUOUS
62
252
70
128
10
0.000000
20
0.000000
30
0.000000
71
83
72
47
73
48
0
SEQEND
0
POLYLINE
66
1
8
0
6
CONTINUOUS
62
252
70
64
75
0
10
0.000000
20
0.000000
30
0.000000
0
VERTEX
8
0
6
CONTINUOUS
62
252
70
192
10
-9.756608
20
-0.750000
30
19.381139
0
VERTEX
8
0
6
CONTINUOUS
62
252
70
192
10
-9.767741
20
-0.619764
30
19.383566
0
VERTEX
8
0
6
CONTINUOUS
62
252
70
192
10
-9.800800
20
-0.493485
30
19.390774
0
VERTEX
8
0
6
CONTINUOUS
62
252
70
192
10
-9.854783
20
-0.375000
30
19.402544
0
VERTEX
8
0
6
CONTINUOUS
62
252
70
192
10
-9.928047
20
-0.267909
30
19.418518
0
VERTEX
8
0
6
CONTINUOUS
62
252
70
192
10
-10.018368
20
-0.175467
30
19.438212
0
VERTEX
8
0
6
CONTINUOUS
62
252
70
192
10
-10.123000
20
-0.100481
30
19.461025
0
VERTEX
8
0
6
CONTINUOUS
62
252
70
192
10
-10.238765
20
-0.045231
30
19.486266
0
VERTEX
8
0
6
CONTINUOUS
62
252
70
192
10
-10.362146
20
-0.011394
30
19.513167
0
VERTEX
8
0
6
CONTINUOUS
62
252
70
192
10
-10.489392
20
0.000000
30
19.540911
0
VERTEX
8
0
6
CONTINUOUS
62
252
70
192
10
-10.616639
20
-0.011394
30
19.568656
0
VERTEX
8
0
6
CONTINUOUS
62
252
70
192
10
-10.740019
20
-0.045231
30
19.595557
0
VERTEX
8
0
6
CONTINUOUS
62
252
70
192
10
-10.855784
20
-0.100481
30
19.620798
0
VERTEX
8
0
6
CONTINUOUS
62
252
70
192
10
-10.960417
20
-0.175467
30
19.643611
0
VERTEX
8
0
6
CONTINUOUS
62
252
70
192
10
-11.050738
20
-0.267909
30
19.663305
0
VERTEX
8
0
6
CONTINUOUS
62
252
70
192
10
-11.124002
20
-0.375000
30
19.679279
0
VERTEX
8
0
6
CONTINUOUS
62
252
70
192
10
-11.177984
20
-0.493485
30
19.691049
0
VERTEX
8
0
6
CONTINUOUS
62
252
70
192
10
-11.211044
20
-0.619764
30
19.698257
0
VERTEX
8
0
6
CONTINUOUS
62
252
70
192
10
-11.222176
20
-0.750000
30
19.700684
0
VERTEX
8
0
6
CONTINUOUS
62
252
70
192
10
-11.211044
20
-0.880236
30
19.698257
0
VERTEX
8
0
6
CONTINUOUS
62
252
70
192
10
-11.177984
20
-1.006515
30
19.691049
0
VERTEX
8
0
6
CONTINUOUS
62
252
70
192
10
-11.124002
20
-1.125000
30
19.679279
0
VERTEX
8
0
6
CONTINUOUS
62
252
70
192
10
-11.050738
20
-1.232091
30
19.663305
0
VERTEX
8
0
6
CONTINUOUS
62
252
70
192
10
-10.960417
20
-1.324533
30
19.643611
0
VERTEX
8
0
6
CONTINUOUS
62
252
70
192
10
-10.855784
20
-1.399519
30
19.620798
0
VERTEX
8
0
6
CONTINUOUS
62
252
70
192
10
-10.740019
20
-1.454769
30
19.595557
0
VERTEX
8
0
6
CONTINUOUS
62
252
70
192
10
-10.616639
20
-1.488606
30
19.568656
0
VERTEX
8
0
6
CONTINUOUS
62
252
70
192
10
-10.489392
20
-1.500000
30
19.540911
0
VERTEX
8
0
6
CONTINUOUS
62
252
70
192
10
-10.362146
20
-1.488606
30
19.513167
0
VERTEX
8
0
6
CONTINUOUS
62
252
70
192
10
-10.238765
20
-1.454769
30
19.486266
0
VERTEX
8
0
6
CONTINUOUS
62
252
70
192
10
-10.123000
20
-1.399519
30
19.461025
0
VERTEX
8
0
6
CONTINUOUS
62
252
70
192
10
-10.018368
20
-1.324533
30
19.438212
0
VERTEX
8
0
6
CONTINUOUS
62
252
70
192
10
-9.928047
20
-1.232091
30
19.418518
0
VERTEX
8
0
6
CONTINUOUS
62
252
70
192
10
-9.854783
20
-1.125000
30
19.402544
0
VERTEX
8
0
6
CONTINUOUS
62
252
70
192
10
-9.800800
20
-1.006515
30
19.390774
0
VERTEX
8
0
6
CONTINUOUS
62
252
70
192
10
-9.767741
20
-0.880236
30
19.383566
0
VERTEX
8
0
6
CONTINUOUS
62
252
70
128
10
0.000000
20
0.000000
30
0.000000
71
2
72
16
73
1
0
VERTEX
8
0
6
CONTINUOUS
62
252
70
128
10
0.000000
20
0.000000
30
0.000000
71
1
72
16
73
17
0
VERTEX
8
0
6
CONTINUOUS
62
252
70
128
10
0.000000
20
0.000000
30
0.000000
71
1
72
17
73
18
0
VERTEX
8
0
6
CONTINUOUS
62
252
70
128
10
0.000000
20
0.000000
30
0.000000
71
2
72
3
73
16
0
VERTEX
8
0
6
CONTINUOUS
62
252
70
128
10
0.000000
20
0.000000
30
0.000000
71
16
72
3
73
4
0
VERTEX
8
0
6
CONTINUOUS
62
252
70
128
10
0.000000
20
0.000000
30
0.000000
71
16
72
4
73
15
0
VERTEX
8
0
6
CONTINUOUS
62
252
70
128
10
0.000000
20
0.000000
30
0.000000
71
15
72
4
73
14
0
VERTEX
8
0
6
CONTINUOUS
62
252
70
128
10
0.000000
20
0.000000
30
0.000000
71
14
72
4
73
5
0
VERTEX
8
0
6
CONTINUOUS
62
252
70
128
10
0.000000
20
0.000000
30
0.000000
71
14
72
5
73
6
0
VERTEX
8
0
6
CONTINUOUS
62
252
70
128
10
0.000000
20
0.000000
30
0.000000
71
6
72
7
73
14
0
VERTEX
8
0
6
CONTINUOUS
62
252
70
128
10
0.000000
20
0.000000
30
0.000000
71
14
72
7
73
8
0
VERTEX
8
0
6
CONTINUOUS
62
252
70
128
10
0.000000
20
0.000000
30
0.000000
71
14
72
8
73
13
0
VERTEX
8
0
6
CONTINUOUS
62
252
70
128
10
0.000000
20
0.000000
30
0.000000
71
13
72
8
73
12
0
VERTEX
8
0
6
CONTINUOUS
62
252
70
128
10
0.000000
20
0.000000
30
0.000000
71
12
72
8
73
11
0
VERTEX
8
0
6
CONTINUOUS
62
252
70
128
10
0.000000
20
0.000000
30
0.000000
71
11
72
8
73
9
0
VERTEX
8
0
6
CONTINUOUS
62
252
70
128
10
0.000000
20
0.000000
30
0.000000
71
11
72
9
73
10
0
VERTEX
8
0
6
CONTINUOUS
62
252
70
128
10
0.000000
20
0.000000
30
0.000000
71
18
72
19
73
1
0
VERTEX
8
0
6
CONTINUOUS
62
252
70
128
10
0.000000
20
0.000000
30
0.000000
71
1
72
19
73
20
0
VERTEX
8
0
6
CONTINUOUS
62
252
70
128
10
0.000000
20
0.000000
30
0.000000
71
1
72
20
73
21
0
VERTEX
8
0
6
CONTINUOUS
62
252
70
128
10
0.000000
20
0.000000
30
0.000000
71
21
72
22
73
1
0
VERTEX
8
0
6
CONTINUOUS
62
252
70
128
10
0.000000
20
0.000000
30
0.000000
71
1
72
22
73
36
0
VERTEX
8
0
6
CONTINUOUS
62
252
70
128
10
0.000000
20
0.000000
30
0.000000
71
36
72
22
73
35
0
VERTEX
8
0
6
CONTINUOUS
62
252
70
128
10
0.000000
20
0.000000
30
0.000000
71
35
72
22
73
34
0
VERTEX
8
0
6
CONTINUOUS
62
252
70
128
10
0.000000
20
0.000000
30
0.000000
71
34
72
22
73
33
0
VERTEX
8
0
6
CONTINUOUS
62
252
70
128
10
0.000000
20
0.000000
30
0.000000
71
33
72
22
73
32
0
VERTEX
8
0
6
CONTINUOUS
62
252
70
128
10
0.000000
20
0.000000
30
0.000000
71
32
72
22
73
23
0
VERTEX
8
0
6
CONTINUOUS
62
252
70
128
10
0.000000
20
0.000000
30
0.000000
71
32
72
23
73
24
0
VERTEX
8
0
6
CONTINUOUS
62
252
70
128
10
0.000000
20
0.000000
30
0.000000
71
24
72
25
73
32
0
VERTEX
8
0
6
CONTINUOUS
62
252
70
128
10
0.000000
20
0.000000
30
0.000000
71
32
72
25
73
26
0
VERTEX
8
0
6
CONTINUOUS
62
252
70
128
10
0.000000
20
0.000000
30
0.000000
71
32
72
26
73
31
0
VERTEX
8
0
6
CONTINUOUS
62
252
70
128
10
0.000000
20
0.000000
30
0.000000
71
31
72
26
73
30
0
VERTEX
8
0
6
CONTINUOUS
62
252
70
128
10
0.000000
20
0.000000
30
0.000000
71
30
72
26
73
27
0
VERTEX
8
0
6
CONTINUOUS
62
252
70
128
10
0.000000
20
0.000000
30
0.000000
71
30
72
27
73
28
0
VERTEX
8
0
6
CONTINUOUS
62
252
70
128
10
0.000000
20
0.000000
30
0.000000
71
28
72
29
73
30
0
SEQEND
0
POLYLINE
66
1
8
0
6
CONTINUOUS
62
252
70
64
75
0
10
0.000000
20
0.000000
30
0.000000
0
VERTEX
8
0
6
CONTINUOUS
62
252
70
192
10
-15.538931
20
0.000000
30
3.261257
0
VERTEX
8
0
6
CONTINUOUS
62
252
70
192
10
-15.417931
20
-0.010530
30
3.233842
0
VERTEX
8
0
6
CONTINUOUS
62
252
70
192
10
-15.296917
20
-0.042319
30
3.205978
0
VERTEX
8
0
6
CONTINUOUS
62
252
70
192
10
-15.238496
20
-0.066275
30
3.192361
0
VERTEX
8
0
6
CONTINUOUS
62
252
70
192
10
-15.182472
20
-0.095389
30
3.179199
0
VERTEX
8
0
6
CONTINUOUS
62
252
70
192
10
-15.079898
20
-0.166640
30
3.154848
0
VERTEX
8
0
6
CONTINUOUS
62
252
70
192
10
-14.993089
20
-0.251663
30
3.133982
0
VERTEX
8
0
6
CONTINUOUS
62
252
70
192
10
-14.919689
20
-0.352765
30
3.116152
0
VERTEX
8
0
6
CONTINUOUS
62
252
70
192
10
-14.862608
20
-0.467320
30
3.102170
0
VERTEX
8
0
6
CONTINUOUS
62
252
70
192
10
-14.825606
20
-0.590227
30
3.093050
0
VERTEX
8
0
6
CONTINUOUS
62
252
70
192
10
-14.788595
20
-0.467275
30
3.083885
0
VERTEX
8
0
6
CONTINUOUS
62
252
70
192
10
-14.731533
20
-0.352685
30
3.069668
0
VERTEX
8
0
6
CONTINUOUS
62
252
70
192
10
-14.658226
20
-0.251569
30
3.051255
0
VERTEX
8
0
6
CONTINUOUS
62
252
70
192
10
-14.571623
20
-0.166546
30
3.029279
0
VERTEX
8
0
6
CONTINUOUS
62
252
70
192
10
-14.469440
20
-0.095312
30
3.003043
0
VERTEX
8
0
6
CONTINUOUS
62
252
70
192
10
-14.413698
20
-0.066214
30
2.988593
0
VERTEX
8
0
6
CONTINUOUS
62
252
70
192
10
-14.355624
20
-0.042275
30
2.973429
0
VERTEX
8
0
6
CONTINUOUS
62
252
70
192
10
-14.235497
20
-0.010516
30
2.941717
0
VERTEX
8
0
6
CONTINUOUS
62
252
70
192
10
-14.115601
20
0.000000
30
2.909617
0
VERTEX
8
0
6
CONTINUOUS
62
252
70
192
10
-14.588368
20
0.000000
30
3.033548
0
VERTEX
8
0
6
CONTINUOUS
62
252
70
192
10
-15.062843
20
0.000000
30
3.150769
0
VERTEX
8
0
6
CONTINUOUS
62
252
70
128
10
0.000000
20
0.000000
30
0.000000
71
1
72
2
73
21
0
VERTEX
8
0
6
CONTINUOUS
62
252
70
128
10
0.000000
20
0.000000
30
0.000000
71
21
72
2
73
3
0
VERTEX
8
0
6
CONTINUOUS
62
252
70
128
10
0.000000
20
0.000000
30
0.000000
71
21
72
3
73
4
0
VERTEX
8
0
6
CONTINUOUS
62
252
70
128
10
0.000000
20
0.000000
30
0.000000
71
4
72
5
73
21
0
VERTEX
8
0
6
CONTINUOUS
62
252
70
128
10
0.000000
20
0.000000
30
0.000000
71
21
72
5
73
6
0
VERTEX
8
0
6
CONTINUOUS
62
252
70
128
10
0.000000
20
0.000000
30
0.000000
71
21
72
6
73
7
0
VERTEX
8
0
6
CONTINUOUS
62
252
70
128
10
0.000000
20
0.000000
30
0.000000
71
7
72
8
73
21
0
VERTEX
8
0
6
CONTINUOUS
62
252
70
128
10
0.000000
20
0.000000
30
0.000000
71
21
72
8
73
12
0
VERTEX
8
0
6
CONTINUOUS
62
252
70
128
10
0.000000
20
0.000000
30
0.000000
71
21
72
12
73
20
0
VERTEX
8
0
6
CONTINUOUS
62
252
70
128
10
0.000000
20
0.000000
30
0.000000
71
20
72
12
73
13
0
VERTEX
8
0
6
CONTINUOUS
62
252
70
128
10
0.000000
20
0.000000
30
0.000000
71
20
72
13
73
14
0
VERTEX
8
0
6
CONTINUOUS
62
252
70
128
10
0.000000
20
0.000000
30
0.000000
71
12
72
8
73
11
0
VERTEX
8
0
6
CONTINUOUS
62
252
70
128
10
0.000000
20
0.000000
30
0.000000
71
11
72
8
73
9
0
VERTEX
8
0
6
CONTINUOUS
62
252
70
128
10
0.000000
20
0.000000
30
0.000000
71
11
72
9
73
10
0
VERTEX
8
0
6
CONTINUOUS
62
252
70
128
10
0.000000
20
0.000000
30
0.000000
71
14
72
15
73
20
0
VERTEX
8
0
6
CONTINUOUS
62
252
70
128
10
0.000000
20
0.000000
30
0.000000
71
20
72
15
73
16
0
VERTEX
8
0
6
CONTINUOUS
62
252
70
128
10
0.000000
20
0.000000
30
0.000000
71
20
72
16
73
17
0
VERTEX
8
0
6
CONTINUOUS
62
252
70
128
10
0.000000
20
0.000000
30
0.000000
71
17
72
18
73
20
0
VERTEX
8
0
6
CONTINUOUS
62
252
70
128
10
0.000000
20
0.000000
30
0.000000
71
20
72
18
73
19
0
SEQEND
0
POLYLINE
66
1
8
0
6
CONTINUOUS
62
252
70
64
75
0
10
0.000000
20
0.000000
30
0.000000
0
VERTEX
8
0
6
CONTINUOUS
62
252
70
192
10
-9.355928
20
-18.700000
30
1.244123
0
VERTEX
8
0
6
CONTINUOUS
62
252
70
192
10
-9.355928
20
-13.700000
30
1.244123
0
VERTEX
8
0
6
CONTINUOUS
62
252
70
192
10
-8.929544
20
-13.700000
30
3.199696
0
VERTEX
8
0
6
CONTINUOUS
62
252
70
192
10
-8.929544
20
-18.700000
30
3.199696
0
VERTEX
8
0
6
CONTINUOUS
62
252
70
128
10
0.000000
20
0.000000
30
0.000000
71
2
72
3
73
1
0
VERTEX
8
0
6
CONTINUOUS
62
252
70
128
10
0.000000
20
0.000000
30
0.000000
71
1
72
3
73
4
0
SEQEND
0
POLYLINE
66
1
8
0
6
CONTINUOUS
62
252
70
64
75
0
10
0.000000
20
0.000000
30
0.000000
0
VERTEX
8
0
6
CONTINUOUS
62
252
70
192
10
-9.355928
20
-13.700000
30
1.244123
0
VERTEX
8
0
6
CONTINUOUS
62
252
70
192
10
-12.487810
20
-13.700000
30
2.427297
0
VERTEX
8
0
6
CONTINUOUS
62
252
70
192
10
-15.719627
20
-13.700000
30
3.301337
0
VERTEX
8
0
6
CONTINUOUS
62
252
70
192
10
-19.020946
20
-13.700000
30
3.858011
0
VERTEX
8
0
6
CONTINUOUS
62
252
70
192
10
-18.700000
20
-13.700000
30
5.330000
0
VERTEX
8
0
6
CONTINUOUS
62
252
70
192
10
-8.929544
20
-13.700000
30
3.199696
0
VERTEX
8
0
6
CONTINUOUS
62
252
70
128
10
0.000000
20
0.000000
30
0.000000
71
1
72
2
73
6
0
VERTEX
8
0
6
CONTINUOUS
62
252
70
128
10
0.000000
20
0.000000
30
0.000000
71
6
72
2
73
3
0
VERTEX
8
0
6
CONTINUOUS
62
252
70
128
10
0.000000
20
0.000000
30
0.000000
71
6
72
3
73
5
0
VERTEX
8
0
6
CONTINUOUS
62
252
70
128
10
0.000000
20
0.000000
30
0.000000
71
5
72
3
73
4
0
SEQEND
0
POLYLINE
66
1
8
0
6
CONTINUOUS
62
252
70
64
75
0
10
0.000000
20
0.000000
30
0.000000
0
VERTEX
8
0
6
CONTINUOUS
62
252
70
192
10
-8.929544
20
-18.700000
30
3.199696
0
VERTEX
8
0
6
CONTINUOUS
62
252
70
192
10
-8.929544
20
-13.700000
30
3.199696
0
VERTEX
8
0
6
CONTINUOUS
62
252
70
192
10
-18.700000
20
-13.700000
30
5.330000
0
VERTEX
8
0
6
CONTINUOUS
62
252
70
192
10
-18.700000
20
-18.700000
30
5.330000
0
VERTEX
8
0
6
CONTINUOUS
62
252
70
128
10
0.000000
20
0.000000
30
0.000000
71
2
72
3
73
1
0
VERTEX
8
0
6
CONTINUOUS
62
252
70
128
10
0.000000
20
0.000000
30
0.000000
71
1
72
3
73
4
0
SEQEND
0
POLYLINE
66
1
8
0
6
CONTINUOUS
62
252
70
64
75
0
10
0.000000
20
0.000000
30
0.000000
0
VERTEX
8
0
6
CONTINUOUS
62
252
70
192
10
-19.020946
20
-13.700000
30
3.858011
0
VERTEX
8
0
6
CONTINUOUS
62
252
70
192
10
-19.020946
20
-18.700000
30
3.858011
0
VERTEX
8
0
6
CONTINUOUS
62
252
70
192
10
-18.700000
20
-18.700000
30
5.330000
0
VERTEX
8
0
6
CONTINUOUS
62
252
70
192
10
-18.700000
20
-13.700000
30
5.330000
0
VERTEX
8
0
6
CONTINUOUS
62
252
70
128
10
0.000000
20
0.000000
30
0.000000
71
1
72
2
73
4
0
VERTEX
8
0
6
CONTINUOUS
62
252
70
128
10
0.000000
20
0.000000
30
0.000000
71
4
72
2
73
3
0
SEQEND
0
POLYLINE
66
1
8
0
6
CONTINUOUS
62
252
70
64
75
0
10
0.000000
20
0.000000
30
0.000000
0
VERTEX
8
0
6
CONTINUOUS
62
252
70
192
10
-19.020946
20
-18.700000
30
3.858011
0
VERTEX
8
0
6
CONTINUOUS
62
252
70
192
10
-15.719627
20
-18.700000
30
3.301337
0
VERTEX
8
0
6
CONTINUOUS
62
252
70
192
10
-12.487810
20
-18.700000
30
2.427297
0
VERTEX
8
0
6
CONTINUOUS
62
252
70
192
10
-9.355928
20
-18.700000
30
1.244123
0
VERTEX
8
0
6
CONTINUOUS
62
252
70
192
10
-8.929544
20
-18.700000
30
3.199696
0
VERTEX
8
0
6
CONTINUOUS
62
252
70
192
10
-18.700000
20
-18.700000
30
5.330000
0
VERTEX
8
0
6
CONTINUOUS
62
252
70
128
10
0.000000
20
0.000000
30
0.000000
71
1
72
2
73
6
0
VERTEX
8
0
6
CONTINUOUS
62
252
70
128
10
0.000000
20
0.000000
30
0.000000
71
6
72
2
73
5
0
VERTEX
8
0
6
CONTINUOUS
62
252
70
128
10
0.000000
20
0.000000
30
0.000000
71
5
72
2
73
3
0
VERTEX
8
0
6
CONTINUOUS
62
252
70
128
10
0.000000
20
0.000000
30
0.000000
71
5
72
3
73
4
0
SEQEND
0
POLYLINE
66
1
8
0
6
CONTINUOUS
62
252
70
64
75
0
10
0.000000
20
0.000000
30
0.000000
0
VERTEX
8
0
6
CONTINUOUS
62
252
70
192
10
-3.350000
20
-30.000000
30
-30.900000
0
VERTEX
8
0
6
CONTINUOUS
62
252
70
192
10
-3.627259
20
-30.000000
30
-34.069079
0
VERTEX
8
0
6
CONTINUOUS
62
252
70
192
10
-4.450610
20
-30.000000
30
-37.141868
0
VERTEX
8
0
6
CONTINUOUS
62
252
70
192
10
-5.795036
20
-30.000000
30
-40.025000
0
VERTEX
8
0
6
CONTINUOUS
62
252
70
192
10
-7.619689
20
-30.000000
30
-42.630874
0
VERTEX
8
0
6
CONTINUOUS
62
252
70
192
10
-9.869126
20
-30.000000
30
-44.880311
0
VERTEX
8
0
6
CONTINUOUS
62
252
70
192
10
-12.475000
20
-30.000000
30
-46.704964
0
VERTEX
8
0
6
CONTINUOUS
62
252
70
192
10
-15.358132
20
-30.000000
30
-48.049390
0
VERTEX
8
0
6
CONTINUOUS
62
252
70
192
10
-18.430921
20
-30.000000
30
-48.872741
0
VERTEX
8
0
6
CONTINUOUS
62
252
70
192
10
-21.600000
20
-30.000000
30
-49.150000
0
VERTEX
8
0
6
CONTINUOUS
62
252
70
192
10
-24.769079
20
-30.000000
30
-48.872741
0
VERTEX
8
0
6
CONTINUOUS
62
252
70
192
10
-27.841868
20
-30.000000
30
-48.049390
0
VERTEX
8
0
6
CONTINUOUS
62
252
70
192
10
-30.725000
20
-30.000000
30
-46.704964
0
VERTEX
8
0
6
CONTINUOUS
62
252
70
192
10
-33.330874
20
-30.000000
30
-44.880311
0
VERTEX
8
0
6
CONTINUOUS
62
252
70
192
10
-35.580311
20
-30.000000
30
-42.630874
0
VERTEX
8
0
6
CONTINUOUS
62
252
70
192
10
-37.404964
20
-30.000000
30
-40.025000
0
VERTEX
8
0
6
CONTINUOUS
62
252
70
192
10
-38.749390
20
-30.000000
30
-37.141868
0
VERTEX
8
0
6
CONTINUOUS
62
252
70
192
10
-39.572741
20
-30.000000
30
-34.069079
0
VERTEX
8
0
6
CONTINUOUS
62
252
70
192
10
-39.850000
20
-30.000000
30
-30.900000
0
VERTEX
8
0
6
CONTINUOUS
62
252
70
192
10
-39.572741
20
-30.000000
30
-27.730921
0
VERTEX
8
0
6
CONTINUOUS
62
252
70
192
10
-38.749390
20
-30.000000
30
-24.658132
0
VERTEX
8
0
6
CONTINUOUS
62
252
70
192
10
-37.404964
20
-30.000000
30
-21.775000
0
VERTEX
8
0
6
CONTINUOUS
62
252
70
192
10
-35.580311
20
-30.000000
30
-19.169126
0
VERTEX
8
0
6
CONTINUOUS
62
252
70
192
10
-33.330874
20
-30.000000
30
-16.919689
0
VERTEX
8
0
6
CONTINUOUS
62
252
70
192
10
-30.725000
20
-30.000000
30
-15.095036
0
VERTEX
8
0
6
CONTINUOUS
62
252
70
192
10
-27.841868
20
-30.000000
30
-13.750610
0
VERTEX
8
0
6
CONTINUOUS
62
252
70
192
10
-24.769079
20
-30.000000
30
-12.927259
0
VERTEX
8
0
6
CONTINUOUS
62
252
70
192
10
-21.600000
20
-30.000000
30
-12.650000
0
VERTEX
8
0
6
CONTINUOUS
62
252
70
192
10
-18.430921
20
-30.000000
30
-12.927259
0
VERTEX
8
0
6
CONTINUOUS
62
252
70
192
10
-15.358132
20
-30.000000
30
-13.750610
0
VERTEX
8
0
6
CONTINUOUS
62
252
70
192
10
-12.475000
20
-30.000000
30
-15.095036
0
VERTEX
8
0
6
CONTINUOUS
62
252
70
192
10
-9.869126
20
-30.000000
30
-16.919689
0
VERTEX
8
0
6
CONTINUOUS
62
252
70
192
10
-7.619689
20
-30.000000
30
-19.169126
0
VERTEX
8
0
6
CONTINUOUS
62
252
70
192
10
-5.795036
20
-30.000000
30
-21.775000
0
VERTEX
8
0
6
CONTINUOUS
62
252
70
192
10
-4.450610
20
-30.000000
30
-24.658132
0
VERTEX
8
0
6
CONTINUOUS
62
252
70
192
10
-3.627259
20
-30.000000
30
-27.730921
0
VERTEX
8
0
6
CONTINUOUS
62
252
70
192
10
-3.350000
20
-4.000000
30
-30.900000
0
VERTEX
8
0
6
CONTINUOUS
62
252
70
192
10
-3.627259
20
-4.000000
30
-27.730921
0
VERTEX
8
0
6
CONTINUOUS
62
252
70
192
10
-4.450610
20
-4.000000
30
-24.658132
0
VERTEX
8
0
6
CONTINUOUS
62
252
70
192
10
-5.795036
20
-4.000000
30
-21.775000
0
VERTEX
8
0
6
CONTINUOUS
62
252
70
192
10
-7.619689
20
-4.000000
30
-19.169126
0
VERTEX
8
0
6
CONTINUOUS
62
252
70
192
10
-9.869126
20
-4.000000
30
-16.919689
0
VERTEX
8
0
6
CONTINUOUS
62
252
70
192
10
-12.475000
20
-4.000000
30
-15.095036
0
VERTEX
8
0
6
CONTINUOUS
62
252
70
192
10
-15.358132
20
-4.000000
30
-13.750610
0
VERTEX
8
0
6
CONTINUOUS
62
252
70
192
10
-18.430921
20
-4.000000
30
-12.927259
0
VERTEX
8
0
6
CONTINUOUS
62
252
70
192
10
-21.600000
20
-4.000000
30
-12.650000
0
VERTEX
8
0
6
CONTINUOUS
62
252
70
192
10
-24.769079
20
-4.000000
30
-12.927259
0
VERTEX
8
0
6
CONTINUOUS
62
252
70
192
10
-27.841868
20
-4.000000
30
-13.750610
0
VERTEX
8
0
6
CONTINUOUS
62
252
70
192
10
-30.725000
20
-4.000000
30
-15.095036
0
VERTEX
8
0
6
CONTINUOUS
62
252
70
192
10
-33.330874
20
-4.000000
30
-16.919689
0
VERTEX
8
0
6
CONTINUOUS
62
252
70
192
10
-35.580311
20
-4.000000
30
-19.169126
0
VERTEX
8
0
6
CONTINUOUS
62
252
70
192
10
-37.404964
20
-4.000000
30
-21.775000
0
VERTEX
8
0
6
CONTINUOUS
62
252
70
192
10
-38.749390
20
-4.000000
30
-24.658132
0
VERTEX
8
0
6
CONTINUOUS
62
252
70
192
10
-39.572741
20
-4.000000
30
-27.730921
0
VERTEX
8
0
6
CONTINUOUS
62
252
70
192
10
-39.850000
20
-4.000000
30
-30.900000
0
VERTEX
8
0
6
CONTINUOUS
62
252
70
192
10
-39.572741
20
-4.000000
30
-34.069079
0
VERTEX
8
0
6
CONTINUOUS
62
252
70
192
10
-38.749390
20
-4.000000
30
-37.141868
0
VERTEX
8
0
6
CONTINUOUS
62
252
70
192
10
-37.404964
20
-4.000000
30
-40.025000
0
VERTEX
8
0
6
CONTINUOUS
62
252
70
192
10
-35.580311
20
-4.000000
30
-42.630874
0
VERTEX
8
0
6
CONTINUOUS
62
252
70
192
10
-33.330874
20
-4.000000
30
-44.880311
0
VERTEX
8
0
6
CONTINUOUS
62
252
70
192
10
-30.725000
20
-4.000000
30
-46.704964
0
VERTEX
8
0
6
CONTINUOUS
62
252
70
192
10
-27.841868
20
-4.000000
30
-48.049390
0
VERTEX
8
0
6
CONTINUOUS
62
252
70
192
10
-24.769079
20
-4.000000
30
-48.872741
0
VERTEX
8
0
6
CONTINUOUS
62
252
70
192
10
-21.600000
20
-4.000000
30
-49.150000
0
VERTEX
8
0
6
CONTINUOUS
62
252
70
192
10
-18.430921
20
-4.000000
30
-48.872741
0
VERTEX
8
0
6
CONTINUOUS
62
252
70
192
10
-15.358132
20
-4.000000
30
-48.049390
0
VERTEX
8
0
6
CONTINUOUS
62
252
70
192
10
-12.475000
20
-4.000000
30
-46.704964
0
VERTEX
8
0
6
CONTINUOUS
62
252
70
192
10
-9.869126
20
-4.000000
30
-44.880311
0
VERTEX
8
0
6
CONTINUOUS
62
252
70
192
10
-7.619689
20
-4.000000
30
-42.630874
0
VERTEX
8
0
6
CONTINUOUS
62
252
70
192
10
-5.795036
20
-4.000000
30
-40.025000
0
VERTEX
8
0
6
CONTINUOUS
62
252
70
192
10
-4.450610
20
-4.000000
30
-37.141868
0
VERTEX
8
0
6
CONTINUOUS
62
252
70
192
10
-3.627259
20
-4.000000
30
-34.069079
0
VERTEX
8
0
6
CONTINUOUS
62
252
70
128
10
0.000000
20
0.000000
30
0.000000
71
2
72
72
73
1
0
VERTEX
8
0
6
CONTINUOUS
62
252
70
128
10
0.000000
20
0.000000
30
0.000000
71
1
72
72
73
37
0
VERTEX
8
0
6
CONTINUOUS
62
252
70
128
10
0.000000
20
0.000000
30
0.000000
71
1
72
37
73
36
0
VERTEX
8
0
6
CONTINUOUS
62
252
70
128
10
0.000000
20
0.000000
30
0.000000
71
36
72
37
73
38
0
VERTEX
8
0
6
CONTINUOUS
62
252
70
128
10
0.000000
20
0.000000
30
0.000000
71
36
72
38
73
35
0
VERTEX
8
0
6
CONTINUOUS
62
252
70
128
10
0.000000
20
0.000000
30
0.000000
71
35
72
38
73
39
0
VERTEX
8
0
6
CONTINUOUS
62
252
70
128
10
0.000000
20
0.000000
30
0.000000
71
35
72
39
73
34
0
VERTEX
8
0
6
CONTINUOUS
62
252
70
128
10
0.000000
20
0.000000
30
0.000000
71
34
72
39
73
40
0
VERTEX
8
0
6
CONTINUOUS
62
252
70
128
10
0.000000
20
0.000000
30
0.000000
71
34
72
40
73
33
0
VERTEX
8
0
6
CONTINUOUS
62
252
70
128
10
0.000000
20
0.000000
30
0.000000
71
33
72
40
73
41
0
VERTEX
8
0
6
CONTINUOUS
62
252
70
128
10
0.000000
20
0.000000
30
0.000000
71
33
72
41
73
32
0
VERTEX
8
0
6
CONTINUOUS
62
252
70
128
10
0.000000
20
0.000000
30
0.000000
71
32
72
41
73
42
0
VERTEX
8
0
6
CONTINUOUS
62
252
70
128
10
0.000000
20
0.000000
30
0.000000
71
32
72
42
73
31
0
VERTEX
8
0
6
CONTINUOUS
62
252
70
128
10
0.000000
20
0.000000
30
0.000000
71
31
72
42
73
43
0
VERTEX
8
0
6
CONTINUOUS
62
252
70
128
10
0.000000
20
0.000000
30
0.000000
71
31
72
43
73
30
0
VERTEX
8
0
6
CONTINUOUS
62
252
70
128
10
0.000000
20
0.000000
30
0.000000
71
30
72
43
73
44
0
VERTEX
8
0
6
CONTINUOUS
62
252
70
128
10
0.000000
20
0.000000
30
0.000000
71
30
72
44
73
29
0
VERTEX
8
0
6
CONTINUOUS
62
252
70
128
10
0.000000
20
0.000000
30
0.000000
71
29
72
44
73
45
0
VERTEX
8
0
6
CONTINUOUS
62
252
70
128
10
0.000000
20
0.000000
30
0.000000
71
29
72
45
73
28
0
VERTEX
8
0
6
CONTINUOUS
62
252
70
128
10
0.000000
20
0.000000
30
0.000000
71
28
72
45
73
46
0
VERTEX
8
0
6
CONTINUOUS
62
252
70
128
10
0.000000
20
0.000000
30
0.000000
71
28
72
46
73
27
0
VERTEX
8
0
6
CONTINUOUS
62
252
70
128
10
0.000000
20
0.000000
30
0.000000
71
27
72
46
73
47
0
VERTEX
8
0
6
CONTINUOUS
62
252
70
128
10
0.000000
20
0.000000
30
0.000000
71
27
72
47
73
26
0
VERTEX
8
0
6
CONTINUOUS
62
252
70
128
10
0.000000
20
0.000000
30
0.000000
71
26
72
47
73
48
0
VERTEX
8
0
6
CONTINUOUS
62
252
70
128
10
0.000000
20
0.000000
30
0.000000
71
26
72
48
73
25
0
VERTEX
8
0
6
CONTINUOUS
62
252
70
128
10
0.000000
20
0.000000
30
0.000000
71
25
72
48
73
49
0
VERTEX
8
0
6
CONTINUOUS
62
252
70
128
10
0.000000
20
0.000000
30
0.000000
71
25
72
49
73
24
0
VERTEX
8
0
6
CONTINUOUS
62
252
70
128
10
0.000000
20
0.000000
30
0.000000
71
24
72
49
73
50
0
VERTEX
8
0
6
CONTINUOUS
62
252
70
128
10
0.000000
20
0.000000
30
0.000000
71
24
72
50
73
23
0
VERTEX
8
0
6
CONTINUOUS
62
252
70
128
10
0.000000
20
0.000000
30
0.000000
71
23
72
50
73
51
0
VERTEX
8
0
6
CONTINUOUS
62
252
70
128
10
0.000000
20
0.000000
30
0.000000
71
23
72
51
73
22
0
VERTEX
8
0
6
CONTINUOUS
62
252
70
128
10
0.000000
20
0.000000
30
0.000000
71
22
72
51
73
52
0
VERTEX
8
0
6
CONTINUOUS
62
252
70
128
10
0.000000
20
0.000000
30
0.000000
71
22
72
52
73
21
0
VERTEX
8
0
6
CONTINUOUS
62
252
70
128
10
0.000000
20
0.000000
30
0.000000
71
21
72
52
73
53
0
VERTEX
8
0
6
CONTINUOUS
62
252
70
128
10
0.000000
20
0.000000
30
0.000000
71
21
72
53
73
20
0
VERTEX
8
0
6
CONTINUOUS
62
252
70
128
10
0.000000
20
0.000000
30
0.000000
71
20
72
53
73
54
0
VERTEX
8
0
6
CONTINUOUS
62
252
70
128
10
0.000000
20
0.000000
30
0.000000
71
20
72
54
73
19
0
VERTEX
8
0
6
CONTINUOUS
62
252
70
128
10
0.000000
20
0.000000
30
0.000000
71
19
72
54
73
55
0
VERTEX
8
0
6
CONTINUOUS
62
252
70
128
10
0.000000
20
0.000000
30
0.000000
71
19
72
55
73
18
0
VERTEX
8
0
6
CONTINUOUS
62
252
70
128
10
0.000000
20
0.000000
30
0.000000
71
18
72
55
73
56
0
VERTEX
8
0
6
CONTINUOUS
62
252
70
128
10
0.000000
20
0.000000
30
0.000000
71
18
72
56
73
17
0
VERTEX
8
0
6
CONTINUOUS
62
252
70
128
10
0.000000
20
0.000000
30
0.000000
71
17
72
56
73
57
0
VERTEX
8
0
6
CONTINUOUS
62
252
70
128
10
0.000000
20
0.000000
30
0.000000
71
17
72
57
73
16
0
VERTEX
8
0
6
CONTINUOUS
62
252
70
128
10
0.000000
20
0.000000
30
0.000000
71
16
72
57
73
58
0
VERTEX
8
0
6
CONTINUOUS
62
252
70
128
10
0.000000
20
0.000000
30
0.000000
71
16
72
58
73
15
0
VERTEX
8
0
6
CONTINUOUS
62
252
70
128
10
0.000000
20
0.000000
30
0.000000
71
15
72
58
73
59
0
VERTEX
8
0
6
CONTINUOUS
62
252
70
128
10
0.000000
20
0.000000
30
0.000000
71
15
72
59
73
14
0
VERTEX
8
0
6
CONTINUOUS
62
252
70
128
10
0.000000
20
0.000000
30
0.000000
71
14
72
59
73
60
0
VERTEX
8
0
6
CONTINUOUS
62
252
70
128
10
0.000000
20
0.000000
30
0.000000
71
14
72
60
73
13
0
VERTEX
8
0
6
CONTINUOUS
62
252
70
128
10
0.000000
20
0.000000
30
0.000000
71
13
72
60
73
61
0
VERTEX
8
0
6
CONTINUOUS
62
252
70
128
10
0.000000
20
0.000000
30
0.000000
71
13
72
61
73
12
0
VERTEX
8
0
6
CONTINUOUS
62
252
70
128
10
0.000000
20
0.000000
30
0.000000
71
12
72
61
73
62
0
VERTEX
8
0
6
CONTINUOUS
62
252
70
128
10
0.000000
20
0.000000
30
0.000000
71
12
72
62
73
11
0
VERTEX
8
0
6
CONTINUOUS
62
252
70
128
10
0.000000
20
0.000000
30
0.000000
71
11
72
62
73
63
0
VERTEX
8
0
6
CONTINUOUS
62
252
70
128
10
0.000000
20
0.000000
30
0.000000
71
11
72
63
73
10
0
VERTEX
8
0
6
CONTINUOUS
62
252
70
128
10
0.000000
20
0.000000
30
0.000000
71
10
72
63
73
64
0
VERTEX
8
0
6
CONTINUOUS
62
252
70
128
10
0.000000
20
0.000000
30
0.000000
71
10
72
64
73
9
0
VERTEX
8
0
6
CONTINUOUS
62
252
70
128
10
0.000000
20
0.000000
30
0.000000
71
9
72
64
73
65
0
VERTEX
8
0
6
CONTINUOUS
62
252
70
128
10
0.000000
20
0.000000
30
0.000000
71
9
72
65
73
8
0
VERTEX
8
0
6
CONTINUOUS
62
252
70
128
10
0.000000
20
0.000000
30
0.000000
71
8
72
65
73
66
0
VERTEX
8
0
6
CONTINUOUS
62
252
70
128
10
0.000000
20
0.000000
30
0.000000
71
8
72
66
73
7
0
VERTEX
8
0
6
CONTINUOUS
62
252
70
128
10
0.000000
20
0.000000
30
0.000000
71
7
72
66
73
67
0
VERTEX
8
0
6
CONTINUOUS
62
252
70
128
10
0.000000
20
0.000000
30
0.000000
71
7
72
67
73
6
0
VERTEX
8
0
6
CONTINUOUS
62
252
70
128
10
0.000000
20
0.000000
30
0.000000
71
6
72
67
73
68
0
VERTEX
8
0
6
CONTINUOUS
62
252
70
128
10
0.000000
20
0.000000
30
0.000000
71
6
72
68
73
5
0
VERTEX
8
0
6
CONTINUOUS
62
252
70
128
10
0.000000
20
0.000000
30
0.000000
71
5
72
68
73
69
0
VERTEX
8
0
6
CONTINUOUS
62
252
70
128
10
0.000000
20
0.000000
30
0.000000
71
5
72
69
73
4
0
VERTEX
8
0
6
CONTINUOUS
62
252
70
128
10
0.000000
20
0.000000
30
0.000000
71
4
72
69
73
70
0
VERTEX
8
0
6
CONTINUOUS
62
252
70
128
10
0.000000
20
0.000000
30
0.000000
71
4
72
70
73
3
0
VERTEX
8
0
6
CONTINUOUS
62
252
70
128
10
0.000000
20
0.000000
30
0.000000
71
3
72
70
73
71
0
VERTEX
8
0
6
CONTINUOUS
62
252
70
128
10
0.000000
20
0.000000
30
0.000000
71
3
72
71
73
2
0
VERTEX
8
0
6
CONTINUOUS
62
252
70
128
10
0.000000
20
0.000000
30
0.000000
71
2
72
71
73
72
0
SEQEND
0
POLYLINE
66
1
8
0
6
CONTINUOUS
62
252
70
64
75
0
10
0.000000
20
0.000000
30
0.000000
0
VERTEX
8
0
6
CONTINUOUS
62
252
70
192
10
-3.350000
20
-30.000000
30
-30.900000
0
VERTEX
8
0
6
CONTINUOUS
62
252
70
192
10
-3.627259
20
-30.000000
30
-27.730921
0
VERTEX
8
0
6
CONTINUOUS
62
252
70
192
10
-4.450610
20
-30.000000
30
-24.658132
0
VERTEX
8
0
6
CONTINUOUS
62
252
70
192
10
-5.795036
20
-30.000000
30
-21.775000
0
VERTEX
8
0
6
CONTINUOUS
62
252
70
192
10
-7.619689
20
-30.000000
30
-19.169126
0
VERTEX
8
0
6
CONTINUOUS
62
252
70
192
10
-9.869126
20
-30.000000
30
-16.919689
0
VERTEX
8
0
6
CONTINUOUS
62
252
70
192
10
-12.475000
20
-30.000000
30
-15.095036
0
VERTEX
8
0
6
CONTINUOUS
62
252
70
192
10
-15.358132
20
-30.000000
30
-13.750610
0
VERTEX
8
0
6
CONTINUOUS
62
252
70
192
10
-18.430921
20
-30.000000
30
-12.927259
0
VERTEX
8
0
6
CONTINUOUS
62
252
70
192
10
-21.600000
20
-30.000000
30
-12.650000
0
VERTEX
8
0
6
CONTINUOUS
62
252
70
192
10
-24.769079
20
-30.000000
30
-12.927259
0
VERTEX
8
0
6
CONTINUOUS
62
252
70
192
10
-27.841868
20
-30.000000
30
-13.750610
0
VERTEX
8
0
6
CONTINUOUS
62
252
70
192
10
-30.725000
20
-30.000000
30
-15.095036
0
VERTEX
8
0
6
CONTINUOUS
62
252
70
192
10
-33.330874
20
-30.000000
30
-16.919689
0
VERTEX
8
0
6
CONTINUOUS
62
252
70
192
10
-35.580311
20
-30.000000
30
-19.169126
0
VERTEX
8
0
6
CONTINUOUS
62
252
70
192
10
-37.404964
20
-30.000000
30
-21.775000
0
VERTEX
8
0
6
CONTINUOUS
62
252
70
192
10
-38.749390
20
-30.000000
30
-24.658132
0
VERTEX
8
0
6
CONTINUOUS
62
252
70
192
10
-39.572741
20
-30.000000
30
-27.730921
0
VERTEX
8
0
6
CONTINUOUS
62
252
70
192
10
-39.850000
20
-30.000000
30
-30.900000
0
VERTEX
8
0
6
CONTINUOUS
62
252
70
192
10
-39.572741
20
-30.000000
30
-34.069079
0
VERTEX
8
0
6
CONTINUOUS
62
252
70
192
10
-38.749390
20
-30.000000
30
-37.141868
0
VERTEX
8
0
6
CONTINUOUS
62
252
70
192
10
-37.404964
20
-30.000000
30
-40.025000
0
VERTEX
8
0
6
CONTINUOUS
62
252
70
192
10
-35.580311
20
-30.000000
30
-42.630874
0
VERTEX
8
0
6
CONTINUOUS
62
252
70
192
10
-33.330874
20
-30.000000
30
-44.880311
0
VERTEX
8
0
6
CONTINUOUS
62
252
70
192
10
-30.725000
20
-30.000000
30
-46.704964
0
VERTEX
8
0
6
CONTINUOUS
62
252
70
192
10
-27.841868
20
-30.000000
30
-48.049390
0
VERTEX
8
0
6
CONTINUOUS
62
252
70
192
10
-24.769079
20
-30.000000
30
-48.872741
0
VERTEX
8
0
6
CONTINUOUS
62
252
70
192
10
-21.600000
20
-30.000000
30
-49.150000
0
VERTEX
8
0
6
CONTINUOUS
62
252
70
192
10
-18.430921
20
-30.000000
30
-48.872741
0
VERTEX
8
0
6
CONTINUOUS
62
252
70
192
10
-15.358132
20
-30.000000
30
-48.049390
0
VERTEX
8
0
6
CONTINUOUS
62
252
70
192
10
-12.475000
20
-30.000000
30
-46.704964
0
VERTEX
8
0
6
CONTINUOUS
62
252
70
192
10
-9.869126
20
-30.000000
30
-44.880311
0
VERTEX
8
0
6
CONTINUOUS
62
252
70
192
10
-7.619689
20
-30.000000
30
-42.630874
0
VERTEX
8
0
6
CONTINUOUS
62
252
70
192
10
-5.795036
20
-30.000000
30
-40.025000
0
VERTEX
8
0
6
CONTINUOUS
62
252
70
192
10
-4.450610
20
-30.000000
30
-37.141868
0
VERTEX
8
0
6
CONTINUOUS
62
252
70
192
10
-3.627259
20
-30.000000
30
-34.069079
0
VERTEX
8
0
6
CONTINUOUS
62
252
70
128
10
0.000000
20
0.000000
30
0.000000
71
2
72
19
73
1
0
VERTEX
8
0
6
CONTINUOUS
62
252
70
128
10
0.000000
20
0.000000
30
0.000000
71
1
72
19
73
20
0
VERTEX
8
0
6
CONTINUOUS
62
252
70
128
10
0.000000
20
0.000000
30
0.000000
71
1
72
20
73
21
0
VERTEX
8
0
6
CONTINUOUS
62
252
70
128
10
0.000000
20
0.000000
30
0.000000
71
3
72
16
73
2
0
VERTEX
8
0
6
CONTINUOUS
62
252
70
128
10
0.000000
20
0.000000
30
0.000000
71
2
72
16
73
17
0
VERTEX
8
0
6
CONTINUOUS
62
252
70
128
10
0.000000
20
0.000000
30
0.000000
71
2
72
17
73
18
0
VERTEX
8
0
6
CONTINUOUS
62
252
70
128
10
0.000000
20
0.000000
30
0.000000
71
3
72
4
73
16
0
VERTEX
8
0
6
CONTINUOUS
62
252
70
128
10
0.000000
20
0.000000
30
0.000000
71
16
72
4
73
5
0
VERTEX
8
0
6
CONTINUOUS
62
252
70
128
10
0.000000
20
0.000000
30
0.000000
71
16
72
5
73
15
0
VERTEX
8
0
6
CONTINUOUS
62
252
70
128
10
0.000000
20
0.000000
30
0.000000
71
15
72
5
73
14
0
VERTEX
8
0
6
CONTINUOUS
62
252
70
128
10
0.000000
20
0.000000
30
0.000000
71
14
72
5
73
6
0
VERTEX
8
0
6
CONTINUOUS
62
252
70
128
10
0.000000
20
0.000000
30
0.000000
71
14
72
6
73
7
0
VERTEX
8
0
6
CONTINUOUS
62
252
70
128
10
0.000000
20
0.000000
30
0.000000
71
7
72
8
73
14
0
VERTEX
8
0
6
CONTINUOUS
62
252
70
128
10
0.000000
20
0.000000
30
0.000000
71
14
72
8
73
13
0
VERTEX
8
0
6
CONTINUOUS
62
252
70
128
10
0.000000
20
0.000000
30
0.000000
71
13
72
8
73
12
0
VERTEX
8
0
6
CONTINUOUS
62
252
70
128
10
0.000000
20
0.000000
30
0.000000
71
12
72
8
73
11
0
VERTEX
8
0
6
CONTINUOUS
62
252
70
128
10
0.000000
20
0.000000
30
0.000000
71
11
72
8
73
9
0
VERTEX
8
0
6
CONTINUOUS
62
252
70
128
10
0.000000
20
0.000000
30
0.000000
71
11
72
9
73
10
0
VERTEX
8
0
6
CONTINUOUS
62
252
70
128
10
0.000000
20
0.000000
30
0.000000
71
18
72
19
73
2
0
VERTEX
8
0
6
CONTINUOUS
62
252
70
128
10
0.000000
20
0.000000
30
0.000000
71
21
72
22
73
1
0
VERTEX
8
0
6
CONTINUOUS
62
252
70
128
10
0.000000
20
0.000000
30
0.000000
71
1
72
22
73
36
0
VERTEX
8
0
6
CONTINUOUS
62
252
70
128
10
0.000000
20
0.000000
30
0.000000
71
36
72
22
73
35
0
VERTEX
8
0
6
CONTINUOUS
62
252
70
128
10
0.000000
20
0.000000
30
0.000000
71
35
72
22
73
34
0
VERTEX
8
0
6
CONTINUOUS
62
252
70
128
10
0.000000
20
0.000000
30
0.000000
71
34
72
22
73
33
0
VERTEX
8
0
6
CONTINUOUS
62
252
70
128
10
0.000000
20
0.000000
30
0.000000
71
33
72
22
73
23
0
VERTEX
8
0
6
CONTINUOUS
62
252
70
128
10
0.000000
20
0.000000
30
0.000000
71
33
72
23
73
24
0
VERTEX
8
0
6
CONTINUOUS
62
252
70
128
10
0.000000
20
0.000000
30
0.000000
71
24
72
25
73
33
0
VERTEX
8
0
6
CONTINUOUS
62
252
70
128
10
0.000000
20
0.000000
30
0.000000
71
33
72
25
73
32
0
VERTEX
8
0
6
CONTINUOUS
62
252
70
128
10
0.000000
20
0.000000
30
0.000000
71
32
72
25
73
31
0
VERTEX
8
0
6
CONTINUOUS
62
252
70
128
10
0.000000
20
0.000000
30
0.000000
71
31
72
25
73
30
0
VERTEX
8
0
6
CONTINUOUS
62
252
70
128
10
0.000000
20
0.000000
30
0.000000
71
30
72
25
73
29
0
VERTEX
8
0
6
CONTINUOUS
62
252
70
128
10
0.000000
20
0.000000
30
0.000000
71
29
72
25
73
28
0
VERTEX
8
0
6
CONTINUOUS
62
252
70
128
10
0.000000
20
0.000000
30
0.000000
71
28
72
25
73
27
0
VERTEX
8
0
6
CONTINUOUS
62
252
70
128
10
0.000000
20
0.000000
30
0.000000
71
27
72
25
73
26
0
SEQEND
0
POLYLINE
66
1
8
0
6
CONTINUOUS
62
252
70
64
75
0
10
0.000000
20
0.000000
30
0.000000
0
VERTEX
8
0
6
CONTINUOUS
62
252
70
192
10
-13.500000
20
-28.000000
30
-54.815528
0
VERTEX
8
0
6
CONTINUOUS
62
252
70
192
10
-13.500000
20
-4.000000
30
-54.815528
0
VERTEX
8
0
6
CONTINUOUS
62
252
70
192
10
-17.751055
20
-4.000000
30
-55.854922
0
VERTEX
8
0
6
CONTINUOUS
62
252
70
192
10
-22.117729
20
-4.000000
30
-56.144692
0
VERTEX
8
0
6
CONTINUOUS
62
252
70
192
10
-26.468851
20
-4.000000
30
-55.676134
0
VERTEX
8
0
6
CONTINUOUS
62
252
70
192
10
-30.673717
20
-4.000000
30
-54.463322
0
VERTEX
8
0
6
CONTINUOUS
62
252
70
192
10
-34.606016
20
-4.000000
30
-52.542690
0
VERTEX
8
0
6
CONTINUOUS
62
252
70
192
10
-38.147627
20
-4.000000
30
-49.971931
0
VERTEX
8
0
6
CONTINUOUS
62
252
70
192
10
-41.192161
20
-4.000000
30
-46.828268
0
VERTEX
8
0
6
CONTINUOUS
62
252
70
192
10
-43.648165
20
-4.000000
30
-43.206134
0
VERTEX
8
0
6
CONTINUOUS
62
252
70
192
10
-45.441861
20
-4.000000
30
-39.214335
0
VERTEX
8
0
6
CONTINUOUS
62
252
70
192
10
-46.519369
20
-4.000000
30
-34.972780
0
VERTEX
8
0
6
CONTINUOUS
62
252
70
192
10
-46.848322
20
-4.000000
30
-30.608883
0
VERTEX
8
0
6
CONTINUOUS
62
252
70
192
10
-46.418837
20
-4.000000
30
-26.253731
0
VERTEX
8
0
6
CONTINUOUS
62
252
70
192
10
-45.243817
20
-4.000000
30
-22.038149
0
VERTEX
8
0
6
CONTINUOUS
62
252
70
192
10
-43.358558
20
-4.000000
30
-18.088768
0
VERTEX
8
0
6
CONTINUOUS
62
252
70
192
10
-40.819691
20
-4.000000
30
-14.524226
0
VERTEX
8
0
6
CONTINUOUS
62
252
70
192
10
-37.703482
20
-4.000000
30
-11.451597
0
VERTEX
8
0
6
CONTINUOUS
62
252
70
192
10
-34.103538
20
-4.000000
30
-8.963181
0
VERTEX
8
0
6
CONTINUOUS
62
252
70
192
10
-30.128000
20
-4.000000
30
-7.133727
0
VERTEX
8
0
6
CONTINUOUS
62
252
70
192
10
-25.896288
20
-4.000000
30
-6.018191
0
VERTEX
8
0
6
CONTINUOUS
62
252
70
192
10
-21.535519
20
-4.000000
30
-5.650082
0
VERTEX
8
0
6
CONTINUOUS
62
252
70
192
10
-17.176687
20
-4.000000
30
-6.040458
0
VERTEX
8
0
6
CONTINUOUS
62
252
70
192
10
-12.950728
20
-4.000000
30
-7.177593
0
VERTEX
8
0
6
CONTINUOUS
62
252
70
192
10
-8.984585
20
-4.000000
30
-9.027327
0
VERTEX
8
0
6
CONTINUOUS
62
252
70
192
10
-5.397398
20
-4.000000
30
-11.534097
0
VERTEX
8
0
6
CONTINUOUS
62
252
70
192
10
-2.296922
20
-4.000000
30
-14.622602
0
VERTEX
8
0
6
CONTINUOUS
62
252
70
192
10
0.223706
20
-4.000000
30
-18.200065
0
VERTEX
8
0
6
CONTINUOUS
62
252
70
192
10
2.088770
20
-4.000000
30
-22.159022
0
VERTEX
8
0
6
CONTINUOUS
62
252
70
192
10
3.242244
20
-4.000000
30
-26.380551
0
VERTEX
8
0
6
CONTINUOUS
62
252
70
192
10
3.649479
20
-4.000000
30
-30.737840
0
VERTEX
8
0
6
CONTINUOUS
62
252
70
192
10
3.298243
20
-4.000000
30
-35.100000
0
VERTEX
8
0
6
CONTINUOUS
62
252
70
192
10
3.306185
20
-4.002325
30
-35.052627
0
VERTEX
8
0
6
CONTINUOUS
62
252
70
192
10
3.314152
20
-4.009333
30
-35.004546
0
VERTEX
8
0
6
CONTINUOUS
62
252
70
192
10
3.322000
20
-4.021075
30
-34.956634
0
VERTEX
8
0
6
CONTINUOUS
62
252
70
192
10
3.329586
20
-4.037601
30
-34.909771
0
VERTEX
8
0
6
CONTINUOUS
62
252
70
192
10
3.336777
20
-4.058859
30
-34.864792
0
VERTEX
8
0
6
CONTINUOUS
62
252
70
192
10
3.343487
20
-4.084336
30
-34.822353
0
VERTEX
8
0
6
CONTINUOUS
62
252
70
192
10
3.349636
20
-4.113394
30
-34.783055
0
VERTEX
8
0
6
CONTINUOUS
62
252
70
192
10
3.355144
20
-4.145395
30
-34.747502
0
VERTEX
8
0
6
CONTINUOUS
62
252
70
192
10
3.360083
20
-4.180695
30
-34.715327
0
VERTEX
8
0
6
CONTINUOUS
62
252
70
192
10
3.364551
20
-4.219908
30
-34.685979
0
VERTEX
8
0
6
CONTINUOUS
62
252
70
192
10
3.368457
20
-4.262427
30
-34.660136
0
VERTEX
8
0
6
CONTINUOUS
62
252
70
192
10
3.371709
20
-4.307639
30
-34.638484
0
VERTEX
8
0
6
CONTINUOUS
62
252
70
192
10
3.374232
20
-4.354884
30
-34.621598
0
VERTEX
8
0
6
CONTINUOUS
62
252
70
192
10
3.376021
20
-4.403303
30
-34.609578
0
VERTEX
8
0
6
CONTINUOUS
62
252
70
192
10
3.377087
20
-4.451980
30
-34.602389
0
VERTEX
8
0
6
CONTINUOUS
62
252
70
192
10
3.377440
20
-4.500000
30
-34.600000
0
VERTEX
8
0
6
CONTINUOUS
62
252
70
192
10
3.377440
20
-27.500000
30
-34.600000
0
VERTEX
8
0
6
CONTINUOUS
62
252
70
192
10
3.377087
20
-27.548020
30
-34.602389
0
VERTEX
8
0
6
CONTINUOUS
62
252
70
192
10
3.376021
20
-27.596697
30
-34.609578
0
VERTEX
8
0
6
CONTINUOUS
62
252
70
192
10
3.374232
20
-27.645116
30
-34.621598
0
VERTEX
8
0
6
CONTINUOUS
62
252
70
192
10
3.371709
20
-27.692361
30
-34.638484
0
VERTEX
8
0
6
CONTINUOUS
62
252
70
192
10
3.368457
20
-27.737573
30
-34.660136
0
VERTEX
8
0
6
CONTINUOUS
62
252
70
192
10
3.364551
20
-27.780092
30
-34.685979
0
VERTEX
8
0
6
CONTINUOUS
62
252
70
192
10
3.360083
20
-27.819305
30
-34.715327
0
VERTEX
8
0
6
CONTINUOUS
62
252
70
192
10
3.355144
20
-27.854605
30
-34.747502
0
VERTEX
8
0
6
CONTINUOUS
62
252
70
192
10
3.349636
20
-27.886606
30
-34.783055
0
VERTEX
8
0
6
CONTINUOUS
62
252
70
192
10
3.343487
20
-27.915664
30
-34.822353
0
VERTEX
8
0
6
CONTINUOUS
62
252
70
192
10
3.336777
20
-27.941141
30
-34.864792
0
VERTEX
8
0
6
CONTINUOUS
62
252
70
192
10
3.329586
20
-27.962399
30
-34.909771
0
VERTEX
8
0
6
CONTINUOUS
62
252
70
192
10
3.322000
20
-27.978925
30
-34.956634
0
VERTEX
8
0
6
CONTINUOUS
62
252
70
192
10
3.314152
20
-27.990667
30
-35.004546
0
VERTEX
8
0
6
CONTINUOUS
62
252
70
192
10
3.306185
20
-27.997675
30
-35.052627
0
VERTEX
8
0
6
CONTINUOUS
62
252
70
192
10
3.298243
20
-28.000000
30
-35.100000
0
VERTEX
8
0
6
CONTINUOUS
62
252
70
192
10
2.360341
20
-28.000000
30
-38.866465
0
VERTEX
8
0
6
CONTINUOUS
62
252
70
192
10
0.856244
20
-28.000000
30
-42.444678
0
VERTEX
8
0
6
CONTINUOUS
62
252
70
192
10
-1.178505
20
-28.000000
30
-45.750085
0
VERTEX
8
0
6
CONTINUOUS
62
252
70
192
10
-3.695824
20
-28.000000
30
-48.704577
0
VERTEX
8
0
6
CONTINUOUS
62
252
70
192
10
-6.636228
20
-28.000000
30
-51.238339
0
VERTEX
8
0
6
CONTINUOUS
62
252
70
192
10
-9.930233
20
-28.000000
30
-53.291495
0
VERTEX
8
0
6
CONTINUOUS
62
252
70
192
10
3.650000
20
-30.000000
30
-30.900000
0
VERTEX
8
0
6
CONTINUOUS
62
252
70
192
10
3.266396
20
-30.000000
30
-26.515384
0
VERTEX
8
0
6
CONTINUOUS
62
252
70
192
10
2.127239
20
-30.000000
30
-22.263991
0
VERTEX
8
0
6
CONTINUOUS
62
252
70
192
10
0.267141
20
-30.000000
30
-18.275000
0
VERTEX
8
0
6
CONTINUOUS
62
252
70
192
10
-2.257378
20
-30.000000
30
-14.669613
0
VERTEX
8
0
6
CONTINUOUS
62
252
70
192
10
-5.369613
20
-30.000000
30
-11.557378
0
VERTEX
8
0
6
CONTINUOUS
62
252
70
192
10
-8.975000
20
-30.000000
30
-9.032859
0
VERTEX
8
0
6
CONTINUOUS
62
252
70
192
10
-12.963991
20
-30.000000
30
-7.172761
0
VERTEX
8
0
6
CONTINUOUS
62
252
70
192
10
-17.215384
20
-30.000000
30
-6.033604
0
VERTEX
8
0
6
CONTINUOUS
62
252
70
192
10
-21.600000
20
-30.000000
30
-5.650000
0
VERTEX
8
0
6
CONTINUOUS
62
252
70
192
10
-25.984616
20
-30.000000
30
-6.033604
0
VERTEX
8
0
6
CONTINUOUS
62
252
70
192
10
-30.236009
20
-30.000000
30
-7.172761
0
VERTEX
8
0
6
CONTINUOUS
62
252
70
192
10
-34.225000
20
-30.000000
30
-9.032859
0
VERTEX
8
0
6
CONTINUOUS
62
252
70
192
10
-37.830387
20
-30.000000
30
-11.557378
0
VERTEX
8
0
6
CONTINUOUS
62
252
70
192
10
-40.942622
20
-30.000000
30
-14.669613
0
VERTEX
8
0
6
CONTINUOUS
62
252
70
192
10
-43.467141
20
-30.000000
30
-18.275000
0
VERTEX
8
0
6
CONTINUOUS
62
252
70
192
10
-45.327239
20
-30.000000
30
-22.263991
0
VERTEX
8
0
6
CONTINUOUS
62
252
70
192
10
-46.466396
20
-30.000000
30
-26.515384
0
VERTEX
8
0
6
CONTINUOUS
62
252
70
192
10
-46.850000
20
-30.000000
30
-30.900000
0
VERTEX
8
0
6
CONTINUOUS
62
252
70
192
10
-46.466396
20
-30.000000
30
-35.284616
0
VERTEX
8
0
6
CONTINUOUS
62
252
70
192
10
-45.327239
20
-30.000000
30
-39.536009
0
VERTEX
8
0
6
CONTINUOUS
62
252
70
192
10
-43.467141
20
-30.000000
30
-43.525000
0
VERTEX
8
0
6
CONTINUOUS
62
252
70
192
10
-40.942622
20
-30.000000
30
-47.130387
0
VERTEX
8
0
6
CONTINUOUS
62
252
70
192
10
-37.830387
20
-30.000000
30
-50.242622
0
VERTEX
8
0
6
CONTINUOUS
62
252
70
192
10
-34.225000
20
-30.000000
30
-52.767141
0
VERTEX
8
0
6
CONTINUOUS
62
252
70
192
10
-30.236009
20
-30.000000
30
-54.627239
0
VERTEX
8
0
6
CONTINUOUS
62
252
70
192
10
-25.984616
20
-30.000000
30
-55.766396
0
VERTEX
8
0
6
CONTINUOUS
62
252
70
192
10
-21.600000
20
-30.000000
30
-56.150000
0
VERTEX
8
0
6
CONTINUOUS
62
252
70
192
10
-17.215384
20
-30.000000
30
-55.766396
0
VERTEX
8
0
6
CONTINUOUS
62
252
70
192
10
-12.963991
20
-30.000000
30
-54.627239
0
VERTEX
8
0
6
CONTINUOUS
62
252
70
192
10
-8.975000
20
-30.000000
30
-52.767141
0
VERTEX
8
0
6
CONTINUOUS
62
252
70
192
10
-5.369613
20
-30.000000
30
-50.242622
0
VERTEX
8
0
6
CONTINUOUS
62
252
70
192
10
-2.257378
20
-30.000000
30
-47.130387
0
VERTEX
8
0
6
CONTINUOUS
62
252
70
192
10
0.267141
20
-30.000000
30
-43.525000
0
VERTEX
8
0
6
CONTINUOUS
62
252
70
192
10
2.127239
20
-30.000000
30
-39.536009
0
VERTEX
8
0
6
CONTINUOUS
62
252
70
192
10
3.266396
20
-30.000000
30
-35.284616
0
VERTEX
8
0
6
CONTINUOUS
62
252
70
128
10
0.000000
20
0.000000
30
0.000000
71
2
72
100
73
1
0
VERTEX
8
0
6
CONTINUOUS
62
252
70
128
10
0.000000
20
0.000000
30
0.000000
71
1
72
100
73
101
0
VERTEX
8
0
6
CONTINUOUS
62
252
70
128
10
0.000000
20
0.000000
30
0.000000
71
1
72
101
73
71
0
VERTEX
8
0
6
CONTINUOUS
62
252
70
128
10
0.000000
20
0.000000
30
0.000000
71
71
72
101
73
102
0
VERTEX
8
0
6
CONTINUOUS
62
252
70
128
10
0.000000
20
0.000000
30
0.000000
71
71
72
102
73
70
0
VERTEX
8
0
6
CONTINUOUS
62
252
70
128
10
0.000000
20
0.000000
30
0.000000
71
70
72
102
73
103
0
VERTEX
8
0
6
CONTINUOUS
62
252
70
128
10
0.000000
20
0.000000
30
0.000000
71
70
72
103
73
69
0
VERTEX
8
0
6
CONTINUOUS
62
252
70
128
10
0.000000
20
0.000000
30
0.000000
71
69
72
103
73
104
0
VERTEX
8
0
6
CONTINUOUS
62
252
70
128
10
0.000000
20
0.000000
30
0.000000
71
69
72
104
73
68
0
VERTEX
8
0
6
CONTINUOUS
62
252
70
128
10
0.000000
20
0.000000
30
0.000000
71
68
72
104
73
105
0
VERTEX
8
0
6
CONTINUOUS
62
252
70
128
10
0.000000
20
0.000000
30
0.000000
71
68
72
105
73
67
0
VERTEX
8
0
6
CONTINUOUS
62
252
70
128
10
0.000000
20
0.000000
30
0.000000
71
67
72
105
73
106
0
VERTEX
8
0
6
CONTINUOUS
62
252
70
128
10
0.000000
20
0.000000
30
0.000000
71
67
72
106
73
66
0
VERTEX
8
0
6
CONTINUOUS
62
252
70
128
10
0.000000
20
0.000000
30
0.000000
71
66
72
106
73
107
0
VERTEX
8
0
6
CONTINUOUS
62
252
70
128
10
0.000000
20
0.000000
30
0.000000
71
66
72
107
73
65
0
VERTEX
8
0
6
CONTINUOUS
62
252
70
128
10
0.000000
20
0.000000
30
0.000000
71
65
72
107
73
64
0
VERTEX
8
0
6
CONTINUOUS
62
252
70
128
10
0.000000
20
0.000000
30
0.000000
71
64
72
107
73
63
0
VERTEX
8
0
6
CONTINUOUS
62
252
70
128
10
0.000000
20
0.000000
30
0.000000
71
63
72
107
73
62
0
VERTEX
8
0
6
CONTINUOUS
62
252
70
128
10
0.000000
20
0.000000
30
0.000000
71
62
72
107
73
61
0
VERTEX
8
0
6
CONTINUOUS
62
252
70
128
10
0.000000
20
0.000000
30
0.000000
71
61
72
107
73
60
0
VERTEX
8
0
6
CONTINUOUS
62
252
70
128
10
0.000000
20
0.000000
30
0.000000
71
60
72
107
73
59
0
VERTEX
8
0
6
CONTINUOUS
62
252
70
128
10
0.000000
20
0.000000
30
0.000000
71
59
72
107
73
58
0
VERTEX
8
0
6
CONTINUOUS
62
252
70
128
10
0.000000
20
0.000000
30
0.000000
71
58
72
107
73
57
0
VERTEX
8
0
6
CONTINUOUS
62
252
70
128
10
0.000000
20
0.000000
30
0.000000
71
57
72
107
73
56
0
VERTEX
8
0
6
CONTINUOUS
62
252
70
128
10
0.000000
20
0.000000
30
0.000000
71
56
72
107
73
55
0
VERTEX
8
0
6
CONTINUOUS
62
252
70
128
10
0.000000
20
0.000000
30
0.000000
71
55
72
107
73
54
0
VERTEX
8
0
6
CONTINUOUS
62
252
70
128
10
0.000000
20
0.000000
30
0.000000
71
54
72
107
73
53
0
VERTEX
8
0
6
CONTINUOUS
62
252
70
128
10
0.000000
20
0.000000
30
0.000000
71
53
72
107
73
52
0
VERTEX
8
0
6
CONTINUOUS
62
252
70
128
10
0.000000
20
0.000000
30
0.000000
71
52
72
107
73
72
0
VERTEX
8
0
6
CONTINUOUS
62
252
70
128
10
0.000000
20
0.000000
30
0.000000
71
52
72
72
73
51
0
VERTEX
8
0
6
CONTINUOUS
62
252
70
128
10
0.000000
20
0.000000
30
0.000000
71
51
72
72
73
50
0
VERTEX
8
0
6
CONTINUOUS
62
252
70
128
10
0.000000
20
0.000000
30
0.000000
71
50
72
72
73
49
0
VERTEX
8
0
6
CONTINUOUS
62
252
70
128
10
0.000000
20
0.000000
30
0.000000
71
49
72
72
73
31
0
VERTEX
8
0
6
CONTINUOUS
62
252
70
128
10
0.000000
20
0.000000
30
0.000000
71
49
72
31
73
48
0
VERTEX
8
0
6
CONTINUOUS
62
252
70
128
10
0.000000
20
0.000000
30
0.000000
71
48
72
31
73
47
0
VERTEX
8
0
6
CONTINUOUS
62
252
70
128
10
0.000000
20
0.000000
30
0.000000
71
47
72
31
73
46
0
VERTEX
8
0
6
CONTINUOUS
62
252
70
128
10
0.000000
20
0.000000
30
0.000000
71
46
72
31
73
45
0
VERTEX
8
0
6
CONTINUOUS
62
252
70
128
10
0.000000
20
0.000000
30
0.000000
71
45
72
31
73
44
0
VERTEX
8
0
6
CONTINUOUS
62
252
70
128
10
0.000000
20
0.000000
30
0.000000
71
44
72
31
73
43
0
VERTEX
8
0
6
CONTINUOUS
62
252
70
128
10
0.000000
20
0.000000
30
0.000000
71
43
72
31
73
42
0
VERTEX
8
0
6
CONTINUOUS
62
252
70
128
10
0.000000
20
0.000000
30
0.000000
71
42
72
31
73
41
0
VERTEX
8
0
6
CONTINUOUS
62
252
70
128
10
0.000000
20
0.000000
30
0.000000
71
41
72
31
73
40
0
VERTEX
8
0
6
CONTINUOUS
62
252
70
128
10
0.000000
20
0.000000
30
0.000000
71
40
72
31
73
39
0
VERTEX
8
0
6
CONTINUOUS
62
252
70
128
10
0.000000
20
0.000000
30
0.000000
71
39
72
31
73
38
0
VERTEX
8
0
6
CONTINUOUS
62
252
70
128
10
0.000000
20
0.000000
30
0.000000
71
38
72
31
73
37
0
VERTEX
8
0
6
CONTINUOUS
62
252
70
128
10
0.000000
20
0.000000
30
0.000000
71
37
72
31
73
36
0
VERTEX
8
0
6
CONTINUOUS
62
252
70
128
10
0.000000
20
0.000000
30
0.000000
71
36
72
31
73
35
0
VERTEX
8
0
6
CONTINUOUS
62
252
70
128
10
0.000000
20
0.000000
30
0.000000
71
35
72
31
73
34
0
VERTEX
8
0
6
CONTINUOUS
62
252
70
128
10
0.000000
20
0.000000
30
0.000000
71
34
72
31
73
33
0
VERTEX
8
0
6
CONTINUOUS
62
252
70
128
10
0.000000
20
0.000000
30
0.000000
71
33
72
31
73
32
0
VERTEX
8
0
6
CONTINUOUS
62
252
70
128
10
0.000000
20
0.000000
30
0.000000
71
2
72
3
73
100
0
VERTEX
8
0
6
CONTINUOUS
62
252
70
128
10
0.000000
20
0.000000
30
0.000000
71
100
72
3
73
99
0
VERTEX
8
0
6
CONTINUOUS
62
252
70
128
10
0.000000
20
0.000000
30
0.000000
71
99
72
3
73
4
0
VERTEX
8
0
6
CONTINUOUS
62
252
70
128
10
0.000000
20
0.000000
30
0.000000
71
99
72
4
73
98
0
VERTEX
8
0
6
CONTINUOUS
62
252
70
128
10
0.000000
20
0.000000
30
0.000000
71
98
72
4
73
5
0
VERTEX
8
0
6
CONTINUOUS
62
252
70
128
10
0.000000
20
0.000000
30
0.000000
71
98
72
5
73
97
0
VERTEX
8
0
6
CONTINUOUS
62
252
70
128
10
0.000000
20
0.000000
30
0.000000
71
97
72
5
73
6
0
VERTEX
8
0
6
CONTINUOUS
62
252
70
128
10
0.000000
20
0.000000
30
0.000000
71
97
72
6
73
96
0
VERTEX
8
0
6
CONTINUOUS
62
252
70
128
10
0.000000
20
0.000000
30
0.000000
71
96
72
6
73
7
0
VERTEX
8
0
6
CONTINUOUS
62
252
70
128
10
0.000000
20
0.000000
30
0.000000
71
96
72
7
73
95
0
VERTEX
8
0
6
CONTINUOUS
62
252
70
128
10
0.000000
20
0.000000
30
0.000000
71
95
72
7
73
8
0
VERTEX
8
0
6
CONTINUOUS
62
252
70
128
10
0.000000
20
0.000000
30
0.000000
71
95
72
8
73
94
0
VERTEX
8
0
6
CONTINUOUS
62
252
70
128
10
0.000000
20
0.000000
30
0.000000
71
94
72
8
73
9
0
VERTEX
8
0
6
CONTINUOUS
62
252
70
128
10
0.000000
20
0.000000
30
0.000000
71
94
72
9
73
93
0
VERTEX
8
0
6
CONTINUOUS
62
252
70
128
10
0.000000
20
0.000000
30
0.000000
71
93
72
9
73
10
0
VERTEX
8
0
6
CONTINUOUS
62
252
70
128
10
0.000000
20
0.000000
30
0.000000
71
93
72
10
73
92
0
VERTEX
8
0
6
CONTINUOUS
62
252
70
128
10
0.000000
20
0.000000
30
0.000000
71
92
72
10
73
11
0
VERTEX
8
0
6
CONTINUOUS
62
252
70
128
10
0.000000
20
0.000000
30
0.000000
71
92
72
11
73
91
0
VERTEX
8
0
6
CONTINUOUS
62
252
70
128
10
0.000000
20
0.000000
30
0.000000
71
91
72
11
73
12
0
VERTEX
8
0
6
CONTINUOUS
62
252
70
128
10
0.000000
20
0.000000
30
0.000000
71
91
72
12
73
90
0
VERTEX
8
0
6
CONTINUOUS
62
252
70
128
10
0.000000
20
0.000000
30
0.000000
71
90
72
12
73
13
0
VERTEX
8
0
6
CONTINUOUS
62
252
70
128
10
0.000000
20
0.000000
30
0.000000
71
90
72
13
73
89
0
VERTEX
8
0
6
CONTINUOUS
62
252
70
128
10
0.000000
20
0.000000
30
0.000000
71
89
72
13
73
14
0
VERTEX
8
0
6
CONTINUOUS
62
252
70
128
10
0.000000
20
0.000000
30
0.000000
71
89
72
14
73
88
0
VERTEX
8
0
6
CONTINUOUS
62
252
70
128
10
0.000000
20
0.000000
30
0.000000
71
88
72
14
73
15
0
VERTEX
8
0
6
CONTINUOUS
62
252
70
128
10
0.000000
20
0.000000
30
0.000000
71
88
72
15
73
87
0
VERTEX
8
0
6
CONTINUOUS
62
252
70
128
10
0.000000
20
0.000000
30
0.000000
71
87
72
15
73
16
0
VERTEX
8
0
6
CONTINUOUS
62
252
70
128
10
0.000000
20
0.000000
30
0.000000
71
87
72
16
73
86
0
VERTEX
8
0
6
CONTINUOUS
62
252
70
128
10
0.000000
20
0.000000
30
0.000000
71
86
72
16
73
17
0
VERTEX
8
0
6
CONTINUOUS
62
252
70
128
10
0.000000
20
0.000000
30
0.000000
71
86
72
17
73
85
0
VERTEX
8
0
6
CONTINUOUS
62
252
70
128
10
0.000000
20
0.000000
30
0.000000
71
85
72
17
73
18
0
VERTEX
8
0
6
CONTINUOUS
62
252
70
128
10
0.000000
20
0.000000
30
0.000000
71
85
72
18
73
84
0
VERTEX
8
0
6
CONTINUOUS
62
252
70
128
10
0.000000
20
0.000000
30
0.000000
71
84
72
18
73
19
0
VERTEX
8
0
6
CONTINUOUS
62
252
70
128
10
0.000000
20
0.000000
30
0.000000
71
84
72
19
73
83
0
VERTEX
8
0
6
CONTINUOUS
62
252
70
128
10
0.000000
20
0.000000
30
0.000000
71
83
72
19
73
20
0
VERTEX
8
0
6
CONTINUOUS
62
252
70
128
10
0.000000
20
0.000000
30
0.000000
71
83
72
20
73
82
0
VERTEX
8
0
6
CONTINUOUS
62
252
70
128
10
0.000000
20
0.000000
30
0.000000
71
82
72
20
73
21
0
VERTEX
8
0
6
CONTINUOUS
62
252
70
128
10
0.000000
20
0.000000
30
0.000000
71
82
72
21
73
81
0
VERTEX
8
0
6
CONTINUOUS
62
252
70
128
10
0.000000
20
0.000000
30
0.000000
71
81
72
21
73
22
0
VERTEX
8
0
6
CONTINUOUS
62
252
70
128
10
0.000000
20
0.000000
30
0.000000
71
81
72
22
73
80
0
VERTEX
8
0
6
CONTINUOUS
62
252
70
128
10
0.000000
20
0.000000
30
0.000000
71
80
72
22
73
23
0
VERTEX
8
0
6
CONTINUOUS
62
252
70
128
10
0.000000
20
0.000000
30
0.000000
71
80
72
23
73
79
0
VERTEX
8
0
6
CONTINUOUS
62
252
70
128
10
0.000000
20
0.000000
30
0.000000
71
79
72
23
73
24
0
VERTEX
8
0
6
CONTINUOUS
62
252
70
128
10
0.000000
20
0.000000
30
0.000000
71
79
72
24
73
78
0
VERTEX
8
0
6
CONTINUOUS
62
252
70
128
10
0.000000
20
0.000000
30
0.000000
71
78
72
24
73
25
0
VERTEX
8
0
6
CONTINUOUS
62
252
70
128
10
0.000000
20
0.000000
30
0.000000
71
78
72
25
73
26
0
VERTEX
8
0
6
CONTINUOUS
62
252
70
128
10
0.000000
20
0.000000
30
0.000000
71
78
72
26
73
77
0
VERTEX
8
0
6
CONTINUOUS
62
252
70
128
10
0.000000
20
0.000000
30
0.000000
71
77
72
26
73
27
0
VERTEX
8
0
6
CONTINUOUS
62
252
70
128
10
0.000000
20
0.000000
30
0.000000
71
77
72
27
73
76
0
VERTEX
8
0
6
CONTINUOUS
62
252
70
128
10
0.000000
20
0.000000
30
0.000000
71
76
72
27
73
28
0
VERTEX
8
0
6
CONTINUOUS
62
252
70
128
10
0.000000
20
0.000000
30
0.000000
71
76
72
28
73
75
0
VERTEX
8
0
6
CONTINUOUS
62
252
70
128
10
0.000000
20
0.000000
30
0.000000
71
75
72
28
73
29
0
VERTEX
8
0
6
CONTINUOUS
62
252
70
128
10
0.000000
20
0.000000
30
0.000000
71
75
72
29
73
74
0
VERTEX
8
0
6
CONTINUOUS
62
252
70
128
10
0.000000
20
0.000000
30
0.000000
71
74
72
29
73
30
0
VERTEX
8
0
6
CONTINUOUS
62
252
70
128
10
0.000000
20
0.000000
30
0.000000
71
74
72
30
73
73
0
VERTEX
8
0
6
CONTINUOUS
62
252
70
128
10
0.000000
20
0.000000
30
0.000000
71
73
72
30
73
31
0
VERTEX
8
0
6
CONTINUOUS
62
252
70
128
10
0.000000
20
0.000000
30
0.000000
71
73
72
31
73
72
0
SEQEND
0
POLYLINE
66
1
8
0
6
CONTINUOUS
62
252
70
64
75
0
10
0.000000
20
0.000000
30
0.000000
0
VERTEX
8
0
6
CONTINUOUS
62
252
70
192
10
3.298243
20
-28.000000
30
-35.100000
0
VERTEX
8
0
6
CONTINUOUS
62
252
70
192
10
3.306185
20
-27.997675
30
-35.052627
0
VERTEX
8
0
6
CONTINUOUS
62
252
70
192
10
3.314152
20
-27.990667
30
-35.004546
0
VERTEX
8
0
6
CONTINUOUS
62
252
70
192
10
3.322000
20
-27.978925
30
-34.956634
0
VERTEX
8
0
6
CONTINUOUS
62
252
70
192
10
3.329586
20
-27.962399
30
-34.909771
0
VERTEX
8
0
6
CONTINUOUS
62
252
70
192
10
3.336777
20
-27.941141
30
-34.864792
0
VERTEX
8
0
6
CONTINUOUS
62
252
70
192
10
3.343487
20
-27.915664
30
-34.822353
0
VERTEX
8
0
6
CONTINUOUS
62
252
70
192
10
3.349636
20
-27.886606
30
-34.783055
0
VERTEX
8
0
6
CONTINUOUS
62
252
70
192
10
3.355144
20
-27.854605
30
-34.747502
0
VERTEX
8
0
6
CONTINUOUS
62
252
70
192
10
3.360083
20
-27.819305
30
-34.715327
0
VERTEX
8
0
6
CONTINUOUS
62
252
70
192
10
3.364551
20
-27.780092
30
-34.685979
0
VERTEX
8
0
6
CONTINUOUS
62
252
70
192
10
3.368457
20
-27.737573
30
-34.660136
0
VERTEX
8
0
6
CONTINUOUS
62
252
70
192
10
3.371709
20
-27.692361
30
-34.638484
0
VERTEX
8
0
6
CONTINUOUS
62
252
70
192
10
3.374232
20
-27.645116
30
-34.621598
0
VERTEX
8
0
6
CONTINUOUS
62
252
70
192
10
3.376021
20
-27.596697
30
-34.609578
0
VERTEX
8
0
6
CONTINUOUS
62
252
70
192
10
3.377087
20
-27.548020
30
-34.602389
0
VERTEX
8
0
6
CONTINUOUS
62
252
70
192
10
3.377440
20
-27.500000
30
-34.600000
0
VERTEX
8
0
6
CONTINUOUS
62
252
70
192
10
16.500000
20
-27.500000
30
-34.600000
0
VERTEX
8
0
6
CONTINUOUS
62
252
70
192
10
16.500000
20
-27.586824
30
-34.607596
0
VERTEX
8
0
6
CONTINUOUS
62
252
70
192
10
16.500000
20
-27.671010
30
-34.630154
0
VERTEX
8
0
6
CONTINUOUS
62
252
70
192
10
16.500000
20
-27.750000
30
-34.666987
0
VERTEX
8
0
6
CONTINUOUS
62
252
70
192
10
16.500000
20
-27.821394
30
-34.716978
0
VERTEX
8
0
6
CONTINUOUS
62
252
70
192
10
16.500000
20
-27.883022
30
-34.778606
0
VERTEX
8
0
6
CONTINUOUS
62
252
70
192
10
16.500000
20
-27.933013
30
-34.850000
0
VERTEX
8
0
6
CONTINUOUS
62
252
70
192
10
16.500000
20
-27.969846
30
-34.928990
0
VERTEX
8
0
6
CONTINUOUS
62
252
70
192
10
16.500000
20
-27.992404
30
-35.013176
0
VERTEX
8
0
6
CONTINUOUS
62
252
70
192
10
16.500000
20
-28.000000
30
-35.100000
0
VERTEX
8
0
6
CONTINUOUS
62
252
70
128
10
0.000000
20
0.000000
30
0.000000
71
1
72
2
73
27
0
VERTEX
8
0
6
CONTINUOUS
62
252
70
128
10
0.000000
20
0.000000
30
0.000000
71
27
72
2
73
26
0
VERTEX
8
0
6
CONTINUOUS
62
252
70
128
10
0.000000
20
0.000000
30
0.000000
71
26
72
2
73
3
0
VERTEX
8
0
6
CONTINUOUS
62
252
70
128
10
0.000000
20
0.000000
30
0.000000
71
26
72
3
73
4
0
VERTEX
8
0
6
CONTINUOUS
62
252
70
128
10
0.000000
20
0.000000
30
0.000000
71
26
72
4
73
25
0
VERTEX
8
0
6
CONTINUOUS
62
252
70
128
10
0.000000
20
0.000000
30
0.000000
71
25
72
4
73
5
0
VERTEX
8
0
6
CONTINUOUS
62
252
70
128
10
0.000000
20
0.000000
30
0.000000
71
25
72
5
73
24
0
VERTEX
8
0
6
CONTINUOUS
62
252
70
128
10
0.000000
20
0.000000
30
0.000000
71
24
72
5
73
6
0
VERTEX
8
0
6
CONTINUOUS
62
252
70
128
10
0.000000
20
0.000000
30
0.000000
71
24
72
6
73
7
0
VERTEX
8
0
6
CONTINUOUS
62
252
70
128
10
0.000000
20
0.000000
30
0.000000
71
24
72
7
73
23
0
VERTEX
8
0
6
CONTINUOUS
62
252
70
128
10
0.000000
20
0.000000
30
0.000000
71
23
72
7
73
8
0
VERTEX
8
0
6
CONTINUOUS
62
252
70
128
10
0.000000
20
0.000000
30
0.000000
71
23
72
8
73
9
0
VERTEX
8
0
6
CONTINUOUS
62
252
70
128
10
0.000000
20
0.000000
30
0.000000
71
23
72
9
73
22
0
VERTEX
8
0
6
CONTINUOUS
62
252
70
128
10
0.000000
20
0.000000
30
0.000000
71
22
72
9
73
10
0
VERTEX
8
0
6
CONTINUOUS
62
252
70
128
10
0.000000
20
0.000000
30
0.000000
71
22
72
10
73
11
0
VERTEX
8
0
6
CONTINUOUS
62
252
70
128
10
0.000000
20
0.000000
30
0.000000
71
22
72
11
73
21
0
VERTEX
8
0
6
CONTINUOUS
62
252
70
128
10
0.000000
20
0.000000
30
0.000000
71
21
72
11
73
12
0
VERTEX
8
0
6
CONTINUOUS
62
252
70
128
10
0.000000
20
0.000000
30
0.000000
71
21
72
12
73
13
0
VERTEX
8
0
6
CONTINUOUS
62
252
70
128
10
0.000000
20
0.000000
30
0.000000
71
21
72
13
73
20
0
VERTEX
8
0
6
CONTINUOUS
62
252
70
128
10
0.000000
20
0.000000
30
0.000000
71
20
72
13
73
14
0
VERTEX
8
0
6
CONTINUOUS
62
252
70
128
10
0.000000
20
0.000000
30
0.000000
71
20
72
14
73
19
0
VERTEX
8
0
6
CONTINUOUS
62
252
70
128
10
0.000000
20
0.000000
30
0.000000
71
19
72
14
73
15
0
VERTEX
8
0
6
CONTINUOUS
62
252
70
128
10
0.000000
20
0.000000
30
0.000000
71
19
72
15
73
16
0
VERTEX
8
0
6
CONTINUOUS
62
252
70
128
10
0.000000
20
0.000000
30
0.000000
71
17
72
18
73
16
0
VERTEX
8
0
6
CONTINUOUS
62
252
70
128
10
0.000000
20
0.000000
30
0.000000
71
16
72
18
73
19
0
SEQEND
0
POLYLINE
66
1
8
0
6
CONTINUOUS
62
252
70
64
75
0
10
0.000000
20
0.000000
30
0.000000
0
VERTEX
8
0
6
CONTINUOUS
62
252
70
192
10
3.377440
20
-27.500000
30
-34.600000
0
VERTEX
8
0
6
CONTINUOUS
62
252
70
192
10
3.377440
20
-4.500000
30
-34.600000
0
VERTEX
8
0
6
CONTINUOUS
62
252
70
192
10
16.500000
20
-4.500000
30
-34.600000
0
VERTEX
8
0
6
CONTINUOUS
62
252
70
192
10
16.500000
20
-27.500000
30
-34.600000
0
VERTEX
8
0
6
CONTINUOUS
62
252
70
128
10
0.000000
20
0.000000
30
0.000000
71
2
72
3
73
1
0
VERTEX
8
0
6
CONTINUOUS
62
252
70
128
10
0.000000
20
0.000000
30
0.000000
71
1
72
3
73
4
0
SEQEND
0
POLYLINE
66
1
8
0
6
CONTINUOUS
62
252
70
64
75
0
10
0.000000
20
0.000000
30
0.000000
0
VERTEX
8
0
6
CONTINUOUS
62
252
70
192
10
3.377440
20
-4.500000
30
-34.600000
0
VERTEX
8
0
6
CONTINUOUS
62
252
70
192
10
3.377087
20
-4.451980
30
-34.602389
0
VERTEX
8
0
6
CONTINUOUS
62
252
70
192
10
3.376021
20
-4.403303
30
-34.609578
0
VERTEX
8
0
6
CONTINUOUS
62
252
70
192
10
3.374232
20
-4.354884
30
-34.621598
0
VERTEX
8
0
6
CONTINUOUS
62
252
70
192
10
3.371709
20
-4.307639
30
-34.638484
0
VERTEX
8
0
6
CONTINUOUS
62
252
70
192
10
3.368457
20
-4.262427
30
-34.660136
0
VERTEX
8
0
6
CONTINUOUS
62
252
70
192
10
3.364551
20
-4.219908
30
-34.685979
0
VERTEX
8
0
6
CONTINUOUS
62
252
70
192
10
3.360083
20
-4.180695
30
-34.715327
0
VERTEX
8
0
6
CONTINUOUS
62
252
70
192
10
3.355144
20
-4.145395
30
-34.747502
0
VERTEX
8
0
6
CONTINUOUS
62
252
70
192
10
3.349636
20
-4.113394
30
-34.783055
0
VERTEX
8
0
6
CONTINUOUS
62
252
70
192
10
3.343487
20
-4.084336
30
-34.822353
0
VERTEX
8
0
6
CONTINUOUS
62
252
70
192
10
3.336777
20
-4.058859
30
-34.864792
0
VERTEX
8
0
6
CONTINUOUS
62
252
70
192
10
3.329586
20
-4.037601
30
-34.909771
0
VERTEX
8
0
6
CONTINUOUS
62
252
70
192
10
3.322000
20
-4.021075
30
-34.956634
0
VERTEX
8
0
6
CONTINUOUS
62
252
70
192
10
3.314152
20
-4.009333
30
-35.004546
0
VERTEX
8
0
6
CONTINUOUS
62
252
70
192
10
3.306185
20
-4.002325
30
-35.052627
0
VERTEX
8
0
6
CONTINUOUS
62
252
70
192
10
3.298243
20
-4.000000
30
-35.100000
0
VERTEX
8
0
6
CONTINUOUS
62
252
70
192
10
16.500000
20
-4.000000
30
-35.100000
0
VERTEX
8
0
6
CONTINUOUS
62
252
70
192
10
16.500000
20
-4.007596
30
-35.013176
0
VERTEX
8
0
6
CONTINUOUS
62
252
70
192
10
16.500000
20
-4.030154
30
-34.928990
0
VERTEX
8
0
6
CONTINUOUS
62
252
70
192
10
16.500000
20
-4.066987
30
-34.850000
0
VERTEX
8
0
6
CONTINUOUS
62
252
70
192
10
16.500000
20
-4.116978
30
-34.778606
0
VERTEX
8
0
6
CONTINUOUS
62
252
70
192
10
16.500000
20
-4.178606
30
-34.716978
0
VERTEX
8
0
6
CONTINUOUS
62
252
70
192
10
16.500000
20
-4.250000
30
-34.666987
0
VERTEX
8
0
6
CONTINUOUS
62
252
70
192
10
16.500000
20
-4.328990
30
-34.630154
0
VERTEX
8
0
6
CONTINUOUS
62
252
70
192
10
16.500000
20
-4.413176
30
-34.607596
0
VERTEX
8
0
6
CONTINUOUS
62
252
70
192
10
16.500000
20
-4.500000
30
-34.600000
0
VERTEX
8
0
6
CONTINUOUS
62
252
70
128
10
0.000000
20
0.000000
30
0.000000
71
1
72
2
73
27
0
VERTEX
8
0
6
CONTINUOUS
62
252
70
128
10
0.000000
20
0.000000
30
0.000000
71
27
72
2
73
26
0
VERTEX
8
0
6
CONTINUOUS
62
252
70
128
10
0.000000
20
0.000000
30
0.000000
71
26
72
2
73
3
0
VERTEX
8
0
6
CONTINUOUS
62
252
70
128
10
0.000000
20
0.000000
30
0.000000
71
26
72
3
73
4
0
VERTEX
8
0
6
CONTINUOUS
62
252
70
128
10
0.000000
20
0.000000
30
0.000000
71
26
72
4
73
25
0
VERTEX
8
0
6
CONTINUOUS
62
252
70
128
10
0.000000
20
0.000000
30
0.000000
71
25
72
4
73
5
0
VERTEX
8
0
6
CONTINUOUS
62
252
70
128
10
0.000000
20
0.000000
30
0.000000
71
25
72
5
73
24
0
VERTEX
8
0
6
CONTINUOUS
62
252
70
128
10
0.000000
20
0.000000
30
0.000000
71
24
72
5
73
6
0
VERTEX
8
0
6
CONTINUOUS
62
252
70
128
10
0.000000
20
0.000000
30
0.000000
71
24
72
6
73
7
0
VERTEX
8
0
6
CONTINUOUS
62
252
70
128
10
0.000000
20
0.000000
30
0.000000
71
24
72
7
73
23
0
VERTEX
8
0
6
CONTINUOUS
62
252
70
128
10
0.000000
20
0.000000
30
0.000000
71
23
72
7
73
8
0
VERTEX
8
0
6
CONTINUOUS
62
252
70
128
10
0.000000
20
0.000000
30
0.000000
71
23
72
8
73
9
0
VERTEX
8
0
6
CONTINUOUS
62
252
70
128
10
0.000000
20
0.000000
30
0.000000
71
23
72
9
73
22
0
VERTEX
8
0
6
CONTINUOUS
62
252
70
128
10
0.000000
20
0.000000
30
0.000000
71
22
72
9
73
10
0
VERTEX
8
0
6
CONTINUOUS
62
252
70
128
10
0.000000
20
0.000000
30
0.000000
71
22
72
10
73
11
0
VERTEX
8
0
6
CONTINUOUS
62
252
70
128
10
0.000000
20
0.000000
30
0.000000
71
22
72
11
73
21
0
VERTEX
8
0
6
CONTINUOUS
62
252
70
128
10
0.000000
20
0.000000
30
0.000000
71
21
72
11
73
12
0
VERTEX
8
0
6
CONTINUOUS
62
252
70
128
10
0.000000
20
0.000000
30
0.000000
71
21
72
12
73
13
0
VERTEX
8
0
6
CONTINUOUS
62
252
70
128
10
0.000000
20
0.000000
30
0.000000
71
21
72
13
73
20
0
VERTEX
8
0
6
CONTINUOUS
62
252
70
128
10
0.000000
20
0.000000
30
0.000000
71
20
72
13
73
14
0
VERTEX
8
0
6
CONTINUOUS
62
252
70
128
10
0.000000
20
0.000000
30
0.000000
71
20
72
14
73
19
0
VERTEX
8
0
6
CONTINUOUS
62
252
70
128
10
0.000000
20
0.000000
30
0.000000
71
19
72
14
73
15
0
VERTEX
8
0
6
CONTINUOUS
62
252
70
128
10
0.000000
20
0.000000
30
0.000000
71
19
72
15
73
16
0
VERTEX
8
0
6
CONTINUOUS
62
252
70
128
10
0.000000
20
0.000000
30
0.000000
71
17
72
18
73
16
0
VERTEX
8
0
6
CONTINUOUS
62
252
70
128
10
0.000000
20
0.000000
30
0.000000
71
16
72
18
73
19
0
SEQEND
0
POLYLINE
66
1
8
0
6
CONTINUOUS
62
252
70
64
75
0
10
0.000000
20
0.000000
30
0.000000
0
VERTEX
8
0
6
CONTINUOUS
62
252
70
192
10
-13.500000
20
-28.000000
30
-54.815528
0
VERTEX
8
0
6
CONTINUOUS
62
252
70
192
10
-9.930233
20
-28.000000
30
-53.291495
0
VERTEX
8
0
6
CONTINUOUS
62
252
70
192
10
-6.636228
20
-28.000000
30
-51.238339
0
VERTEX
8
0
6
CONTINUOUS
62
252
70
192
10
-3.695824
20
-28.000000
30
-48.704577
0
VERTEX
8
0
6
CONTINUOUS
62
252
70
192
10
-1.178505
20
-28.000000
30
-45.750085
0
VERTEX
8
0
6
CONTINUOUS
62
252
70
192
10
0.856244
20
-28.000000
30
-42.444678
0
VERTEX
8
0
6
CONTINUOUS
62
252
70
192
10
2.360341
20
-28.000000
30
-38.866465
0
VERTEX
8
0
6
CONTINUOUS
62
252
70
192
10
3.298243
20
-28.000000
30
-35.100000
0
VERTEX
8
0
6
CONTINUOUS
62
252
70
192
10
16.500000
20
-28.000000
30
-35.100000
0
VERTEX
8
0
6
CONTINUOUS
62
252
70
192
10
16.500000
20
-28.000000
30
-69.100000
0
VERTEX
8
0
6
CONTINUOUS
62
252
70
192
10
-13.500000
20
-28.000000
30
-69.100000
0
VERTEX
8
0
6
CONTINUOUS
62
252
70
128
10
0.000000
20
0.000000
30
0.000000
71
1
72
2
73
11
0
VERTEX
8
0
6
CONTINUOUS
62
252
70
128
10
0.000000
20
0.000000
30
0.000000
71
11
72
2
73
3
0
VERTEX
8
0
6
CONTINUOUS
62
252
70
128
10
0.000000
20
0.000000
30
0.000000
71
11
72
3
73
10
0
VERTEX
8
0
6
CONTINUOUS
62
252
70
128
10
0.000000
20
0.000000
30
0.000000
71
10
72
3
73
4
0
VERTEX
8
0
6
CONTINUOUS
62
252
70
128
10
0.000000
20
0.000000
30
0.000000
71
10
72
4
73
5
0
VERTEX
8
0
6
CONTINUOUS
62
252
70
128
10
0.000000
20
0.000000
30
0.000000
71
5
72
6
73
10
0
VERTEX
8
0
6
CONTINUOUS
62
252
70
128
10
0.000000
20
0.000000
30
0.000000
71
10
72
6
73
9
0
VERTEX
8
0
6
CONTINUOUS
62
252
70
128
10
0.000000
20
0.000000
30
0.000000
71
9
72
6
73
7
0
VERTEX
8
0
6
CONTINUOUS
62
252
70
128
10
0.000000
20
0.000000
30
0.000000
71
9
72
7
73
8
0
SEQEND
0
POLYLINE
66
1
8
0
6
CONTINUOUS
62
252
70
64
75
0
10
0.000000
20
0.000000
30
0.000000
0
VERTEX
8
0
6
CONTINUOUS
62
252
70
192
10
-13.500000
20
-27.500000
30
-69.600000
0
VERTEX
8
0
6
CONTINUOUS
62
252
70
192
10
-13.500000
20
-27.586824
30
-69.592404
0
VERTEX
8
0
6
CONTINUOUS
62
252
70
192
10
-13.500000
20
-27.671010
30
-69.569846
0
VERTEX
8
0
6
CONTINUOUS
62
252
70
192
10
-13.500000
20
-27.750000
30
-69.533013
0
VERTEX
8
0
6
CONTINUOUS
62
252
70
192
10
-13.500000
20
-27.821394
30
-69.483022
0
VERTEX
8
0
6
CONTINUOUS
62
252
70
192
10
-13.500000
20
-27.883022
30
-69.421394
0
VERTEX
8
0
6
CONTINUOUS
62
252
70
192
10
-13.500000
20
-27.933013
30
-69.350000
0
VERTEX
8
0
6
CONTINUOUS
62
252
70
192
10
-13.500000
20
-27.969846
30
-69.271010
0
VERTEX
8
0
6
CONTINUOUS
62
252
70
192
10
-13.500000
20
-27.992404
30
-69.186824
0
VERTEX
8
0
6
CONTINUOUS
62
252
70
192
10
-13.500000
20
-28.000000
30
-69.100000
0
VERTEX
8
0
6
CONTINUOUS
62
252
70
192
10
16.500000
20
-28.000000
30
-69.100000
0
VERTEX
8
0
6
CONTINUOUS
62
252
70
192
10
16.500000
20
-27.992404
30
-69.186824
0
VERTEX
8
0
6
CONTINUOUS
62
252
70
192
10
16.500000
20
-27.969846
30
-69.271010
0
VERTEX
8
0
6
CONTINUOUS
62
252
70
192
10
16.500000
20
-27.933013
30
-69.350000
0
VERTEX
8
0
6
CONTINUOUS
62
252
70
192
10
16.500000
20
-27.883022
30
-69.421394
0
VERTEX
8
0
6
CONTINUOUS
62
252
70
192
10
16.500000
20
-27.821394
30
-69.483022
0
VERTEX
8
0
6
CONTINUOUS
62
252
70
192
10
16.500000
20
-27.750000
30
-69.533013
0
VERTEX
8
0
6
CONTINUOUS
62
252
70
192
10
16.500000
20
-27.671010
30
-69.569846
0
VERTEX
8
0
6
CONTINUOUS
62
252
70
192
10
16.500000
20
-27.586824
30
-69.592404
0
VERTEX
8
0
6
CONTINUOUS
62
252
70
192
10
16.500000
20
-27.500000
30
-69.600000
0
VERTEX
8
0
6
CONTINUOUS
62
252
70
128
10
0.000000
20
0.000000
30
0.000000
71
1
72
2
73
20
0
VERTEX
8
0
6
CONTINUOUS
62
252
70
128
10
0.000000
20
0.000000
30
0.000000
71
20
72
2
73
19
0
VERTEX
8
0
6
CONTINUOUS
62
252
70
128
10
0.000000
20
0.000000
30
0.000000
71
19
72
2
73
18
0
VERTEX
8
0
6
CONTINUOUS
62
252
70
128
10
0.000000
20
0.000000
30
0.000000
71
18
72
2
73
3
0
VERTEX
8
0
6
CONTINUOUS
62
252
70
128
10
0.000000
20
0.000000
30
0.000000
71
18
72
3
73
17
0
VERTEX
8
0
6
CONTINUOUS
62
252
70
128
10
0.000000
20
0.000000
30
0.000000
71
17
72
3
73
4
0
VERTEX
8
0
6
CONTINUOUS
62
252
70
128
10
0.000000
20
0.000000
30
0.000000
71
17
72
4
73
16
0
VERTEX
8
0
6
CONTINUOUS
62
252
70
128
10
0.000000
20
0.000000
30
0.000000
71
16
72
4
73
5
0
VERTEX
8
0
6
CONTINUOUS
62
252
70
128
10
0.000000
20
0.000000
30
0.000000
71
16
72
5
73
15
0
VERTEX
8
0
6
CONTINUOUS
62
252
70
128
10
0.000000
20
0.000000
30
0.000000
71
15
72
5
73
6
0
VERTEX
8
0
6
CONTINUOUS
62
252
70
128
10
0.000000
20
0.000000
30
0.000000
71
15
72
6
73
14
0
VERTEX
8
0
6
CONTINUOUS
62
252
70
128
10
0.000000
20
0.000000
30
0.000000
71
14
72
6
73
7
0
VERTEX
8
0
6
CONTINUOUS
62
252
70
128
10
0.000000
20
0.000000
30
0.000000
71
14
72
7
73
13
0
VERTEX
8
0
6
CONTINUOUS
62
252
70
128
10
0.000000
20
0.000000
30
0.000000
71
13
72
7
73
8
0
VERTEX
8
0
6
CONTINUOUS
62
252
70
128
10
0.000000
20
0.000000
30
0.000000
71
13
72
8
73
12
0
VERTEX
8
0
6
CONTINUOUS
62
252
70
128
10
0.000000
20
0.000000
30
0.000000
71
12
72
8
73
9
0
VERTEX
8
0
6
CONTINUOUS
62
252
70
128
10
0.000000
20
0.000000
30
0.000000
71
12
72
9
73
11
0
VERTEX
8
0
6
CONTINUOUS
62
252
70
128
10
0.000000
20
0.000000
30
0.000000
71
11
72
9
73
10
0
SEQEND
0
POLYLINE
66
1
8
0
6
CONTINUOUS
62
252
70
64
75
0
10
0.000000
20
0.000000
30
0.000000
0
VERTEX
8
0
6
CONTINUOUS
62
252
70
192
10
-13.500000
20
-4.500000
30
-69.600000
0
VERTEX
8
0
6
CONTINUOUS
62
252
70
192
10
-13.500000
20
-27.500000
30
-69.600000
0
VERTEX
8
0
6
CONTINUOUS
62
252
70
192
10
16.500000
20
-27.500000
30
-69.600000
0
VERTEX
8
0
6
CONTINUOUS
62
252
70
192
10
16.500000
20
-4.500000
30
-69.600000
0
VERTEX
8
0
6
CONTINUOUS
62
252
70
128
10
0.000000
20
0.000000
30
0.000000
71
2
72
3
73
1
0
VERTEX
8
0
6
CONTINUOUS
62
252
70
128
10
0.000000
20
0.000000
30
0.000000
71
1
72
3
73
4
0
SEQEND
0
POLYLINE
66
1
8
0
6
CONTINUOUS
62
252
70
64
75
0
10
0.000000
20
0.000000
30
0.000000
0
VERTEX
8
0
6
CONTINUOUS
62
252
70
192
10
-13.500000
20
-4.000000
30
-69.100000
0
VERTEX
8
0
6
CONTINUOUS
62
252
70
192
10
-13.500000
20
-4.007596
30
-69.186824
0
VERTEX
8
0
6
CONTINUOUS
62
252
70
192
10
-13.500000
20
-4.030154
30
-69.271010
0
VERTEX
8
0
6
CONTINUOUS
62
252
70
192
10
-13.500000
20
-4.066987
30
-69.350000
0
VERTEX
8
0
6
CONTINUOUS
62
252
70
192
10
-13.500000
20
-4.116978
30
-69.421394
0
VERTEX
8
0
6
CONTINUOUS
62
252
70
192
10
-13.500000
20
-4.178606
30
-69.483022
0
VERTEX
8
0
6
CONTINUOUS
62
252
70
192
10
-13.500000
20
-4.250000
30
-69.533013
0
VERTEX
8
0
6
CONTINUOUS
62
252
70
192
10
-13.500000
20
-4.328990
30
-69.569846
0
VERTEX
8
0
6
CONTINUOUS
62
252
70
192
10
-13.500000
20
-4.413176
30
-69.592404
0
VERTEX
8
0
6
CONTINUOUS
62
252
70
192
10
-13.500000
20
-4.500000
30
-69.600000
0
VERTEX
8
0
6
CONTINUOUS
62
252
70
192
10
16.500000
20
-4.500000
30
-69.600000
0
VERTEX
8
0
6
CONTINUOUS
62
252
70
192
10
16.500000
20
-4.413176
30
-69.592404
0
VERTEX
8
0
6
CONTINUOUS
62
252
70
192
10
16.500000
20
-4.328990
30
-69.569846
0
VERTEX
8
0
6
CONTINUOUS
62
252
70
192
10
16.500000
20
-4.250000
30
-69.533013
0
VERTEX
8
0
6
CONTINUOUS
62
252
70
192
10
16.500000
20
-4.178606
30
-69.483022
0
VERTEX
8
0
6
CONTINUOUS
62
252
70
192
10
16.500000
20
-4.116978
30
-69.421394
0
VERTEX
8
0
6
CONTINUOUS
62
252
70
192
10
16.500000
20
-4.066987
30
-69.350000
0
VERTEX
8
0
6
CONTINUOUS
62
252
70
192
10
16.500000
20
-4.030154
30
-69.271010
0
VERTEX
8
0
6
CONTINUOUS
62
252
70
192
10
16.500000
20
-4.007596
30
-69.186824
0
VERTEX
8
0
6
CONTINUOUS
62
252
70
192
10
16.500000
20
-4.000000
30
-69.100000
0
VERTEX
8
0
6
CONTINUOUS
62
252
70
128
10
0.000000
20
0.000000
30
0.000000
71
1
72
2
73
20
0
VERTEX
8
0
6
CONTINUOUS
62
252
70
128
10
0.000000
20
0.000000
30
0.000000
71
20
72
2
73
19
0
VERTEX
8
0
6
CONTINUOUS
62
252
70
128
10
0.000000
20
0.000000
30
0.000000
71
19
72
2
73
18
0
VERTEX
8
0
6
CONTINUOUS
62
252
70
128
10
0.000000
20
0.000000
30
0.000000
71
18
72
2
73
3
0
VERTEX
8
0
6
CONTINUOUS
62
252
70
128
10
0.000000
20
0.000000
30
0.000000
71
18
72
3
73
17
0
VERTEX
8
0
6
CONTINUOUS
62
252
70
128
10
0.000000
20
0.000000
30
0.000000
71
17
72
3
73
4
0
VERTEX
8
0
6
CONTINUOUS
62
252
70
128
10
0.000000
20
0.000000
30
0.000000
71
17
72
4
73
16
0
VERTEX
8
0
6
CONTINUOUS
62
252
70
128
10
0.000000
20
0.000000
30
0.000000
71
16
72
4
73
5
0
VERTEX
8
0
6
CONTINUOUS
62
252
70
128
10
0.000000
20
0.000000
30
0.000000
71
16
72
5
73
15
0
VERTEX
8
0
6
CONTINUOUS
62
252
70
128
10
0.000000
20
0.000000
30
0.000000
71
15
72
5
73
6
0
VERTEX
8
0
6
CONTINUOUS
62
252
70
128
10
0.000000
20
0.000000
30
0.000000
71
15
72
6
73
14
0
VERTEX
8
0
6
CONTINUOUS
62
252
70
128
10
0.000000
20
0.000000
30
0.000000
71
14
72
6
73
7
0
VERTEX
8
0
6
CONTINUOUS
62
252
70
128
10
0.000000
20
0.000000
30
0.000000
71
14
72
7
73
13
0
VERTEX
8
0
6
CONTINUOUS
62
252
70
128
10
0.000000
20
0.000000
30
0.000000
71
13
72
7
73
8
0
VERTEX
8
0
6
CONTINUOUS
62
252
70
128
10
0.000000
20
0.000000
30
0.000000
71
13
72
8
73
12
0
VERTEX
8
0
6
CONTINUOUS
62
252
70
128
10
0.000000
20
0.000000
30
0.000000
71
12
72
8
73
9
0
VERTEX
8
0
6
CONTINUOUS
62
252
70
128
10
0.000000
20
0.000000
30
0.000000
71
12
72
9
73
11
0
VERTEX
8
0
6
CONTINUOUS
62
252
70
128
10
0.000000
20
0.000000
30
0.000000
71
11
72
9
73
10
0
SEQEND
0
POLYLINE
66
1
8
0
6
CONTINUOUS
62
252
70
64
75
0
10
0.000000
20
0.000000
30
0.000000
0
VERTEX
8
0
6
CONTINUOUS
62
252
70
192
10
-3.350000
20
-4.000000
30
-30.900000
0
VERTEX
8
0
6
CONTINUOUS
62
252
70
192
10
-3.627259
20
-4.000000
30
-34.069079
0
VERTEX
8
0
6
CONTINUOUS
62
252
70
192
10
-4.450610
20
-4.000000
30
-37.141868
0
VERTEX
8
0
6
CONTINUOUS
62
252
70
192
10
-5.795036
20
-4.000000
30
-40.025000
0
VERTEX
8
0
6
CONTINUOUS
62
252
70
192
10
-7.619689
20
-4.000000
30
-42.630874
0
VERTEX
8
0
6
CONTINUOUS
62
252
70
192
10
-9.869126
20
-4.000000
30
-44.880311
0
VERTEX
8
0
6
CONTINUOUS
62
252
70
192
10
-12.475000
20
-4.000000
30
-46.704964
0
VERTEX
8
0
6
CONTINUOUS
62
252
70
192
10
-15.358132
20
-4.000000
30
-48.049390
0
VERTEX
8
0
6
CONTINUOUS
62
252
70
192
10
-18.430921
20
-4.000000
30
-48.872741
0
VERTEX
8
0
6
CONTINUOUS
62
252
70
192
10
-21.600000
20
-4.000000
30
-49.150000
0
VERTEX
8
0
6
CONTINUOUS
62
252
70
192
10
-24.769079
20
-4.000000
30
-48.872741
0
VERTEX
8
0
6
CONTINUOUS
62
252
70
192
10
-27.841868
20
-4.000000
30
-48.049390
0
VERTEX
8
0
6
CONTINUOUS
62
252
70
192
10
-30.725000
20
-4.000000
30
-46.704964
0
VERTEX
8
0
6
CONTINUOUS
62
252
70
192
10
-33.330874
20
-4.000000
30
-44.880311
0
VERTEX
8
0
6
CONTINUOUS
62
252
70
192
10
-35.580311
20
-4.000000
30
-42.630874
0
VERTEX
8
0
6
CONTINUOUS
62
252
70
192
10
-37.404964
20
-4.000000
30
-40.025000
0
VERTEX
8
0
6
CONTINUOUS
62
252
70
192
10
-38.749390
20
-4.000000
30
-37.141868
0
VERTEX
8
0
6
CONTINUOUS
62
252
70
192
10
-39.572741
20
-4.000000
30
-34.069079
0
VERTEX
8
0
6
CONTINUOUS
62
252
70
192
10
-39.850000
20
-4.000000
30
-30.900000
0
VERTEX
8
0
6
CONTINUOUS
62
252
70
192
10
-39.572741
20
-4.000000
30
-27.730921
0
VERTEX
8
0
6
CONTINUOUS
62
252
70
192
10
-38.749390
20
-4.000000
30
-24.658132
0
VERTEX
8
0
6
CONTINUOUS
62
252
70
192
10
-37.404964
20
-4.000000
30
-21.775000
0
VERTEX
8
0
6
CONTINUOUS
62
252
70
192
10
-35.580311
20
-4.000000
30
-19.169126
0
VERTEX
8
0
6
CONTINUOUS
62
252
70
192
10
-33.330874
20
-4.000000
30
-16.919689
0
VERTEX
8
0
6
CONTINUOUS
62
252
70
192
10
-30.725000
20
-4.000000
30
-15.095036
0
VERTEX
8
0
6
CONTINUOUS
62
252
70
192
10
-27.841868
20
-4.000000
30
-13.750610
0
VERTEX
8
0
6
CONTINUOUS
62
252
70
192
10
-24.769079
20
-4.000000
30
-12.927259
0
VERTEX
8
0
6
CONTINUOUS
62
252
70
192
10
-21.600000
20
-4.000000
30
-12.650000
0
VERTEX
8
0
6
CONTINUOUS
62
252
70
192
10
-18.430921
20
-4.000000
30
-12.927259
0
VERTEX
8
0
6
CONTINUOUS
62
252
70
192
10
-15.358132
20
-4.000000
30
-13.750610
0
VERTEX
8
0
6
CONTINUOUS
62
252
70
192
10
-12.475000
20
-4.000000
30
-15.095036
0
VERTEX
8
0
6
CONTINUOUS
62
252
70
192
10
-9.869126
20
-4.000000
30
-16.919689
0
VERTEX
8
0
6
CONTINUOUS
62
252
70
192
10
-7.619689
20
-4.000000
30
-19.169126
0
VERTEX
8
0
6
CONTINUOUS
62
252
70
192
10
-5.795036
20
-4.000000
30
-21.775000
0
VERTEX
8
0
6
CONTINUOUS
62
252
70
192
10
-4.450610
20
-4.000000
30
-24.658132
0
VERTEX
8
0
6
CONTINUOUS
62
252
70
192
10
-3.627259
20
-4.000000
30
-27.730921
0
VERTEX
8
0
6
CONTINUOUS
62
252
70
192
10
-13.500000
20
-4.000000
30
-54.815528
0
VERTEX
8
0
6
CONTINUOUS
62
252
70
192
10
-13.500000
20
-4.000000
30
-69.100000
0
VERTEX
8
0
6
CONTINUOUS
62
252
70
192
10
16.500000
20
-4.000000
30
-69.100000
0
VERTEX
8
0
6
CONTINUOUS
62
252
70
192
10
16.500000
20
-4.000000
30
-35.100000
0
VERTEX
8
0
6
CONTINUOUS
62
252
70
192
10
3.298243
20
-4.000000
30
-35.100000
0
VERTEX
8
0
6
CONTINUOUS
62
252
70
192
10
3.649479
20
-4.000000
30
-30.737840
0
VERTEX
8
0
6
CONTINUOUS
62
252
70
192
10
3.242244
20
-4.000000
30
-26.380551
0
VERTEX
8
0
6
CONTINUOUS
62
252
70
192
10
2.088770
20
-4.000000
30
-22.159022
0
VERTEX
8
0
6
CONTINUOUS
62
252
70
192
10
0.223706
20
-4.000000
30
-18.200065
0
VERTEX
8
0
6
CONTINUOUS
62
252
70
192
10
-2.296922
20
-4.000000
30
-14.622602
0
VERTEX
8
0
6
CONTINUOUS
62
252
70
192
10
-5.397398
20
-4.000000
30
-11.534097
0
VERTEX
8
0
6
CONTINUOUS
62
252
70
192
10
-8.984585
20
-4.000000
30
-9.027327
0
VERTEX
8
0
6
CONTINUOUS
62
252
70
192
10
-12.950728
20
-4.000000
30
-7.177593
0
VERTEX
8
0
6
CONTINUOUS
62
252
70
192
10
-17.176687
20
-4.000000
30
-6.040458
0
VERTEX
8
0
6
CONTINUOUS
62
252
70
192
10
-21.535519
20
-4.000000
30
-5.650082
0
VERTEX
8
0
6
CONTINUOUS
62
252
70
192
10
-25.896288
20
-4.000000
30
-6.018191
0
VERTEX
8
0
6
CONTINUOUS
62
252
70
192
10
-30.128000
20
-4.000000
30
-7.133727
0
VERTEX
8
0
6
CONTINUOUS
62
252
70
192
10
-34.103538
20
-4.000000
30
-8.963181
0
VERTEX
8
0
6
CONTINUOUS
62
252
70
192
10
-37.703482
20
-4.000000
30
-11.451597
0
VERTEX
8
0
6
CONTINUOUS
62
252
70
192
10
-40.819691
20
-4.000000
30
-14.524226
0
VERTEX
8
0
6
CONTINUOUS
62
252
70
192
10
-43.358558
20
-4.000000
30
-18.088768
0
VERTEX
8
0
6
CONTINUOUS
62
252
70
192
10
-45.243817
20
-4.000000
30
-22.038149
0
VERTEX
8
0
6
CONTINUOUS
62
252
70
192
10
-46.418837
20
-4.000000
30
-26.253731
0
VERTEX
8
0
6
CONTINUOUS
62
252
70
192
10
-46.848322
20
-4.000000
30
-30.608883
0
VERTEX
8
0
6
CONTINUOUS
62
252
70
192
10
-46.519369
20
-4.000000
30
-34.972780
0
VERTEX
8
0
6
CONTINUOUS
62
252
70
192
10
-45.441861
20
-4.000000
30
-39.214335
0
VERTEX
8
0
6
CONTINUOUS
62
252
70
192
10
-43.648165
20
-4.000000
30
-43.206134
0
VERTEX
8
0
6
CONTINUOUS
62
252
70
192
10
-41.192161
20
-4.000000
30
-46.828268
0
VERTEX
8
0
6
CONTINUOUS
62
252
70
192
10
-38.147627
20
-4.000000
30
-49.971931
0
VERTEX
8
0
6
CONTINUOUS
62
252
70
192
10
-34.606016
20
-4.000000
30
-52.542690
0
VERTEX
8
0
6
CONTINUOUS
62
252
70
192
10
-30.673717
20
-4.000000
30
-54.463322
0
VERTEX
8
0
6
CONTINUOUS
62
252
70
192
10
-26.468851
20
-4.000000
30
-55.676134
0
VERTEX
8
0
6
CONTINUOUS
62
252
70
192
10
-22.117729
20
-4.000000
30
-56.144692
0
VERTEX
8
0
6
CONTINUOUS
62
252
70
192
10
-17.751055
20
-4.000000
30
-55.854922
0
VERTEX
8
0
6
CONTINUOUS
62
252
70
128
10
0.000000
20
0.000000
30
0.000000
71
2
72
41
73
1
0
VERTEX
8
0
6
CONTINUOUS
62
252
70
128
10
0.000000
20
0.000000
30
0.000000
71
1
72
41
73
42
0
VERTEX
8
0
6
CONTINUOUS
62
252
70
128
10
0.000000
20
0.000000
30
0.000000
71
1
72
42
73
36
0
VERTEX
8
0
6
CONTINUOUS
62
252
70
128
10
0.000000
20
0.000000
30
0.000000
71
36
72
42
73
43
0
VERTEX
8
0
6
CONTINUOUS
62
252
70
128
10
0.000000
20
0.000000
30
0.000000
71
36
72
43
73
35
0
VERTEX
8
0
6
CONTINUOUS
62
252
70
128
10
0.000000
20
0.000000
30
0.000000
71
35
72
43
73
44
0
VERTEX
8
0
6
CONTINUOUS
62
252
70
128
10
0.000000
20
0.000000
30
0.000000
71
35
72
44
73
34
0
VERTEX
8
0
6
CONTINUOUS
62
252
70
128
10
0.000000
20
0.000000
30
0.000000
71
34
72
44
73
45
0
VERTEX
8
0
6
CONTINUOUS
62
252
70
128
10
0.000000
20
0.000000
30
0.000000
71
34
72
45
73
33
0
VERTEX
8
0
6
CONTINUOUS
62
252
70
128
10
0.000000
20
0.000000
30
0.000000
71
33
72
45
73
46
0
VERTEX
8
0
6
CONTINUOUS
62
252
70
128
10
0.000000
20
0.000000
30
0.000000
71
33
72
46
73
32
0
VERTEX
8
0
6
CONTINUOUS
62
252
70
128
10
0.000000
20
0.000000
30
0.000000
71
32
72
46
73
47
0
VERTEX
8
0
6
CONTINUOUS
62
252
70
128
10
0.000000
20
0.000000
30
0.000000
71
32
72
47
73
31
0
VERTEX
8
0
6
CONTINUOUS
62
252
70
128
10
0.000000
20
0.000000
30
0.000000
71
31
72
47
73
48
0
VERTEX
8
0
6
CONTINUOUS
62
252
70
128
10
0.000000
20
0.000000
30
0.000000
71
31
72
48
73
49
0
VERTEX
8
0
6
CONTINUOUS
62
252
70
128
10
0.000000
20
0.000000
30
0.000000
71
2
72
3
73
41
0
VERTEX
8
0
6
CONTINUOUS
62
252
70
128
10
0.000000
20
0.000000
30
0.000000
71
41
72
3
73
4
0
VERTEX
8
0
6
CONTINUOUS
62
252
70
128
10
0.000000
20
0.000000
30
0.000000
71
41
72
4
73
5
0
VERTEX
8
0
6
CONTINUOUS
62
252
70
128
10
0.000000
20
0.000000
30
0.000000
71
6
72
37
73
5
0
VERTEX
8
0
6
CONTINUOUS
62
252
70
128
10
0.000000
20
0.000000
30
0.000000
71
5
72
37
73
39
0
VERTEX
8
0
6
CONTINUOUS
62
252
70
128
10
0.000000
20
0.000000
30
0.000000
71
5
72
39
73
41
0
VERTEX
8
0
6
CONTINUOUS
62
252
70
128
10
0.000000
20
0.000000
30
0.000000
71
41
72
39
73
40
0
VERTEX
8
0
6
CONTINUOUS
62
252
70
128
10
0.000000
20
0.000000
30
0.000000
71
6
72
7
73
37
0
VERTEX
8
0
6
CONTINUOUS
62
252
70
128
10
0.000000
20
0.000000
30
0.000000
71
37
72
7
73
8
0
VERTEX
8
0
6
CONTINUOUS
62
252
70
128
10
0.000000
20
0.000000
30
0.000000
71
37
72
8
73
9
0
VERTEX
8
0
6
CONTINUOUS
62
252
70
128
10
0.000000
20
0.000000
30
0.000000
71
37
72
9
73
70
0
VERTEX
8
0
6
CONTINUOUS
62
252
70
128
10
0.000000
20
0.000000
30
0.000000
71
70
72
9
73
10
0
VERTEX
8
0
6
CONTINUOUS
62
252
70
128
10
0.000000
20
0.000000
30
0.000000
71
70
72
10
73
69
0
VERTEX
8
0
6
CONTINUOUS
62
252
70
128
10
0.000000
20
0.000000
30
0.000000
71
69
72
10
73
11
0
VERTEX
8
0
6
CONTINUOUS
62
252
70
128
10
0.000000
20
0.000000
30
0.000000
71
69
72
11
73
68
0
VERTEX
8
0
6
CONTINUOUS
62
252
70
128
10
0.000000
20
0.000000
30
0.000000
71
68
72
11
73
12
0
VERTEX
8
0
6
CONTINUOUS
62
252
70
128
10
0.000000
20
0.000000
30
0.000000
71
68
72
12
73
67
0
VERTEX
8
0
6
CONTINUOUS
62
252
70
128
10
0.000000
20
0.000000
30
0.000000
71
67
72
12
73
13
0
VERTEX
8
0
6
CONTINUOUS
62
252
70
128
10
0.000000
20
0.000000
30
0.000000
71
67
72
13
73
66
0
VERTEX
8
0
6
CONTINUOUS
62
252
70
128
10
0.000000
20
0.000000
30
0.000000
71
66
72
13
73
14
0
VERTEX
8
0
6
CONTINUOUS
62
252
70
128
10
0.000000
20
0.000000
30
0.000000
71
66
72
14
73
65
0
VERTEX
8
0
6
CONTINUOUS
62
252
70
128
10
0.000000
20
0.000000
30
0.000000
71
65
72
14
73
15
0
VERTEX
8
0
6
CONTINUOUS
62
252
70
128
10
0.000000
20
0.000000
30
0.000000
71
65
72
15
73
64
0
VERTEX
8
0
6
CONTINUOUS
62
252
70
128
10
0.000000
20
0.000000
30
0.000000
71
64
72
15
73
16
0
VERTEX
8
0
6
CONTINUOUS
62
252
70
128
10
0.000000
20
0.000000
30
0.000000
71
64
72
16
73
63
0
VERTEX
8
0
6
CONTINUOUS
62
252
70
128
10
0.000000
20
0.000000
30
0.000000
71
63
72
16
73
17
0
VERTEX
8
0
6
CONTINUOUS
62
252
70
128
10
0.000000
20
0.000000
30
0.000000
71
63
72
17
73
62
0
VERTEX
8
0
6
CONTINUOUS
62
252
70
128
10
0.000000
20
0.000000
30
0.000000
71
62
72
17
73
18
0
VERTEX
8
0
6
CONTINUOUS
62
252
70
128
10
0.000000
20
0.000000
30
0.000000
71
62
72
18
73
61
0
VERTEX
8
0
6
CONTINUOUS
62
252
70
128
10
0.000000
20
0.000000
30
0.000000
71
61
72
18
73
19
0
VERTEX
8
0
6
CONTINUOUS
62
252
70
128
10
0.000000
20
0.000000
30
0.000000
71
61
72
19
73
60
0
VERTEX
8
0
6
CONTINUOUS
62
252
70
128
10
0.000000
20
0.000000
30
0.000000
71
60
72
19
73
20
0
VERTEX
8
0
6
CONTINUOUS
62
252
70
128
10
0.000000
20
0.000000
30
0.000000
71
60
72
20
73
59
0
VERTEX
8
0
6
CONTINUOUS
62
252
70
128
10
0.000000
20
0.000000
30
0.000000
71
59
72
20
73
21
0
VERTEX
8
0
6
CONTINUOUS
62
252
70
128
10
0.000000
20
0.000000
30
0.000000
71
59
72
21
73
58
0
VERTEX
8
0
6
CONTINUOUS
62
252
70
128
10
0.000000
20
0.000000
30
0.000000
71
58
72
21
73
22
0
VERTEX
8
0
6
CONTINUOUS
62
252
70
128
10
0.000000
20
0.000000
30
0.000000
71
58
72
22
73
57
0
VERTEX
8
0
6
CONTINUOUS
62
252
70
128
10
0.000000
20
0.000000
30
0.000000
71
57
72
22
73
23
0
VERTEX
8
0
6
CONTINUOUS
62
252
70
128
10
0.000000
20
0.000000
30
0.000000
71
57
72
23
73
56
0
VERTEX
8
0
6
CONTINUOUS
62
252
70
128
10
0.000000
20
0.000000
30
0.000000
71
56
72
23
73
24
0
VERTEX
8
0
6
CONTINUOUS
62
252
70
128
10
0.000000
20
0.000000
30
0.000000
71
56
72
24
73
55
0
VERTEX
8
0
6
CONTINUOUS
62
252
70
128
10
0.000000
20
0.000000
30
0.000000
71
55
72
24
73
25
0
VERTEX
8
0
6
CONTINUOUS
62
252
70
128
10
0.000000
20
0.000000
30
0.000000
71
55
72
25
73
54
0
VERTEX
8
0
6
CONTINUOUS
62
252
70
128
10
0.000000
20
0.000000
30
0.000000
71
54
72
25
73
26
0
VERTEX
8
0
6
CONTINUOUS
62
252
70
128
10
0.000000
20
0.000000
30
0.000000
71
54
72
26
73
53
0
VERTEX
8
0
6
CONTINUOUS
62
252
70
128
10
0.000000
20
0.000000
30
0.000000
71
53
72
26
73
27
0
VERTEX
8
0
6
CONTINUOUS
62
252
70
128
10
0.000000
20
0.000000
30
0.000000
71
53
72
27
73
52
0
VERTEX
8
0
6
CONTINUOUS
62
252
70
128
10
0.000000
20
0.000000
30
0.000000
71
52
72
27
73
28
0
VERTEX
8
0
6
CONTINUOUS
62
252
70
128
10
0.000000
20
0.000000
30
0.000000
71
52
72
28
73
51
0
VERTEX
8
0
6
CONTINUOUS
62
252
70
128
10
0.000000
20
0.000000
30
0.000000
71
51
72
28
73
29
0
VERTEX
8
0
6
CONTINUOUS
62
252
70
128
10
0.000000
20
0.000000
30
0.000000
71
51
72
29
73
50
0
VERTEX
8
0
6
CONTINUOUS
62
252
70
128
10
0.000000
20
0.000000
30
0.000000
71
50
72
29
73
30
0
VERTEX
8
0
6
CONTINUOUS
62
252
70
128
10
0.000000
20
0.000000
30
0.000000
71
50
72
30
73
49
0
VERTEX
8
0
6
CONTINUOUS
62
252
70
128
10
0.000000
20
0.000000
30
0.000000
71
49
72
30
73
31
0
VERTEX
8
0
6
CONTINUOUS
62
252
70
128
10
0.000000
20
0.000000
30
0.000000
71
37
72
38
73
39
0
SEQEND
0
POLYLINE
66
1
8
0
6
CONTINUOUS
62
252
70
64
75
0
10
0.000000
20
0.000000
30
0.000000
0
VERTEX
8
0
6
CONTINUOUS
62
252
70
192
10
-13.500000
20
-4.000000
30
-54.815528
0
VERTEX
8
0
6
CONTINUOUS
62
252
70
192
10
-13.500000
20
-28.000000
30
-54.815528
0
VERTEX
8
0
6
CONTINUOUS
62
252
70
192
10
-13.500000
20
-28.000000
30
-69.100000
0
VERTEX
8
0
6
CONTINUOUS
62
252
70
192
10
-13.500000
20
-27.992404
30
-69.186824
0
VERTEX
8
0
6
CONTINUOUS
62
252
70
192
10
-13.500000
20
-27.969846
30
-69.271010
0
VERTEX
8
0
6
CONTINUOUS
62
252
70
192
10
-13.500000
20
-27.933013
30
-69.350000
0
VERTEX
8
0
6
CONTINUOUS
62
252
70
192
10
-13.500000
20
-27.883022
30
-69.421394
0
VERTEX
8
0
6
CONTINUOUS
62
252
70
192
10
-13.500000
20
-27.821394
30
-69.483022
0
VERTEX
8
0
6
CONTINUOUS
62
252
70
192
10
-13.500000
20
-27.750000
30
-69.533013
0
VERTEX
8
0
6
CONTINUOUS
62
252
70
192
10
-13.500000
20
-27.671010
30
-69.569846
0
VERTEX
8
0
6
CONTINUOUS
62
252
70
192
10
-13.500000
20
-27.586824
30
-69.592404
0
VERTEX
8
0
6
CONTINUOUS
62
252
70
192
10
-13.500000
20
-27.500000
30
-69.600000
0
VERTEX
8
0
6
CONTINUOUS
62
252
70
192
10
-13.500000
20
-4.500000
30
-69.600000
0
VERTEX
8
0
6
CONTINUOUS
62
252
70
192
10
-13.500000
20
-4.413176
30
-69.592404
0
VERTEX
8
0
6
CONTINUOUS
62
252
70
192
10
-13.500000
20
-4.328990
30
-69.569846
0
VERTEX
8
0
6
CONTINUOUS
62
252
70
192
10
-13.500000
20
-4.250000
30
-69.533013
0
VERTEX
8
0
6
CONTINUOUS
62
252
70
192
10
-13.500000
20
-4.178606
30
-69.483022
0
VERTEX
8
0
6
CONTINUOUS
62
252
70
192
10
-13.500000
20
-4.116978
30
-69.421394
0
VERTEX
8
0
6
CONTINUOUS
62
252
70
192
10
-13.500000
20
-4.066987
30
-69.350000
0
VERTEX
8
0
6
CONTINUOUS
62
252
70
192
10
-13.500000
20
-4.030154
30
-69.271010
0
VERTEX
8
0
6
CONTINUOUS
62
252
70
192
10
-13.500000
20
-4.007596
30
-69.186824
0
VERTEX
8
0
6
CONTINUOUS
62
252
70
192
10
-13.500000
20
-4.000000
30
-69.100000
0
VERTEX
8
0
6
CONTINUOUS
62
252
70
128
10
0.000000
20
0.000000
30
0.000000
71
1
72
2
73
22
0
VERTEX
8
0
6
CONTINUOUS
62
252
70
128
10
0.000000
20
0.000000
30
0.000000
71
22
72
2
73
3
0
VERTEX
8
0
6
CONTINUOUS
62
252
70
128
10
0.000000
20
0.000000
30
0.000000
71
22
72
3
73
13
0
VERTEX
8
0
6
CONTINUOUS
62
252
70
128
10
0.000000
20
0.000000
30
0.000000
71
13
72
3
73
12
0
VERTEX
8
0
6
CONTINUOUS
62
252
70
128
10
0.000000
20
0.000000
30
0.000000
71
12
72
3
73
4
0
VERTEX
8
0
6
CONTINUOUS
62
252
70
128
10
0.000000
20
0.000000
30
0.000000
71
12
72
4
73
5
0
VERTEX
8
0
6
CONTINUOUS
62
252
70
128
10
0.000000
20
0.000000
30
0.000000
71
5
72
6
73
12
0
VERTEX
8
0
6
CONTINUOUS
62
252
70
128
10
0.000000
20
0.000000
30
0.000000
71
12
72
6
73
7
0
VERTEX
8
0
6
CONTINUOUS
62
252
70
128
10
0.000000
20
0.000000
30
0.000000
71
12
72
7
73
8
0
VERTEX
8
0
6
CONTINUOUS
62
252
70
128
10
0.000000
20
0.000000
30
0.000000
71
8
72
9
73
12
0
VERTEX
8
0
6
CONTINUOUS
62
252
70
128
10
0.000000
20
0.000000
30
0.000000
71
12
72
9
73
10
0
VERTEX
8
0
6
CONTINUOUS
62
252
70
128
10
0.000000
20
0.000000
30
0.000000
71
12
72
10
73
11
0
VERTEX
8
0
6
CONTINUOUS
62
252
70
128
10
0.000000
20
0.000000
30
0.000000
71
14
72
15
73
13
0
VERTEX
8
0
6
CONTINUOUS
62
252
70
128
10
0.000000
20
0.000000
30
0.000000
71
13
72
15
73
16
0
VERTEX
8
0
6
CONTINUOUS
62
252
70
128
10
0.000000
20
0.000000
30
0.000000
71
13
72
16
73
17
0
VERTEX
8
0
6
CONTINUOUS
62
252
70
128
10
0.000000
20
0.000000
30
0.000000
71
17
72
18
73
13
0
VERTEX
8
0
6
CONTINUOUS
62
252
70
128
10
0.000000
20
0.000000
30
0.000000
71
13
72
18
73
19
0
VERTEX
8
0
6
CONTINUOUS
62
252
70
128
10
0.000000
20
0.000000
30
0.000000
71
13
72
19
73
20
0
VERTEX
8
0
6
CONTINUOUS
62
252
70
128
10
0.000000
20
0.000000
30
0.000000
71
20
72
21
73
13
0
VERTEX
8
0
6
CONTINUOUS
62
252
70
128
10
0.000000
20
0.000000
30
0.000000
71
13
72
21
73
22
0
SEQEND
0
POLYLINE
66
1
8
0
6
CONTINUOUS
62
252
70
64
75
0
10
0.000000
20
0.000000
30
0.000000
0
VERTEX
8
0
6
CONTINUOUS
62
252
70
192
10
-43.450000
20
0.000000
30
-67.100000
0
VERTEX
8
0
6
CONTINUOUS
62
252
70
192
10
-43.484183
20
-0.000000
30
-67.490708
0
VERTEX
8
0
6
CONTINUOUS
62
252
70
192
10
-43.585692
20
-0.000000
30
-67.869545
0
VERTEX
8
0
6
CONTINUOUS
62
252
70
192
10
-43.751443
20
-0.000000
30
-68.225000
0
VERTEX
8
0
6
CONTINUOUS
62
252
70
192
10
-43.976400
20
-0.000000
30
-68.546272
0
VERTEX
8
0
6
CONTINUOUS
62
252
70
192
10
-44.253728
20
-0.000000
30
-68.823600
0
VERTEX
8
0
6
CONTINUOUS
62
252
70
192
10
-44.575000
20
-0.000000
30
-69.048557
0
VERTEX
8
0
6
CONTINUOUS
62
252
70
192
10
-44.930455
20
-0.000000
30
-69.214308
0
VERTEX
8
0
6
CONTINUOUS
62
252
70
192
10
-45.309292
20
-0.000000
30
-69.315817
0
VERTEX
8
0
6
CONTINUOUS
62
252
70
192
10
-45.700000
20
-0.000000
30
-69.350000
0
VERTEX
8
0
6
CONTINUOUS
62
252
70
192
10
-46.090708
20
-0.000000
30
-69.315817
0
VERTEX
8
0
6
CONTINUOUS
62
252
70
192
10
-46.469545
20
-0.000000
30
-69.214308
0
VERTEX
8
0
6
CONTINUOUS
62
252
70
192
10
-46.825000
20
-0.000000
30
-69.048557
0
VERTEX
8
0
6
CONTINUOUS
62
252
70
192
10
-47.146272
20
-0.000000
30
-68.823600
0
VERTEX
8
0
6
CONTINUOUS
62
252
70
192
10
-47.423600
20
-0.000000
30
-68.546272
0
VERTEX
8
0
6
CONTINUOUS
62
252
70
192
10
-47.648557
20
-0.000000
30
-68.225000
0
VERTEX
8
0
6
CONTINUOUS
62
252
70
192
10
-47.814308
20
-0.000000
30
-67.869545
0
VERTEX
8
0
6
CONTINUOUS
62
252
70
192
10
-47.915817
20
-0.000000
30
-67.490708
0
VERTEX
8
0
6
CONTINUOUS
62
252
70
192
10
-47.950000
20
-0.000000
30
-67.100000
0
VERTEX
8
0
6
CONTINUOUS
62
252
70
192
10
-47.915817
20
-0.000000
30
-66.709292
0
VERTEX
8
0
6
CONTINUOUS
62
252
70
192
10
-47.814308
20
-0.000000
30
-66.330455
0
VERTEX
8
0
6
CONTINUOUS
62
252
70
192
10
-47.648557
20
-0.000000
30
-65.975000
0
VERTEX
8
0
6
CONTINUOUS
62
252
70
192
10
-47.423600
20
-0.000000
30
-65.653728
0
VERTEX
8
0
6
CONTINUOUS
62
252
70
192
10
-47.146272
20
-0.000000
30
-65.376400
0
VERTEX
8
0
6
CONTINUOUS
62
252
70
192
10
-46.825000
20
-0.000000
30
-65.151443
0
VERTEX
8
0
6
CONTINUOUS
62
252
70
192
10
-46.469545
20
-0.000000
30
-64.985692
0
VERTEX
8
0
6
CONTINUOUS
62
252
70
192
10
-46.090708
20
-0.000000
30
-64.884183
0
VERTEX
8
0
6
CONTINUOUS
62
252
70
192
10
-45.700000
20
-0.000000
30
-64.850000
0
VERTEX
8
0
6
CONTINUOUS
62
252
70
192
10
-45.309292
20
-0.000000
30
-64.884183
0
VERTEX
8
0
6
CONTINUOUS
62
252
70
192
10
-44.930455
20
-0.000000
30
-64.985692
0
VERTEX
8
0
6
CONTINUOUS
62
252
70
192
10
-44.575000
20
-0.000000
30
-65.151443
0
VERTEX
8
0
6
CONTINUOUS
62
252
70
192
10
-44.253728
20
-0.000000
30
-65.376400
0
VERTEX
8
0
6
CONTINUOUS
62
252
70
192
10
-43.976400
20
-0.000000
30
-65.653728
0
VERTEX
8
0
6
CONTINUOUS
62
252
70
192
10
-43.751443
20
-0.000000
30
-65.975000
0
VERTEX
8
0
6
CONTINUOUS
62
252
70
192
10
-43.585692
20
-0.000000
30
-66.330455
0
VERTEX
8
0
6
CONTINUOUS
62
252
70
192
10
-43.484183
20
-0.000000
30
-66.709292
0
VERTEX
8
0
6
CONTINUOUS
62
252
70
192
10
-43.450000
20
-30.000000
30
-67.100000
0
VERTEX
8
0
6
CONTINUOUS
62
252
70
192
10
-43.484183
20
-30.000000
30
-66.709292
0
VERTEX
8
0
6
CONTINUOUS
62
252
70
192
10
-43.585692
20
-30.000000
30
-66.330455
0
VERTEX
8
0
6
CONTINUOUS
62
252
70
192
10
-43.751443
20
-30.000000
30
-65.975000
0
VERTEX
8
0
6
CONTINUOUS
62
252
70
192
10
-43.976400
20
-30.000000
30
-65.653728
0
VERTEX
8
0
6
CONTINUOUS
62
252
70
192
10
-44.253728
20
-30.000000
30
-65.376400
0
VERTEX
8
0
6
CONTINUOUS
62
252
70
192
10
-44.575000
20
-30.000000
30
-65.151443
0
VERTEX
8
0
6
CONTINUOUS
62
252
70
192
10
-44.930455
20
-30.000000
30
-64.985692
0
VERTEX
8
0
6
CONTINUOUS
62
252
70
192
10
-45.309292
20
-30.000000
30
-64.884183
0
VERTEX
8
0
6
CONTINUOUS
62
252
70
192
10
-45.700000
20
-30.000000
30
-64.850000
0
VERTEX
8
0
6
CONTINUOUS
62
252
70
192
10
-46.090708
20
-30.000000
30
-64.884183
0
VERTEX
8
0
6
CONTINUOUS
62
252
70
192
10
-46.469545
20
-30.000000
30
-64.985692
0
VERTEX
8
0
6
CONTINUOUS
62
252
70
192
10
-46.825000
20
-30.000000
30
-65.151443
0
VERTEX
8
0
6
CONTINUOUS
62
252
70
192
10
-47.146272
20
-30.000000
30
-65.376400
0
VERTEX
8
0
6
CONTINUOUS
62
252
70
192
10
-47.423600
20
-30.000000
30
-65.653728
0
VERTEX
8
0
6
CONTINUOUS
62
252
70
192
10
-47.648557
20
-30.000000
30
-65.975000
0
VERTEX
8
0
6
CONTINUOUS
62
252
70
192
10
-47.814308
20
-30.000000
30
-66.330455
0
VERTEX
8
0
6
CONTINUOUS
62
252
70
192
10
-47.915817
20
-30.000000
30
-66.709292
0
VERTEX
8
0
6
CONTINUOUS
62
252
70
192
10
-47.950000
20
-30.000000
30
-67.100000
0
VERTEX
8
0
6
CONTINUOUS
62
252
70
192
10
-47.915817
20
-30.000000
30
-67.490708
0
VERTEX
8
0
6
CONTINUOUS
62
252
70
192
10
-47.814308
20
-30.000000
30
-67.869545
0
VERTEX
8
0
6
CONTINUOUS
62
252
70
192
10
-47.648557
20
-30.000000
30
-68.225000
0
VERTEX
8
0
6
CONTINUOUS
62
252
70
192
10
-47.423600
20
-30.000000
30
-68.546272
0
VERTEX
8
0
6
CONTINUOUS
62
252
70
192
10
-47.146272
20
-30.000000
30
-68.823600
0
VERTEX
8
0
6
CONTINUOUS
62
252
70
192
10
-46.825000
20
-30.000000
30
-69.048557
0
VERTEX
8
0
6
CONTINUOUS
62
252
70
192
10
-46.469545
20
-30.000000
30
-69.214308
0
VERTEX
8
0
6
CONTINUOUS
62
252
70
192
10
-46.090708
20
-30.000000
30
-69.315817
0
VERTEX
8
0
6
CONTINUOUS
62
252
70
192
10
-45.700000
20
-30.000000
30
-69.350000
0
VERTEX
8
0
6
CONTINUOUS
62
252
70
192
10
-45.309292
20
-30.000000
30
-69.315817
0
VERTEX
8
0
6
CONTINUOUS
62
252
70
192
10
-44.930455
20
-30.000000
30
-69.214308
0
VERTEX
8
0
6
CONTINUOUS
62
252
70
192
10
-44.575000
20
-30.000000
30
-69.048557
0
VERTEX
8
0
6
CONTINUOUS
62
252
70
192
10
-44.253728
20
-30.000000
30
-68.823600
0
VERTEX
8
0
6
CONTINUOUS
62
252
70
192
10
-43.976400
20
-30.000000
30
-68.546272
0
VERTEX
8
0
6
CONTINUOUS
62
252
70
192
10
-43.751443
20
-30.000000
30
-68.225000
0
VERTEX
8
0
6
CONTINUOUS
62
252
70
192
10
-43.585692
20
-30.000000
30
-67.869545
0
VERTEX
8
0
6
CONTINUOUS
62
252
70
192
10
-43.484183
20
-30.000000
30
-67.490708
0
VERTEX
8
0
6
CONTINUOUS
62
252
70
128
10
0.000000
20
0.000000
30
0.000000
71
2
72
37
73
1
0
VERTEX
8
0
6
CONTINUOUS
62
252
70
128
10
0.000000
20
0.000000
30
0.000000
71
1
72
37
73
38
0
VERTEX
8
0
6
CONTINUOUS
62
252
70
128
10
0.000000
20
0.000000
30
0.000000
71
1
72
38
73
36
0
VERTEX
8
0
6
CONTINUOUS
62
252
70
128
10
0.000000
20
0.000000
30
0.000000
71
36
72
38
73
39
0
VERTEX
8
0
6
CONTINUOUS
62
252
70
128
10
0.000000
20
0.000000
30
0.000000
71
36
72
39
73
35
0
VERTEX
8
0
6
CONTINUOUS
62
252
70
128
10
0.000000
20
0.000000
30
0.000000
71
35
72
39
73
40
0
VERTEX
8
0
6
CONTINUOUS
62
252
70
128
10
0.000000
20
0.000000
30
0.000000
71
35
72
40
73
34
0
VERTEX
8
0
6
CONTINUOUS
62
252
70
128
10
0.000000
20
0.000000
30
0.000000
71
34
72
40
73
41
0
VERTEX
8
0
6
CONTINUOUS
62
252
70
128
10
0.000000
20
0.000000
30
0.000000
71
34
72
41
73
33
0
VERTEX
8
0
6
CONTINUOUS
62
252
70
128
10
0.000000
20
0.000000
30
0.000000
71
33
72
41
73
42
0
VERTEX
8
0
6
CONTINUOUS
62
252
70
128
10
0.000000
20
0.000000
30
0.000000
71
33
72
42
73
32
0
VERTEX
8
0
6
CONTINUOUS
62
252
70
128
10
0.000000
20
0.000000
30
0.000000
71
32
72
42
73
43
0
VERTEX
8
0
6
CONTINUOUS
62
252
70
128
10
0.000000
20
0.000000
30
0.000000
71
32
72
43
73
31
0
VERTEX
8
0
6
CONTINUOUS
62
252
70
128
10
0.000000
20
0.000000
30
0.000000
71
31
72
43
73
44
0
VERTEX
8
0
6
CONTINUOUS
62
252
70
128
10
0.000000
20
0.000000
30
0.000000
71
31
72
44
73
30
0
VERTEX
8
0
6
CONTINUOUS
62
252
70
128
10
0.000000
20
0.000000
30
0.000000
71
30
72
44
73
45
0
VERTEX
8
0
6
CONTINUOUS
62
252
70
128
10
0.000000
20
0.000000
30
0.000000
71
30
72
45
73
29
0
VERTEX
8
0
6
CONTINUOUS
62
252
70
128
10
0.000000
20
0.000000
30
0.000000
71
29
72
45
73
46
0
VERTEX
8
0
6
CONTINUOUS
62
252
70
128
10
0.000000
20
0.000000
30
0.000000
71
29
72
46
73
28
0
VERTEX
8
0
6
CONTINUOUS
62
252
70
128
10
0.000000
20
0.000000
30
0.000000
71
28
72
46
73
27
0
VERTEX
8
0
6
CONTINUOUS
62
252
70
128
10
0.000000
20
0.000000
30
0.000000
71
27
72
46
73
47
0
VERTEX
8
0
6
CONTINUOUS
62
252
70
128
10
0.000000
20
0.000000
30
0.000000
71
27
72
47
73
26
0
VERTEX
8
0
6
CONTINUOUS
62
252
70
128
10
0.000000
20
0.000000
30
0.000000
71
26
72
47
73
48
0
VERTEX
8
0
6
CONTINUOUS
62
252
70
128
10
0.000000
20
0.000000
30
0.000000
71
26
72
48
73
25
0
VERTEX
8
0
6
CONTINUOUS
62
252
70
128
10
0.000000
20
0.000000
30
0.000000
71
25
72
48
73
49
0
VERTEX
8
0
6
CONTINUOUS
62
252
70
128
10
0.000000
20
0.000000
30
0.000000
71
25
72
49
73
24
0
VERTEX
8
0
6
CONTINUOUS
62
252
70
128
10
0.000000
20
0.000000
30
0.000000
71
24
72
49
73
50
0
VERTEX
8
0
6
CONTINUOUS
62
252
70
128
10
0.000000
20
0.000000
30
0.000000
71
24
72
50
73
23
0
VERTEX
8
0
6
CONTINUOUS
62
252
70
128
10
0.000000
20
0.000000
30
0.000000
71
23
72
50
73
51
0
VERTEX
8
0
6
CONTINUOUS
62
252
70
128
10
0.000000
20
0.000000
30
0.000000
71
23
72
51
73
22
0
VERTEX
8
0
6
CONTINUOUS
62
252
70
128
10
0.000000
20
0.000000
30
0.000000
71
22
72
51
73
52
0
VERTEX
8
0
6
CONTINUOUS
62
252
70
128
10
0.000000
20
0.000000
30
0.000000
71
22
72
52
73
21
0
VERTEX
8
0
6
CONTINUOUS
62
252
70
128
10
0.000000
20
0.000000
30
0.000000
71
21
72
52
73
53
0
VERTEX
8
0
6
CONTINUOUS
62
252
70
128
10
0.000000
20
0.000000
30
0.000000
71
21
72
53
73
20
0
VERTEX
8
0
6
CONTINUOUS
62
252
70
128
10
0.000000
20
0.000000
30
0.000000
71
20
72
53
73
54
0
VERTEX
8
0
6
CONTINUOUS
62
252
70
128
10
0.000000
20
0.000000
30
0.000000
71
20
72
54
73
19
0
VERTEX
8
0
6
CONTINUOUS
62
252
70
128
10
0.000000
20
0.000000
30
0.000000
71
19
72
54
73
55
0
VERTEX
8
0
6
CONTINUOUS
62
252
70
128
10
0.000000
20
0.000000
30
0.000000
71
19
72
55
73
18
0
VERTEX
8
0
6
CONTINUOUS
62
252
70
128
10
0.000000
20
0.000000
30
0.000000
71
18
72
55
73
56
0
VERTEX
8
0
6
CONTINUOUS
62
252
70
128
10
0.000000
20
0.000000
30
0.000000
71
18
72
56
73
17
0
VERTEX
8
0
6
CONTINUOUS
62
252
70
128
10
0.000000
20
0.000000
30
0.000000
71
17
72
56
73
57
0
VERTEX
8
0
6
CONTINUOUS
62
252
70
128
10
0.000000
20
0.000000
30
0.000000
71
17
72
57
73
16
0
VERTEX
8
0
6
CONTINUOUS
62
252
70
128
10
0.000000
20
0.000000
30
0.000000
71
16
72
57
73
58
0
VERTEX
8
0
6
CONTINUOUS
62
252
70
128
10
0.000000
20
0.000000
30
0.000000
71
16
72
58
73
15
0
VERTEX
8
0
6
CONTINUOUS
62
252
70
128
10
0.000000
20
0.000000
30
0.000000
71
15
72
58
73
59
0
VERTEX
8
0
6
CONTINUOUS
62
252
70
128
10
0.000000
20
0.000000
30
0.000000
71
15
72
59
73
14
0
VERTEX
8
0
6
CONTINUOUS
62
252
70
128
10
0.000000
20
0.000000
30
0.000000
71
14
72
59
73
60
0
VERTEX
8
0
6
CONTINUOUS
62
252
70
128
10
0.000000
20
0.000000
30
0.000000
71
14
72
60
73
13
0
VERTEX
8
0
6
CONTINUOUS
62
252
70
128
10
0.000000
20
0.000000
30
0.000000
71
13
72
60
73
61
0
VERTEX
8
0
6
CONTINUOUS
62
252
70
128
10
0.000000
20
0.000000
30
0.000000
71
13
72
61
73
12
0
VERTEX
8
0
6
CONTINUOUS
62
252
70
128
10
0.000000
20
0.000000
30
0.000000
71
12
72
61
73
62
0
VERTEX
8
0
6
CONTINUOUS
62
252
70
128
10
0.000000
20
0.000000
30
0.000000
71
12
72
62
73
11
0
VERTEX
8
0
6
CONTINUOUS
62
252
70
128
10
0.000000
20
0.000000
30
0.000000
71
11
72
62
73
63
0
VERTEX
8
0
6
CONTINUOUS
62
252
70
128
10
0.000000
20
0.000000
30
0.000000
71
11
72
63
73
10
0
VERTEX
8
0
6
CONTINUOUS
62
252
70
128
10
0.000000
20
0.000000
30
0.000000
71
10
72
63
73
64
0
VERTEX
8
0
6
CONTINUOUS
62
252
70
128
10
0.000000
20
0.000000
30
0.000000
71
10
72
64
73
65
0
VERTEX
8
0
6
CONTINUOUS
62
252
70
128
10
0.000000
20
0.000000
30
0.000000
71
37
72
2
73
72
0
VERTEX
8
0
6
CONTINUOUS
62
252
70
128
10
0.000000
20
0.000000
30
0.000000
71
72
72
2
73
3
0
VERTEX
8
0
6
CONTINUOUS
62
252
70
128
10
0.000000
20
0.000000
30
0.000000
71
72
72
3
73
71
0
VERTEX
8
0
6
CONTINUOUS
62
252
70
128
10
0.000000
20
0.000000
30
0.000000
71
71
72
3
73
4
0
VERTEX
8
0
6
CONTINUOUS
62
252
70
128
10
0.000000
20
0.000000
30
0.000000
71
71
72
4
73
70
0
VERTEX
8
0
6
CONTINUOUS
62
252
70
128
10
0.000000
20
0.000000
30
0.000000
71
70
72
4
73
5
0
VERTEX
8
0
6
CONTINUOUS
62
252
70
128
10
0.000000
20
0.000000
30
0.000000
71
70
72
5
73
69
0
VERTEX
8
0
6
CONTINUOUS
62
252
70
128
10
0.000000
20
0.000000
30
0.000000
71
69
72
5
73
6
0
VERTEX
8
0
6
CONTINUOUS
62
252
70
128
10
0.000000
20
0.000000
30
0.000000
71
69
72
6
73
68
0
VERTEX
8
0
6
CONTINUOUS
62
252
70
128
10
0.000000
20
0.000000
30
0.000000
71
68
72
6
73
7
0
VERTEX
8
0
6
CONTINUOUS
62
252
70
128
10
0.000000
20
0.000000
30
0.000000
71
68
72
7
73
67
0
VERTEX
8
0
6
CONTINUOUS
62
252
70
128
10
0.000000
20
0.000000
30
0.000000
71
67
72
7
73
8
0
VERTEX
8
0
6
CONTINUOUS
62
252
70
128
10
0.000000
20
0.000000
30
0.000000
71
67
72
8
73
66
0
VERTEX
8
0
6
CONTINUOUS
62
252
70
128
10
0.000000
20
0.000000
30
0.000000
71
66
72
8
73
9
0
VERTEX
8
0
6
CONTINUOUS
62
252
70
128
10
0.000000
20
0.000000
30
0.000000
71
66
72
9
73
65
0
VERTEX
8
0
6
CONTINUOUS
62
252
70
128
10
0.000000
20
0.000000
30
0.000000
71
65
72
9
73
10
0
SEQEND
0
POLYLINE
66
1
8
0
6
CONTINUOUS
62
252
70
64
75
0
10
0.000000
20
0.000000
30
0.000000
0
VERTEX
8
0
6
CONTINUOUS
62
252
70
192
10
2.250000
20
0.000000
30
0.000000
0
VERTEX
8
0
6
CONTINUOUS
62
252
70
192
10
2.215817
20
-0.000000
30
-0.390708
0
VERTEX
8
0
6
CONTINUOUS
62
252
70
192
10
2.114308
20
-0.000000
30
-0.769545
0
VERTEX
8
0
6
CONTINUOUS
62
252
70
192
10
1.948557
20
-0.000000
30
-1.125000
0
VERTEX
8
0
6
CONTINUOUS
62
252
70
192
10
1.723600
20
-0.000000
30
-1.446272
0
VERTEX
8
0
6
CONTINUOUS
62
252
70
192
10
1.446272
20
-0.000000
30
-1.723600
0
VERTEX
8
0
6
CONTINUOUS
62
252
70
192
10
1.125000
20
-0.000000
30
-1.948557
0
VERTEX
8
0
6
CONTINUOUS
62
252
70
192
10
0.769545
20
-0.000000
30
-2.114308
0
VERTEX
8
0
6
CONTINUOUS
62
252
70
192
10
0.390708
20
-0.000000
30
-2.215817
0
VERTEX
8
0
6
CONTINUOUS
62
252
70
192
10
-0.000000
20
-0.000000
30
-2.250000
0
VERTEX
8
0
6
CONTINUOUS
62
252
70
192
10
-0.390708
20
-0.000000
30
-2.215817
0
VERTEX
8
0
6
CONTINUOUS
62
252
70
192
10
-0.769545
20
-0.000000
30
-2.114308
0
VERTEX
8
0
6
CONTINUOUS
62
252
70
192
10
-1.125000
20
-0.000000
30
-1.948557
0
VERTEX
8
0
6
CONTINUOUS
62
252
70
192
10
-1.446272
20
-0.000000
30
-1.723600
0
VERTEX
8
0
6
CONTINUOUS
62
252
70
192
10
-1.723600
20
-0.000000
30
-1.446272
0
VERTEX
8
0
6
CONTINUOUS
62
252
70
192
10
-1.948557
20
-0.000000
30
-1.125000
0
VERTEX
8
0
6
CONTINUOUS
62
252
70
192
10
-2.114308
20
-0.000000
30
-0.769545
0
VERTEX
8
0
6
CONTINUOUS
62
252
70
192
10
-2.215817
20
-0.000000
30
-0.390708
0
VERTEX
8
0
6
CONTINUOUS
62
252
70
192
10
-2.250000
20
0.000000
30
0.000000
0
VERTEX
8
0
6
CONTINUOUS
62
252
70
192
10
-2.215817
20
0.000000
30
0.390708
0
VERTEX
8
0
6
CONTINUOUS
62
252
70
192
10
-2.114308
20
0.000000
30
0.769545
0
VERTEX
8
0
6
CONTINUOUS
62
252
70
192
10
-1.948557
20
0.000000
30
1.125000
0
VERTEX
8
0
6
CONTINUOUS
62
252
70
192
10
-1.723600
20
0.000000
30
1.446272
0
VERTEX
8
0
6
CONTINUOUS
62
252
70
192
10
-1.446272
20
0.000000
30
1.723600
0
VERTEX
8
0
6
CONTINUOUS
62
252
70
192
10
-1.125000
20
0.000000
30
1.948557
0
VERTEX
8
0
6
CONTINUOUS
62
252
70
192
10
-0.769545
20
0.000000
30
2.114308
0
VERTEX
8
0
6
CONTINUOUS
62
252
70
192
10
-0.390708
20
0.000000
30
2.215817
0
VERTEX
8
0
6
CONTINUOUS
62
252
70
192
10
0.000000
20
0.000000
30
2.250000
0
VERTEX
8
0
6
CONTINUOUS
62
252
70
192
10
0.390708
20
0.000000
30
2.215817
0
VERTEX
8
0
6
CONTINUOUS
62
252
70
192
10
0.769545
20
0.000000
30
2.114308
0
VERTEX
8
0
6
CONTINUOUS
62
252
70
192
10
1.125000
20
0.000000
30
1.948557
0
VERTEX
8
0
6
CONTINUOUS
62
252
70
192
10
1.446272
20
0.000000
30
1.723600
0
VERTEX
8
0
6
CONTINUOUS
62
252
70
192
10
1.723600
20
0.000000
30
1.446272
0
VERTEX
8
0
6
CONTINUOUS
62
252
70
192
10
1.948557
20
0.000000
30
1.125000
0
VERTEX
8
0
6
CONTINUOUS
62
252
70
192
10
2.114308
20
0.000000
30
0.769545
0
VERTEX
8
0
6
CONTINUOUS
62
252
70
192
10
2.215817
20
0.000000
30
0.390708
0
VERTEX
8
0
6
CONTINUOUS
62
252
70
192
10
2.250000
20
-30.000000
30
0.000000
0
VERTEX
8
0
6
CONTINUOUS
62
252
70
192
10
2.215817
20
-30.000000
30
0.390708
0
VERTEX
8
0
6
CONTINUOUS
62
252
70
192
10
2.114308
20
-30.000000
30
0.769545
0
VERTEX
8
0
6
CONTINUOUS
62
252
70
192
10
1.948557
20
-30.000000
30
1.125000
0
VERTEX
8
0
6
CONTINUOUS
62
252
70
192
10
1.723600
20
-30.000000
30
1.446272
0
VERTEX
8
0
6
CONTINUOUS
62
252
70
192
10
1.446272
20
-30.000000
30
1.723600
0
VERTEX
8
0
6
CONTINUOUS
62
252
70
192
10
1.125000
20
-30.000000
30
1.948557
0
VERTEX
8
0
6
CONTINUOUS
62
252
70
192
10
0.769545
20
-30.000000
30
2.114308
0
VERTEX
8
0
6
CONTINUOUS
62
252
70
192
10
0.390708
20
-30.000000
30
2.215817
0
VERTEX
8
0
6
CONTINUOUS
62
252
70
192
10
-0.000000
20
-30.000000
30
2.250000
0
VERTEX
8
0
6
CONTINUOUS
62
252
70
192
10
-0.390708
20
-30.000000
30
2.215817
0
VERTEX
8
0
6
CONTINUOUS
62
252
70
192
10
-0.769545
20
-30.000000
30
2.114308
0
VERTEX
8
0
6
CONTINUOUS
62
252
70
192
10
-1.125000
20
-30.000000
30
1.948557
0
VERTEX
8
0
6
CONTINUOUS
62
252
70
192
10
-1.446272
20
-30.000000
30
1.723600
0
VERTEX
8
0
6
CONTINUOUS
62
252
70
192
10
-1.723600
20
-30.000000
30
1.446272
0
VERTEX
8
0
6
CONTINUOUS
62
252
70
192
10
-1.948557
20
-30.000000
30
1.125000
0
VERTEX
8
0
6
CONTINUOUS
62
252
70
192
10
-2.114308
20
-30.000000
30
0.769545
0
VERTEX
8
0
6
CONTINUOUS
62
252
70
192
10
-2.215817
20
-30.000000
30
0.390708
0
VERTEX
8
0
6
CONTINUOUS
62
252
70
192
10
-2.250000
20
-30.000000
30
-0.000000
0
VERTEX
8
0
6
CONTINUOUS
62
252
70
192
10
-2.215817
20
-30.000000
30
-0.390708
0
VERTEX
8
0
6
CONTINUOUS
62
252
70
192
10
-2.114308
20
-30.000000
30
-0.769545
0
VERTEX
8
0
6
CONTINUOUS
62
252
70
192
10
-1.948557
20
-30.000000
30
-1.125000
0
VERTEX
8
0
6
CONTINUOUS
62
252
70
192
10
-1.723600
20
-30.000000
30
-1.446272
0
VERTEX
8
0
6
CONTINUOUS
62
252
70
192
10
-1.446272
20
-30.000000
30
-1.723600
0
VERTEX
8
0
6
CONTINUOUS
62
252
70
192
10
-1.125000
20
-30.000000
30
-1.948557
0
VERTEX
8
0
6
CONTINUOUS
62
252
70
192
10
-0.769545
20
-30.000000
30
-2.114308
0
VERTEX
8
0
6
CONTINUOUS
62
252
70
192
10
-0.390708
20
-30.000000
30
-2.215817
0
VERTEX
8
0
6
CONTINUOUS
62
252
70
192
10
0.000000
20
-30.000000
30
-2.250000
0
VERTEX
8
0
6
CONTINUOUS
62
252
70
192
10
0.390708
20
-30.000000
30
-2.215817
0
VERTEX
8
0
6
CONTINUOUS
62
252
70
192
10
0.769545
20
-30.000000
30
-2.114308
0
VERTEX
8
0
6
CONTINUOUS
62
252
70
192
10
1.125000
20
-30.000000
30
-1.948557
0
VERTEX
8
0
6
CONTINUOUS
62
252
70
192
10
1.446272
20
-30.000000
30
-1.723600
0
VERTEX
8
0
6
CONTINUOUS
62
252
70
192
10
1.723600
20
-30.000000
30
-1.446272
0
VERTEX
8
0
6
CONTINUOUS
62
252
70
192
10
1.948557
20
-30.000000
30
-1.125000
0
VERTEX
8
0
6
CONTINUOUS
62
252
70
192
10
2.114308
20
-30.000000
30
-0.769545
0
VERTEX
8
0
6
CONTINUOUS
62
252
70
192
10
2.215817
20
-30.000000
30
-0.390708
0
VERTEX
8
0
6
CONTINUOUS
62
252
70
128
10
0.000000
20
0.000000
30
0.000000
71
2
72
72
73
1
0
VERTEX
8
0
6
CONTINUOUS
62
252
70
128
10
0.000000
20
0.000000
30
0.000000
71
1
72
72
73
37
0
VERTEX
8
0
6
CONTINUOUS
62
252
70
128
10
0.000000
20
0.000000
30
0.000000
71
1
72
37
73
36
0
VERTEX
8
0
6
CONTINUOUS
62
252
70
128
10
0.000000
20
0.000000
30
0.000000
71
36
72
37
73
38
0
VERTEX
8
0
6
CONTINUOUS
62
252
70
128
10
0.000000
20
0.000000
30
0.000000
71
36
72
38
73
35
0
VERTEX
8
0
6
CONTINUOUS
62
252
70
128
10
0.000000
20
0.000000
30
0.000000
71
35
72
38
73
39
0
VERTEX
8
0
6
CONTINUOUS
62
252
70
128
10
0.000000
20
0.000000
30
0.000000
71
35
72
39
73
34
0
VERTEX
8
0
6
CONTINUOUS
62
252
70
128
10
0.000000
20
0.000000
30
0.000000
71
34
72
39
73
40
0
VERTEX
8
0
6
CONTINUOUS
62
252
70
128
10
0.000000
20
0.000000
30
0.000000
71
34
72
40
73
33
0
VERTEX
8
0
6
CONTINUOUS
62
252
70
128
10
0.000000
20
0.000000
30
0.000000
71
33
72
40
73
41
0
VERTEX
8
0
6
CONTINUOUS
62
252
70
128
10
0.000000
20
0.000000
30
0.000000
71
33
72
41
73
32
0
VERTEX
8
0
6
CONTINUOUS
62
252
70
128
10
0.000000
20
0.000000
30
0.000000
71
32
72
41
73
42
0
VERTEX
8
0
6
CONTINUOUS
62
252
70
128
10
0.000000
20
0.000000
30
0.000000
71
32
72
42
73
31
0
VERTEX
8
0
6
CONTINUOUS
62
252
70
128
10
0.000000
20
0.000000
30
0.000000
71
31
72
42
73
43
0
VERTEX
8
0
6
CONTINUOUS
62
252
70
128
10
0.000000
20
0.000000
30
0.000000
71
31
72
43
73
30
0
VERTEX
8
0
6
CONTINUOUS
62
252
70
128
10
0.000000
20
0.000000
30
0.000000
71
30
72
43
73
44
0
VERTEX
8
0
6
CONTINUOUS
62
252
70
128
10
0.000000
20
0.000000
30
0.000000
71
30
72
44
73
29
0
VERTEX
8
0
6
CONTINUOUS
62
252
70
128
10
0.000000
20
0.000000
30
0.000000
71
29
72
44
73
45
0
VERTEX
8
0
6
CONTINUOUS
62
252
70
128
10
0.000000
20
0.000000
30
0.000000
71
29
72
45
73
28
0
VERTEX
8
0
6
CONTINUOUS
62
252
70
128
10
0.000000
20
0.000000
30
0.000000
71
28
72
45
73
46
0
VERTEX
8
0
6
CONTINUOUS
62
252
70
128
10
0.000000
20
0.000000
30
0.000000
71
28
72
46
73
27
0
VERTEX
8
0
6
CONTINUOUS
62
252
70
128
10
0.000000
20
0.000000
30
0.000000
71
27
72
46
73
47
0
VERTEX
8
0
6
CONTINUOUS
62
252
70
128
10
0.000000
20
0.000000
30
0.000000
71
27
72
47
73
26
0
VERTEX
8
0
6
CONTINUOUS
62
252
70
128
10
0.000000
20
0.000000
30
0.000000
71
26
72
47
73
48
0
VERTEX
8
0
6
CONTINUOUS
62
252
70
128
10
0.000000
20
0.000000
30
0.000000
71
26
72
48
73
25
0
VERTEX
8
0
6
CONTINUOUS
62
252
70
128
10
0.000000
20
0.000000
30
0.000000
71
25
72
48
73
49
0
VERTEX
8
0
6
CONTINUOUS
62
252
70
128
10
0.000000
20
0.000000
30
0.000000
71
25
72
49
73
24
0
VERTEX
8
0
6
CONTINUOUS
62
252
70
128
10
0.000000
20
0.000000
30
0.000000
71
24
72
49
73
50
0
VERTEX
8
0
6
CONTINUOUS
62
252
70
128
10
0.000000
20
0.000000
30
0.000000
71
24
72
50
73
23
0
VERTEX
8
0
6
CONTINUOUS
62
252
70
128
10
0.000000
20
0.000000
30
0.000000
71
23
72
50
73
51
0
VERTEX
8
0
6
CONTINUOUS
62
252
70
128
10
0.000000
20
0.000000
30
0.000000
71
23
72
51
73
22
0
VERTEX
8
0
6
CONTINUOUS
62
252
70
128
10
0.000000
20
0.000000
30
0.000000
71
22
72
51
73
52
0
VERTEX
8
0
6
CONTINUOUS
62
252
70
128
10
0.000000
20
0.000000
30
0.000000
71
22
72
52
73
21
0
VERTEX
8
0
6
CONTINUOUS
62
252
70
128
10
0.000000
20
0.000000
30
0.000000
71
21
72
52
73
53
0
VERTEX
8
0
6
CONTINUOUS
62
252
70
128
10
0.000000
20
0.000000
30
0.000000
71
21
72
53
73
20
0
VERTEX
8
0
6
CONTINUOUS
62
252
70
128
10
0.000000
20
0.000000
30
0.000000
71
20
72
53
73
54
0
VERTEX
8
0
6
CONTINUOUS
62
252
70
128
10
0.000000
20
0.000000
30
0.000000
71
20
72
54
73
19
0
VERTEX
8
0
6
CONTINUOUS
62
252
70
128
10
0.000000
20
0.000000
30
0.000000
71
19
72
54
73
55
0
VERTEX
8
0
6
CONTINUOUS
62
252
70
128
10
0.000000
20
0.000000
30
0.000000
71
19
72
55
73
18
0
VERTEX
8
0
6
CONTINUOUS
62
252
70
128
10
0.000000
20
0.000000
30
0.000000
71
18
72
55
73
56
0
VERTEX
8
0
6
CONTINUOUS
62
252
70
128
10
0.000000
20
0.000000
30
0.000000
71
18
72
56
73
17
0
VERTEX
8
0
6
CONTINUOUS
62
252
70
128
10
0.000000
20
0.000000
30
0.000000
71
17
72
56
73
57
0
VERTEX
8
0
6
CONTINUOUS
62
252
70
128
10
0.000000
20
0.000000
30
0.000000
71
17
72
57
73
16
0
VERTEX
8
0
6
CONTINUOUS
62
252
70
128
10
0.000000
20
0.000000
30
0.000000
71
16
72
57
73
58
0
VERTEX
8
0
6
CONTINUOUS
62
252
70
128
10
0.000000
20
0.000000
30
0.000000
71
16
72
58
73
15
0
VERTEX
8
0
6
CONTINUOUS
62
252
70
128
10
0.000000
20
0.000000
30
0.000000
71
15
72
58
73
59
0
VERTEX
8
0
6
CONTINUOUS
62
252
70
128
10
0.000000
20
0.000000
30
0.000000
71
15
72
59
73
14
0
VERTEX
8
0
6
CONTINUOUS
62
252
70
128
10
0.000000
20
0.000000
30
0.000000
71
14
72
59
73
60
0
VERTEX
8
0
6
CONTINUOUS
62
252
70
128
10
0.000000
20
0.000000
30
0.000000
71
14
72
60
73
13
0
VERTEX
8
0
6
CONTINUOUS
62
252
70
128
10
0.000000
20
0.000000
30
0.000000
71
13
72
60
73
61
0
VERTEX
8
0
6
CONTINUOUS
62
252
70
128
10
0.000000
20
0.000000
30
0.000000
71
13
72
61
73
12
0
VERTEX
8
0
6
CONTINUOUS
62
252
70
128
10
0.000000
20
0.000000
30
0.000000
71
12
72
61
73
62
0
VERTEX
8
0
6
CONTINUOUS
62
252
70
128
10
0.000000
20
0.000000
30
0.000000
71
12
72
62
73
11
0
VERTEX
8
0
6
CONTINUOUS
62
252
70
128
10
0.000000
20
0.000000
30
0.000000
71
11
72
62
73
63
0
VERTEX
8
0
6
CONTINUOUS
62
252
70
128
10
0.000000
20
0.000000
30
0.000000
71
11
72
63
73
10
0
VERTEX
8
0
6
CONTINUOUS
62
252
70
128
10
0.000000
20
0.000000
30
0.000000
71
10
72
63
73
64
0
VERTEX
8
0
6
CONTINUOUS
62
252
70
128
10
0.000000
20
0.000000
30
0.000000
71
10
72
64
73
9
0
VERTEX
8
0
6
CONTINUOUS
62
252
70
128
10
0.000000
20
0.000000
30
0.000000
71
9
72
64
73
65
0
VERTEX
8
0
6
CONTINUOUS
62
252
70
128
10
0.000000
20
0.000000
30
0.000000
71
9
72
65
73
8
0
VERTEX
8
0
6
CONTINUOUS
62
252
70
128
10
0.000000
20
0.000000
30
0.000000
71
8
72
65
73
66
0
VERTEX
8
0
6
CONTINUOUS
62
252
70
128
10
0.000000
20
0.000000
30
0.000000
71
8
72
66
73
7
0
VERTEX
8
0
6
CONTINUOUS
62
252
70
128
10
0.000000
20
0.000000
30
0.000000
71
7
72
66
73
67
0
VERTEX
8
0
6
CONTINUOUS
62
252
70
128
10
0.000000
20
0.000000
30
0.000000
71
7
72
67
73
6
0
VERTEX
8
0
6
CONTINUOUS
62
252
70
128
10
0.000000
20
0.000000
30
0.000000
71
6
72
67
73
68
0
VERTEX
8
0
6
CONTINUOUS
62
252
70
128
10
0.000000
20
0.000000
30
0.000000
71
6
72
68
73
5
0
VERTEX
8
0
6
CONTINUOUS
62
252
70
128
10
0.000000
20
0.000000
30
0.000000
71
5
72
68
73
69
0
VERTEX
8
0
6
CONTINUOUS
62
252
70
128
10
0.000000
20
0.000000
30
0.000000
71
5
72
69
73
4
0
VERTEX
8
0
6
CONTINUOUS
62
252
70
128
10
0.000000
20
0.000000
30
0.000000
71
4
72
69
73
70
0
VERTEX
8
0
6
CONTINUOUS
62
252
70
128
10
0.000000
20
0.000000
30
0.000000
71
4
72
70
73
3
0
VERTEX
8
0
6
CONTINUOUS
62
252
70
128
10
0.000000
20
0.000000
30
0.000000
71
3
72
70
73
71
0
VERTEX
8
0
6
CONTINUOUS
62
252
70
128
10
0.000000
20
0.000000
30
0.000000
71
3
72
71
73
2
0
VERTEX
8
0
6
CONTINUOUS
62
252
70
128
10
0.000000
20
0.000000
30
0.000000
71
2
72
71
73
72
0
SEQEND
0
POLYLINE
66
1
8
0
6
CONTINUOUS
62
252
70
64
75
0
10
0.000000
20
0.000000
30
0.000000
0
VERTEX
8
0
6
CONTINUOUS
62
252
70
192
10
3.071556
20
-30.000000
30
-2.151289
0
VERTEX
8
0
6
CONTINUOUS
62
252
70
192
10
2.659064
20
-30.000000
30
-2.856612
0
VERTEX
8
0
6
CONTINUOUS
62
252
70
192
10
2.366956
20
-30.000000
30
-3.619699
0
VERTEX
8
0
6
CONTINUOUS
62
252
70
192
10
2.203034
20
-30.000000
30
-4.420173
0
VERTEX
8
0
6
CONTINUOUS
62
252
70
192
10
2.171674
20
-30.000000
30
-5.236657
0
VERTEX
8
0
6
CONTINUOUS
62
252
70
192
10
2.273714
20
-30.000000
30
-6.047347
0
VERTEX
8
0
6
CONTINUOUS
62
252
70
192
10
2.506429
20
-30.000000
30
-6.830592
0
VERTEX
8
0
6
CONTINUOUS
62
252
70
192
10
2.863604
20
-30.000000
30
-7.565476
0
VERTEX
8
0
6
CONTINUOUS
62
252
70
192
10
3.335702
20
-30.000000
30
-8.232375
0
VERTEX
8
0
6
CONTINUOUS
62
252
70
192
10
3.335702
20
-0.000000
30
-8.232375
0
VERTEX
8
0
6
CONTINUOUS
62
252
70
192
10
2.863604
20
-0.000000
30
-7.565476
0
VERTEX
8
0
6
CONTINUOUS
62
252
70
192
10
2.506429
20
-0.000000
30
-6.830592
0
VERTEX
8
0
6
CONTINUOUS
62
252
70
192
10
2.273714
20
-0.000000
30
-6.047347
0
VERTEX
8
0
6
CONTINUOUS
62
252
70
192
10
2.171674
20
-0.000000
30
-5.236657
0
VERTEX
8
0
6
CONTINUOUS
62
252
70
192
10
2.203034
20
-0.000000
30
-4.420173
0
VERTEX
8
0
6
CONTINUOUS
62
252
70
192
10
2.366956
20
-0.000000
30
-3.619699
0
VERTEX
8
0
6
CONTINUOUS
62
252
70
192
10
2.659064
20
-0.000000
30
-2.856612
0
VERTEX
8
0
6
CONTINUOUS
62
252
70
192
10
3.071556
20
-0.000000
30
-2.151289
0
VERTEX
8
0
6
CONTINUOUS
62
252
70
128
10
0.000000
20
0.000000
30
0.000000
71
1
72
2
73
18
0
VERTEX
8
0
6
CONTINUOUS
62
252
70
128
10
0.000000
20
0.000000
30
0.000000
71
18
72
2
73
17
0
VERTEX
8
0
6
CONTINUOUS
62
252
70
128
10
0.000000
20
0.000000
30
0.000000
71
17
72
2
73
16
0
VERTEX
8
0
6
CONTINUOUS
62
252
70
128
10
0.000000
20
0.000000
30
0.000000
71
16
72
2
73
3
0
VERTEX
8
0
6
CONTINUOUS
62
252
70
128
10
0.000000
20
0.000000
30
0.000000
71
16
72
3
73
15
0
VERTEX
8
0
6
CONTINUOUS
62
252
70
128
10
0.000000
20
0.000000
30
0.000000
71
15
72
3
73
4
0
VERTEX
8
0
6
CONTINUOUS
62
252
70
128
10
0.000000
20
0.000000
30
0.000000
71
15
72
4
73
14
0
VERTEX
8
0
6
CONTINUOUS
62
252
70
128
10
0.000000
20
0.000000
30
0.000000
71
14
72
4
73
5
0
VERTEX
8
0
6
CONTINUOUS
62
252
70
128
10
0.000000
20
0.000000
30
0.000000
71
14
72
5
73
13
0
VERTEX
8
0
6
CONTINUOUS
62
252
70
128
10
0.000000
20
0.000000
30
0.000000
71
13
72
5
73
6
0
VERTEX
8
0
6
CONTINUOUS
62
252
70
128
10
0.000000
20
0.000000
30
0.000000
71
13
72
6
73
7
0
VERTEX
8
0
6
CONTINUOUS
62
252
70
128
10
0.000000
20
0.000000
30
0.000000
71
8
72
11
73
7
0
VERTEX
8
0
6
CONTINUOUS
62
252
70
128
10
0.000000
20
0.000000
30
0.000000
71
7
72
11
73
12
0
VERTEX
8
0
6
CONTINUOUS
62
252
70
128
10
0.000000
20
0.000000
30
0.000000
71
7
72
12
73
13
0
VERTEX
8
0
6
CONTINUOUS
62
252
70
128
10
0.000000
20
0.000000
30
0.000000
71
9
72
10
73
8
0
VERTEX
8
0
6
CONTINUOUS
62
252
70
128
10
0.000000
20
0.000000
30
0.000000
71
8
72
10
73
11
0
SEQEND
0
POLYLINE
66
1
8
0
6
CONTINUOUS
62
252
70
64
75
0
10
0.000000
20
0.000000
30
0.000000
0
VERTEX
8
0
6
CONTINUOUS
62
252
70
192
10
3.335702
20
-30.000000
30
-8.232375
0
VERTEX
8
0
6
CONTINUOUS
62
252
70
192
10
6.193232
20
-30.000000
30
-12.174839
0
VERTEX
8
0
6
CONTINUOUS
62
252
70
192
10
8.467273
20
-30.000000
30
-16.480329
0
VERTEX
8
0
6
CONTINUOUS
62
252
70
192
10
10.112527
20
-30.000000
30
-21.063084
0
VERTEX
8
0
6
CONTINUOUS
62
252
70
192
10
11.096224
20
-30.000000
30
-25.831820
0
VERTEX
8
0
6
CONTINUOUS
62
252
70
192
10
11.398768
20
-30.000000
30
-30.691550
0
VERTEX
8
0
6
CONTINUOUS
62
252
70
192
10
11.398768
20
-0.000000
30
-30.691550
0
VERTEX
8
0
6
CONTINUOUS
62
252
70
192
10
11.096224
20
-0.000000
30
-25.831820
0
VERTEX
8
0
6
CONTINUOUS
62
252
70
192
10
10.112527
20
-0.000000
30
-21.063084
0
VERTEX
8
0
6
CONTINUOUS
62
252
70
192
10
8.467273
20
-0.000000
30
-16.480329
0
VERTEX
8
0
6
CONTINUOUS
62
252
70
192
10
6.193232
20
-0.000000
30
-12.174839
0
VERTEX
8
0
6
CONTINUOUS
62
252
70
192
10
3.335702
20
-0.000000
30
-8.232375
0
VERTEX
8
0
6
CONTINUOUS
62
252
70
128
10
0.000000
20
0.000000
30
0.000000
71
12
72
1
73
11
0
VERTEX
8
0
6
CONTINUOUS
62
252
70
128
10
0.000000
20
0.000000
30
0.000000
71
11
72
1
73
2
0
VERTEX
8
0
6
CONTINUOUS
62
252
70
128
10
0.000000
20
0.000000
30
0.000000
71
11
72
2
73
10
0
VERTEX
8
0
6
CONTINUOUS
62
252
70
128
10
0.000000
20
0.000000
30
0.000000
71
10
72
2
73
3
0
VERTEX
8
0
6
CONTINUOUS
62
252
70
128
10
0.000000
20
0.000000
30
0.000000
71
10
72
3
73
9
0
VERTEX
8
0
6
CONTINUOUS
62
252
70
128
10
0.000000
20
0.000000
30
0.000000
71
9
72
3
73
4
0
VERTEX
8
0
6
CONTINUOUS
62
252
70
128
10
0.000000
20
0.000000
30
0.000000
71
9
72
4
73
8
0
VERTEX
8
0
6
CONTINUOUS
62
252
70
128
10
0.000000
20
0.000000
30
0.000000
71
8
72
4
73
5
0
VERTEX
8
0
6
CONTINUOUS
62
252
70
128
10
0.000000
20
0.000000
30
0.000000
71
8
72
5
73
7
0
VERTEX
8
0
6
CONTINUOUS
62
252
70
128
10
0.000000
20
0.000000
30
0.000000
71
7
72
5
73
6
0
SEQEND
0
POLYLINE
66
1
8
0
6
CONTINUOUS
62
252
70
64
75
0
10
0.000000
20
0.000000
30
0.000000
0
VERTEX
8
0
6
CONTINUOUS
62
252
70
192
10
11.398768
20
-30.000000
30
-30.691550
0
VERTEX
8
0
6
CONTINUOUS
62
252
70
192
10
11.409883
20
-30.000000
30
-30.848918
0
VERTEX
8
0
6
CONTINUOUS
62
252
70
192
10
11.445608
20
-30.000000
30
-31.002581
0
VERTEX
8
0
6
CONTINUOUS
62
252
70
192
10
11.505056
20
-30.000000
30
-31.148712
0
VERTEX
8
0
6
CONTINUOUS
62
252
70
192
10
11.586745
20
-30.000000
30
-31.283676
0
VERTEX
8
0
6
CONTINUOUS
62
252
70
192
10
11.688644
20
-30.000000
30
-31.404113
0
VERTEX
8
0
6
CONTINUOUS
62
252
70
192
10
11.808215
20
-30.000000
30
-31.507026
0
VERTEX
8
0
6
CONTINUOUS
62
252
70
192
10
11.942484
20
-30.000000
30
-31.589853
0
VERTEX
8
0
6
CONTINUOUS
62
252
70
192
10
12.088108
20
-30.000000
30
-31.650533
0
VERTEX
8
0
6
CONTINUOUS
62
252
70
192
10
12.241463
20
-30.000000
30
-31.687556
0
VERTEX
8
0
6
CONTINUOUS
62
252
70
192
10
12.398732
20
-30.000000
30
-31.700001
0
VERTEX
8
0
6
CONTINUOUS
62
252
70
192
10
12.398732
20
-0.000000
30
-31.700001
0
VERTEX
8
0
6
CONTINUOUS
62
252
70
192
10
12.241463
20
-0.000000
30
-31.687556
0
VERTEX
8
0
6
CONTINUOUS
62
252
70
192
10
12.088108
20
-0.000000
30
-31.650533
0
VERTEX
8
0
6
CONTINUOUS
62
252
70
192
10
11.942484
20
-0.000000
30
-31.589853
0
VERTEX
8
0
6
CONTINUOUS
62
252
70
192
10
11.808215
20
-0.000000
30
-31.507026
0
VERTEX
8
0
6
CONTINUOUS
62
252
70
192
10
11.688644
20
-0.000000
30
-31.404113
0
VERTEX
8
0
6
CONTINUOUS
62
252
70
192
10
11.586745
20
-0.000000
30
-31.283676
0
VERTEX
8
0
6
CONTINUOUS
62
252
70
192
10
11.505056
20
-0.000000
30
-31.148712
0
VERTEX
8
0
6
CONTINUOUS
62
252
70
192
10
11.445608
20
-0.000000
30
-31.002581
0
VERTEX
8
0
6
CONTINUOUS
62
252
70
192
10
11.409883
20
-0.000000
30
-30.848918
0
VERTEX
8
0
6
CONTINUOUS
62
252
70
192
10
11.398768
20
-0.000000
30
-30.691550
0
VERTEX
8
0
6
CONTINUOUS
62
252
70
128
10
0.000000
20
0.000000
30
0.000000
71
1
72
2
73
22
0
VERTEX
8
0
6
CONTINUOUS
62
252
70
128
10
0.000000
20
0.000000
30
0.000000
71
22
72
2
73
21
0
VERTEX
8
0
6
CONTINUOUS
62
252
70
128
10
0.000000
20
0.000000
30
0.000000
71
21
72
2
73
3
0
VERTEX
8
0
6
CONTINUOUS
62
252
70
128
10
0.000000
20
0.000000
30
0.000000
71
21
72
3
73
20
0
VERTEX
8
0
6
CONTINUOUS
62
252
70
128
10
0.000000
20
0.000000
30
0.000000
71
20
72
3
73
4
0
VERTEX
8
0
6
CONTINUOUS
62
252
70
128
10
0.000000
20
0.000000
30
0.000000
71
20
72
4
73
19
0
VERTEX
8
0
6
CONTINUOUS
62
252
70
128
10
0.000000
20
0.000000
30
0.000000
71
19
72
4
73
5
0
VERTEX
8
0
6
CONTINUOUS
62
252
70
128
10
0.000000
20
0.000000
30
0.000000
71
19
72
5
73
18
0
VERTEX
8
0
6
CONTINUOUS
62
252
70
128
10
0.000000
20
0.000000
30
0.000000
71
18
72
5
73
6
0
VERTEX
8
0
6
CONTINUOUS
62
252
70
128
10
0.000000
20
0.000000
30
0.000000
71
18
72
6
73
17
0
VERTEX
8
0
6
CONTINUOUS
62
252
70
128
10
0.000000
20
0.000000
30
0.000000
71
17
72
6
73
7
0
VERTEX
8
0
6
CONTINUOUS
62
252
70
128
10
0.000000
20
0.000000
30
0.000000
71
17
72
7
73
16
0
VERTEX
8
0
6
CONTINUOUS
62
252
70
128
10
0.000000
20
0.000000
30
0.000000
71
16
72
7
73
15
0
VERTEX
8
0
6
CONTINUOUS
62
252
70
128
10
0.000000
20
0.000000
30
0.000000
71
15
72
7
73
8
0
VERTEX
8
0
6
CONTINUOUS
62
252
70
128
10
0.000000
20
0.000000
30
0.000000
71
15
72
8
73
9
0
VERTEX
8
0
6
CONTINUOUS
62
252
70
128
10
0.000000
20
0.000000
30
0.000000
71
15
72
9
73
14
0
VERTEX
8
0
6
CONTINUOUS
62
252
70
128
10
0.000000
20
0.000000
30
0.000000
71
14
72
9
73
10
0
VERTEX
8
0
6
CONTINUOUS
62
252
70
128
10
0.000000
20
0.000000
30
0.000000
71
14
72
10
73
13
0
VERTEX
8
0
6
CONTINUOUS
62
252
70
128
10
0.000000
20
0.000000
30
0.000000
71
13
72
10
73
11
0
VERTEX
8
0
6
CONTINUOUS
62
252
70
128
10
0.000000
20
0.000000
30
0.000000
71
13
72
11
73
12
0
SEQEND
0
POLYLINE
66
1
8
0
6
CONTINUOUS
62
252
70
64
75
0
10
0.000000
20
0.000000
30
0.000000
0
VERTEX
8
0
6
CONTINUOUS
62
252
70
192
10
12.398732
20
-30.000000
30
-31.700001
0
VERTEX
8
0
6
CONTINUOUS
62
252
70
192
10
16.500000
20
-30.000000
30
-31.700001
0
VERTEX
8
0
6
CONTINUOUS
62
252
70
192
10
16.500000
20
-0.000000
30
-31.700001
0
VERTEX
8
0
6
CONTINUOUS
62
252
70
192
10
12.398732
20
-0.000000
30
-31.700001
0
VERTEX
8
0
6
CONTINUOUS
62
252
70
128
10
0.000000
20
0.000000
30
0.000000
71
2
72
3
73
1
0
VERTEX
8
0
6
CONTINUOUS
62
252
70
128
10
0.000000
20
0.000000
30
0.000000
71
1
72
3
73
4
0
SEQEND
0
POLYLINE
66
1
8
0
6
CONTINUOUS
62
252
70
64
75
0
10
0.000000
20
0.000000
30
0.000000
0
VERTEX
8
0
6
CONTINUOUS
62
252
70
192
10
16.500000
20
-28.000000
30
-69.100000
0
VERTEX
8
0
6
CONTINUOUS
62
252
70
192
10
16.500000
20
-28.000000
30
-35.100000
0
VERTEX
8
0
6
CONTINUOUS
62
252
70
192
10
16.500000
20
-27.992404
30
-35.013176
0
VERTEX
8
0
6
CONTINUOUS
62
252
70
192
10
16.500000
20
-27.969846
30
-34.928990
0
VERTEX
8
0
6
CONTINUOUS
62
252
70
192
10
16.500000
20
-27.933013
30
-34.850000
0
VERTEX
8
0
6
CONTINUOUS
62
252
70
192
10
16.500000
20
-27.883022
30
-34.778606
0
VERTEX
8
0
6
CONTINUOUS
62
252
70
192
10
16.500000
20
-27.821394
30
-34.716978
0
VERTEX
8
0
6
CONTINUOUS
62
252
70
192
10
16.500000
20
-27.750000
30
-34.666987
0
VERTEX
8
0
6
CONTINUOUS
62
252
70
192
10
16.500000
20
-27.671010
30
-34.630154
0
VERTEX
8
0
6
CONTINUOUS
62
252
70
192
10
16.500000
20
-27.586824
30
-34.607596
0
VERTEX
8
0
6
CONTINUOUS
62
252
70
192
10
16.500000
20
-27.500000
30
-34.600000
0
VERTEX
8
0
6
CONTINUOUS
62
252
70
192
10
16.500000
20
-4.500000
30
-34.600000
0
VERTEX
8
0
6
CONTINUOUS
62
252
70
192
10
16.500000
20
-4.413176
30
-34.607596
0
VERTEX
8
0
6
CONTINUOUS
62
252
70
192
10
16.500000
20
-4.328990
30
-34.630154
0
VERTEX
8
0
6
CONTINUOUS
62
252
70
192
10
16.500000
20
-4.250000
30
-34.666987
0
VERTEX
8
0
6
CONTINUOUS
62
252
70
192
10
16.500000
20
-4.178606
30
-34.716978
0
VERTEX
8
0
6
CONTINUOUS
62
252
70
192
10
16.500000
20
-4.116978
30
-34.778606
0
VERTEX
8
0
6
CONTINUOUS
62
252
70
192
10
16.500000
20
-4.066987
30
-34.850000
0
VERTEX
8
0
6
CONTINUOUS
62
252
70
192
10
16.500000
20
-4.030154
30
-34.928990
0
VERTEX
8
0
6
CONTINUOUS
62
252
70
192
10
16.500000
20
-4.007596
30
-35.013176
0
VERTEX
8
0
6
CONTINUOUS
62
252
70
192
10
16.500000
20
-4.000000
30
-35.100000
0
VERTEX
8
0
6
CONTINUOUS
62
252
70
192
10
16.500000
20
-4.000000
30
-69.100000
0
VERTEX
8
0
6
CONTINUOUS
62
252
70
192
10
16.500000
20
-4.007596
30
-69.186824
0
VERTEX
8
0
6
CONTINUOUS
62
252
70
192
10
16.500000
20
-4.030154
30
-69.271010
0
VERTEX
8
0
6
CONTINUOUS
62
252
70
192
10
16.500000
20
-4.066987
30
-69.350000
0
VERTEX
8
0
6
CONTINUOUS
62
252
70
192
10
16.500000
20
-4.116978
30
-69.421394
0
VERTEX
8
0
6
CONTINUOUS
62
252
70
192
10
16.500000
20
-4.178606
30
-69.483022
0
VERTEX
8
0
6
CONTINUOUS
62
252
70
192
10
16.500000
20
-4.250000
30
-69.533013
0
VERTEX
8
0
6
CONTINUOUS
62
252
70
192
10
16.500000
20
-4.328990
30
-69.569846
0
VERTEX
8
0
6
CONTINUOUS
62
252
70
192
10
16.500000
20
-4.413176
30
-69.592404
0
VERTEX
8
0
6
CONTINUOUS
62
252
70
192
10
16.500000
20
-4.500000
30
-69.600000
0
VERTEX
8
0
6
CONTINUOUS
62
252
70
192
10
16.500000
20
-27.500000
30
-69.600000
0
VERTEX
8
0
6
CONTINUOUS
62
252
70
192
10
16.500000
20
-27.586824
30
-69.592404
0
VERTEX
8
0
6
CONTINUOUS
62
252
70
192
10
16.500000
20
-27.671010
30
-69.569846
0
VERTEX
8
0
6
CONTINUOUS
62
252
70
192
10
16.500000
20
-27.750000
30
-69.533013
0
VERTEX
8
0
6
CONTINUOUS
62
252
70
192
10
16.500000
20
-27.821394
30
-69.483022
0
VERTEX
8
0
6
CONTINUOUS
62
252
70
192
10
16.500000
20
-27.883022
30
-69.421394
0
VERTEX
8
0
6
CONTINUOUS
62
252
70
192
10
16.500000
20
-27.933013
30
-69.350000
0
VERTEX
8
0
6
CONTINUOUS
62
252
70
192
10
16.500000
20
-27.969846
30
-69.271010
0
VERTEX
8
0
6
CONTINUOUS
62
252
70
192
10
16.500000
20
-27.992404
30
-69.186824
0
VERTEX
8
0
6
CONTINUOUS
62
252
70
192
10
16.500000
20
-30.000000
30
-31.700001
0
VERTEX
8
0
6
CONTINUOUS
62
252
70
192
10
16.500000
20
-30.000000
30
-71.600001
0
VERTEX
8
0
6
CONTINUOUS
62
252
70
192
10
16.500000
20
-0.000000
30
-71.600001
0
VERTEX
8
0
6
CONTINUOUS
62
252
70
192
10
16.500000
20
-0.000000
30
-31.700001
0
VERTEX
8
0
6
CONTINUOUS
62
252
70
128
10
0.000000
20
0.000000
30
0.000000
71
40
72
1
73
42
0
VERTEX
8
0
6
CONTINUOUS
62
252
70
128
10
0.000000
20
0.000000
30
0.000000
71
42
72
1
73
2
0
VERTEX
8
0
6
CONTINUOUS
62
252
70
128
10
0.000000
20
0.000000
30
0.000000
71
42
72
2
73
41
0
VERTEX
8
0
6
CONTINUOUS
62
252
70
128
10
0.000000
20
0.000000
30
0.000000
71
41
72
2
73
3
0
VERTEX
8
0
6
CONTINUOUS
62
252
70
128
10
0.000000
20
0.000000
30
0.000000
71
41
72
3
73
4
0
VERTEX
8
0
6
CONTINUOUS
62
252
70
128
10
0.000000
20
0.000000
30
0.000000
71
4
72
5
73
41
0
VERTEX
8
0
6
CONTINUOUS
62
252
70
128
10
0.000000
20
0.000000
30
0.000000
71
41
72
5
73
6
0
VERTEX
8
0
6
CONTINUOUS
62
252
70
128
10
0.000000
20
0.000000
30
0.000000
71
41
72
6
73
7
0
VERTEX
8
0
6
CONTINUOUS
62
252
70
128
10
0.000000
20
0.000000
30
0.000000
71
7
72
8
73
41
0
VERTEX
8
0
6
CONTINUOUS
62
252
70
128
10
0.000000
20
0.000000
30
0.000000
71
41
72
8
73
9
0
VERTEX
8
0
6
CONTINUOUS
62
252
70
128
10
0.000000
20
0.000000
30
0.000000
71
41
72
9
73
10
0
VERTEX
8
0
6
CONTINUOUS
62
252
70
128
10
0.000000
20
0.000000
30
0.000000
71
10
72
11
73
41
0
VERTEX
8
0
6
CONTINUOUS
62
252
70
128
10
0.000000
20
0.000000
30
0.000000
71
41
72
11
73
12
0
VERTEX
8
0
6
CONTINUOUS
62
252
70
128
10
0.000000
20
0.000000
30
0.000000
71
41
72
12
73
44
0
VERTEX
8
0
6
CONTINUOUS
62
252
70
128
10
0.000000
20
0.000000
30
0.000000
71
44
72
12
73
13
0
VERTEX
8
0
6
CONTINUOUS
62
252
70
128
10
0.000000
20
0.000000
30
0.000000
71
44
72
13
73
14
0
VERTEX
8
0
6
CONTINUOUS
62
252
70
128
10
0.000000
20
0.000000
30
0.000000
71
14
72
15
73
44
0
VERTEX
8
0
6
CONTINUOUS
62
252
70
128
10
0.000000
20
0.000000
30
0.000000
71
44
72
15
73
16
0
VERTEX
8
0
6
CONTINUOUS
62
252
70
128
10
0.000000
20
0.000000
30
0.000000
71
44
72
16
73
17
0
VERTEX
8
0
6
CONTINUOUS
62
252
70
128
10
0.000000
20
0.000000
30
0.000000
71
17
72
18
73
44
0
VERTEX
8
0
6
CONTINUOUS
62
252
70
128
10
0.000000
20
0.000000
30
0.000000
71
44
72
18
73
19
0
VERTEX
8
0
6
CONTINUOUS
62
252
70
128
10
0.000000
20
0.000000
30
0.000000
71
44
72
19
73
20
0
VERTEX
8
0
6
CONTINUOUS
62
252
70
128
10
0.000000
20
0.000000
30
0.000000
71
20
72
21
73
44
0
VERTEX
8
0
6
CONTINUOUS
62
252
70
128
10
0.000000
20
0.000000
30
0.000000
71
44
72
21
73
43
0
VERTEX
8
0
6
CONTINUOUS
62
252
70
128
10
0.000000
20
0.000000
30
0.000000
71
43
72
21
73
22
0
VERTEX
8
0
6
CONTINUOUS
62
252
70
128
10
0.000000
20
0.000000
30
0.000000
71
43
72
22
73
23
0
VERTEX
8
0
6
CONTINUOUS
62
252
70
128
10
0.000000
20
0.000000
30
0.000000
71
23
72
24
73
43
0
VERTEX
8
0
6
CONTINUOUS
62
252
70
128
10
0.000000
20
0.000000
30
0.000000
71
43
72
24
73
25
0
VERTEX
8
0
6
CONTINUOUS
62
252
70
128
10
0.000000
20
0.000000
30
0.000000
71
43
72
25
73
26
0
VERTEX
8
0
6
CONTINUOUS
62
252
70
128
10
0.000000
20
0.000000
30
0.000000
71
26
72
27
73
43
0
VERTEX
8
0
6
CONTINUOUS
62
252
70
128
10
0.000000
20
0.000000
30
0.000000
71
43
72
27
73
28
0
VERTEX
8
0
6
CONTINUOUS
62
252
70
128
10
0.000000
20
0.000000
30
0.000000
71
43
72
28
73
29
0
VERTEX
8
0
6
CONTINUOUS
62
252
70
128
10
0.000000
20
0.000000
30
0.000000
71
29
72
30
73
43
0
VERTEX
8
0
6
CONTINUOUS
62
252
70
128
10
0.000000
20
0.000000
30
0.000000
71
43
72
30
73
31
0
VERTEX
8
0
6
CONTINUOUS
62
252
70
128
10
0.000000
20
0.000000
30
0.000000
71
43
72
31
73
42
0
VERTEX
8
0
6
CONTINUOUS
62
252
70
128
10
0.000000
20
0.000000
30
0.000000
71
42
72
31
73
32
0
VERTEX
8
0
6
CONTINUOUS
62
252
70
128
10
0.000000
20
0.000000
30
0.000000
71
42
72
32
73
33
0
VERTEX
8
0
6
CONTINUOUS
62
252
70
128
10
0.000000
20
0.000000
30
0.000000
71
33
72
34
73
42
0
VERTEX
8
0
6
CONTINUOUS
62
252
70
128
10
0.000000
20
0.000000
30
0.000000
71
42
72
34
73
35
0
VERTEX
8
0
6
CONTINUOUS
62
252
70
128
10
0.000000
20
0.000000
30
0.000000
71
42
72
35
73
36
0
VERTEX
8
0
6
CONTINUOUS
62
252
70
128
10
0.000000
20
0.000000
30
0.000000
71
36
72
37
73
42
0
VERTEX
8
0
6
CONTINUOUS
62
252
70
128
10
0.000000
20
0.000000
30
0.000000
71
42
72
37
73
38
0
VERTEX
8
0
6
CONTINUOUS
62
252
70
128
10
0.000000
20
0.000000
30
0.000000
71
42
72
38
73
39
0
VERTEX
8
0
6
CONTINUOUS
62
252
70
128
10
0.000000
20
0.000000
30
0.000000
71
39
72
40
73
42
0
SEQEND
0
POLYLINE
66
1
8
0
6
CONTINUOUS
62
252
70
64
75
0
10
0.000000
20
0.000000
30
0.000000
0
VERTEX
8
0
6
CONTINUOUS
62
252
70
192
10
-3.500000
20
-18.700000
30
-71.600001
0
VERTEX
8
0
6
CONTINUOUS
62
252
70
192
10
6.500000
20
-18.700000
30
-71.600001
0
VERTEX
8
0
6
CONTINUOUS
62
252
70
192
10
6.500000
20
-13.700000
30
-71.600001
0
VERTEX
8
0
6
CONTINUOUS
62
252
70
192
10
-3.500000
20
-13.700000
30
-71.600001
0
VERTEX
8
0
6
CONTINUOUS
62
252
70
192
10
16.500000
20
-30.000000
30
-71.600001
0
VERTEX
8
0
6
CONTINUOUS
62
252
70
192
10
-19.000000
20
-30.000000
30
-71.600001
0
VERTEX
8
0
6
CONTINUOUS
62
252
70
192
10
-19.000000
20
-0.000000
30
-71.600001
0
VERTEX
8
0
6
CONTINUOUS
62
252
70
192
10
16.500000
20
-0.000000
30
-71.600001
0
VERTEX
8
0
6
CONTINUOUS
62
252
70
128
10
0.000000
20
0.000000
30
0.000000
71
2
72
5
73
1
0
VERTEX
8
0
6
CONTINUOUS
62
252
70
128
10
0.000000
20
0.000000
30
0.000000
71
1
72
5
73
6
0
VERTEX
8
0
6
CONTINUOUS
62
252
70
128
10
0.000000
20
0.000000
30
0.000000
71
1
72
6
73
4
0
VERTEX
8
0
6
CONTINUOUS
62
252
70
128
10
0.000000
20
0.000000
30
0.000000
71
4
72
6
73
7
0
VERTEX
8
0
6
CONTINUOUS
62
252
70
128
10
0.000000
20
0.000000
30
0.000000
71
4
72
7
73
8
0
VERTEX
8
0
6
CONTINUOUS
62
252
70
128
10
0.000000
20
0.000000
30
0.000000
71
2
72
3
73
5
0
VERTEX
8
0
6
CONTINUOUS
62
252
70
128
10
0.000000
20
0.000000
30
0.000000
71
5
72
3
73
8
0
VERTEX
8
0
6
CONTINUOUS
62
252
70
128
10
0.000000
20
0.000000
30
0.000000
71
8
72
3
73
4
0
SEQEND
0
POLYLINE
66
1
8
0
6
CONTINUOUS
62
252
70
64
75
0
10
0.000000
20
0.000000
30
0.000000
0
VERTEX
8
0
6
CONTINUOUS
62
252
70
192
10
-19.000000
20
-30.000000
30
-71.600001
0
VERTEX
8
0
6
CONTINUOUS
62
252
70
192
10
-24.948526
20
-30.000000
30
-71.157453
0
VERTEX
8
0
6
CONTINUOUS
62
252
70
192
10
-30.766081
20
-30.000000
30
-69.839555
0
VERTEX
8
0
6
CONTINUOUS
62
252
70
192
10
-36.324580
20
-30.000000
30
-67.675322
0
VERTEX
8
0
6
CONTINUOUS
62
252
70
192
10
-36.324580
20
-0.000000
30
-67.675322
0
VERTEX
8
0
6
CONTINUOUS
62
252
70
192
10
-30.766081
20
-0.000000
30
-69.839555
0
VERTEX
8
0
6
CONTINUOUS
62
252
70
192
10
-24.948526
20
-0.000000
30
-71.157453
0
VERTEX
8
0
6
CONTINUOUS
62
252
70
192
10
-19.000000
20
-0.000000
30
-71.600001
0
VERTEX
8
0
6
CONTINUOUS
62
252
70
128
10
0.000000
20
0.000000
30
0.000000
71
1
72
2
73
8
0
VERTEX
8
0
6
CONTINUOUS
62
252
70
128
10
0.000000
20
0.000000
30
0.000000
71
8
72
2
73
7
0
VERTEX
8
0
6
CONTINUOUS
62
252
70
128
10
0.000000
20
0.000000
30
0.000000
71
7
72
2
73
3
0
VERTEX
8
0
6
CONTINUOUS
62
252
70
128
10
0.000000
20
0.000000
30
0.000000
71
7
72
3
73
6
0
VERTEX
8
0
6
CONTINUOUS
62
252
70
128
10
0.000000
20
0.000000
30
0.000000
71
6
72
3
73
4
0
VERTEX
8
0
6
CONTINUOUS
62
252
70
128
10
0.000000
20
0.000000
30
0.000000
71
6
72
4
73
5
0
SEQEND
0
POLYLINE
66
1
8
0
6
CONTINUOUS
62
252
70
64
75
0
10
0.000000
20
0.000000
30
0.000000
0
VERTEX
8
0
6
CONTINUOUS
62
252
70
192
10
-36.324580
20
-30.000000
30
-67.675322
0
VERTEX
8
0
6
CONTINUOUS
62
252
70
192
10
-37.154159
20
-30.000000
30
-67.364400
0
VERTEX
8
0
6
CONTINUOUS
62
252
70
192
10
-38.025028
20
-30.000000
30
-67.201733
0
VERTEX
8
0
6
CONTINUOUS
62
252
70
192
10
-38.910909
20
-30.000000
30
-67.192229
0
VERTEX
8
0
6
CONTINUOUS
62
252
70
192
10
-39.785068
20
-30.000000
30
-67.336174
0
VERTEX
8
0
6
CONTINUOUS
62
252
70
192
10
-40.621127
20
-30.000000
30
-67.629226
0
VERTEX
8
0
6
CONTINUOUS
62
252
70
192
10
-41.393857
20
-30.000000
30
-68.062541
0
VERTEX
8
0
6
CONTINUOUS
62
252
70
192
10
-42.079941
20
-30.000000
30
-68.623044
0
VERTEX
8
0
6
CONTINUOUS
62
252
70
192
10
-42.658675
20
-30.000000
30
-69.293820
0
VERTEX
8
0
6
CONTINUOUS
62
252
70
192
10
-42.658675
20
-0.000000
30
-69.293820
0
VERTEX
8
0
6
CONTINUOUS
62
252
70
192
10
-42.079941
20
-0.000000
30
-68.623044
0
VERTEX
8
0
6
CONTINUOUS
62
252
70
192
10
-41.393857
20
-0.000000
30
-68.062541
0
VERTEX
8
0
6
CONTINUOUS
62
252
70
192
10
-40.621127
20
-0.000000
30
-67.629226
0
VERTEX
8
0
6
CONTINUOUS
62
252
70
192
10
-39.785068
20
-0.000000
30
-67.336174
0
VERTEX
8
0
6
CONTINUOUS
62
252
70
192
10
-38.910909
20
-0.000000
30
-67.192229
0
VERTEX
8
0
6
CONTINUOUS
62
252
70
192
10
-38.025028
20
-0.000000
30
-67.201733
0
VERTEX
8
0
6
CONTINUOUS
62
252
70
192
10
-37.154159
20
-0.000000
30
-67.364400
0
VERTEX
8
0
6
CONTINUOUS
62
252
70
192
10
-36.324580
20
-0.000000
30
-67.675322
0
VERTEX
8
0
6
CONTINUOUS
62
252
70
128
10
0.000000
20
0.000000
30
0.000000
71
1
72
2
73
18
0
VERTEX
8
0
6
CONTINUOUS
62
252
70
128
10
0.000000
20
0.000000
30
0.000000
71
18
72
2
73
17
0
VERTEX
8
0
6
CONTINUOUS
62
252
70
128
10
0.000000
20
0.000000
30
0.000000
71
17
72
2
73
3
0
VERTEX
8
0
6
CONTINUOUS
62
252
70
128
10
0.000000
20
0.000000
30
0.000000
71
17
72
3
73
16
0
VERTEX
8
0
6
CONTINUOUS
62
252
70
128
10
0.000000
20
0.000000
30
0.000000
71
16
72
3
73
15
0
VERTEX
8
0
6
CONTINUOUS
62
252
70
128
10
0.000000
20
0.000000
30
0.000000
71
15
72
3
73
4
0
VERTEX
8
0
6
CONTINUOUS
62
252
70
128
10
0.000000
20
0.000000
30
0.000000
71
15
72
4
73
14
0
VERTEX
8
0
6
CONTINUOUS
62
252
70
128
10
0.000000
20
0.000000
30
0.000000
71
14
72
4
73
5
0
VERTEX
8
0
6
CONTINUOUS
62
252
70
128
10
0.000000
20
0.000000
30
0.000000
71
14
72
5
73
13
0
VERTEX
8
0
6
CONTINUOUS
62
252
70
128
10
0.000000
20
0.000000
30
0.000000
71
13
72
5
73
6
0
VERTEX
8
0
6
CONTINUOUS
62
252
70
128
10
0.000000
20
0.000000
30
0.000000
71
13
72
6
73
12
0
VERTEX
8
0
6
CONTINUOUS
62
252
70
128
10
0.000000
20
0.000000
30
0.000000
71
12
72
6
73
7
0
VERTEX
8
0
6
CONTINUOUS
62
252
70
128
10
0.000000
20
0.000000
30
0.000000
71
12
72
7
73
11
0
VERTEX
8
0
6
CONTINUOUS
62
252
70
128
10
0.000000
20
0.000000
30
0.000000
71
11
72
7
73
8
0
VERTEX
8
0
6
CONTINUOUS
62
252
70
128
10
0.000000
20
0.000000
30
0.000000
71
11
72
8
73
10
0
VERTEX
8
0
6
CONTINUOUS
62
252
70
128
10
0.000000
20
0.000000
30
0.000000
71
10
72
8
73
9
0
SEQEND
0
POLYLINE
66
1
8
0
6
CONTINUOUS
62
252
70
64
75
0
10
0.000000
20
0.000000
30
0.000000
0
VERTEX
8
0
6
CONTINUOUS
62
252
70
192
10
-42.658675
20
-30.000000
30
-69.293820
0
VERTEX
8
0
6
CONTINUOUS
62
252
70
192
10
-43.066089
20
-30.000000
30
-69.769273
0
VERTEX
8
0
6
CONTINUOUS
62
252
70
192
10
-43.546932
20
-30.000000
30
-70.170310
0
VERTEX
8
0
6
CONTINUOUS
62
252
70
192
10
-44.087799
20
-30.000000
30
-70.485751
0
VERTEX
8
0
6
CONTINUOUS
62
252
70
192
10
-44.673612
20
-30.000000
30
-70.706804
0
VERTEX
8
0
6
CONTINUOUS
62
252
70
192
10
-45.288039
20
-30.000000
30
-70.827304
0
VERTEX
8
0
6
CONTINUOUS
62
252
70
192
10
-45.913951
20
-30.000000
30
-70.843892
0
VERTEX
8
0
6
CONTINUOUS
62
252
70
192
10
-46.533899
20
-30.000000
30
-70.756107
0
VERTEX
8
0
6
CONTINUOUS
62
252
70
192
10
-47.130598
20
-30.000000
30
-70.566395
0
VERTEX
8
0
6
CONTINUOUS
62
252
70
192
10
-47.687415
20
-30.000000
30
-70.280045
0
VERTEX
8
0
6
CONTINUOUS
62
252
70
192
10
-48.188825
20
-30.000000
30
-69.905040
0
VERTEX
8
0
6
CONTINUOUS
62
252
70
192
10
-48.620851
20
-30.000000
30
-69.451836
0
VERTEX
8
0
6
CONTINUOUS
62
252
70
192
10
-48.971448
20
-30.000000
30
-68.933066
0
VERTEX
8
0
6
CONTINUOUS
62
252
70
192
10
-49.230842
20
-30.000000
30
-68.363192
0
VERTEX
8
0
6
CONTINUOUS
62
252
70
192
10
-49.391802
20
-30.000000
30
-67.758103
0
VERTEX
8
0
6
CONTINUOUS
62
252
70
192
10
-49.449840
20
-30.000000
30
-67.134667
0
VERTEX
8
0
6
CONTINUOUS
62
252
70
192
10
-49.403338
20
-30.000000
30
-66.510265
0
VERTEX
8
0
6
CONTINUOUS
62
252
70
192
10
-49.253593
20
-30.000000
30
-65.902303
0
VERTEX
8
0
6
CONTINUOUS
62
252
70
192
10
-49.004779
20
-30.000000
30
-65.327731
0
VERTEX
8
0
6
CONTINUOUS
62
252
70
192
10
-48.663833
20
-30.000000
30
-64.802568
0
VERTEX
8
0
6
CONTINUOUS
62
252
70
192
10
-48.663833
20
-0.000000
30
-64.802568
0
VERTEX
8
0
6
CONTINUOUS
62
252
70
192
10
-49.004779
20
-0.000000
30
-65.327731
0
VERTEX
8
0
6
CONTINUOUS
62
252
70
192
10
-49.253593
20
-0.000000
30
-65.902303
0
VERTEX
8
0
6
CONTINUOUS
62
252
70
192
10
-49.403338
20
-0.000000
30
-66.510265
0
VERTEX
8
0
6
CONTINUOUS
62
252
70
192
10
-49.449840
20
-0.000000
30
-67.134667
0
VERTEX
8
0
6
CONTINUOUS
62
252
70
192
10
-49.391802
20
-0.000000
30
-67.758103
0
VERTEX
8
0
6
CONTINUOUS
62
252
70
192
10
-49.230842
20
-0.000000
30
-68.363192
0
VERTEX
8
0
6
CONTINUOUS
62
252
70
192
10
-48.971448
20
-0.000000
30
-68.933066
0
VERTEX
8
0
6
CONTINUOUS
62
252
70
192
10
-48.620851
20
-0.000000
30
-69.451836
0
VERTEX
8
0
6
CONTINUOUS
62
252
70
192
10
-48.188825
20
-0.000000
30
-69.905040
0
VERTEX
8
0
6
CONTINUOUS
62
252
70
192
10
-47.687415
20
-0.000000
30
-70.280045
0
VERTEX
8
0
6
CONTINUOUS
62
252
70
192
10
-47.130598
20
-0.000000
30
-70.566395
0
VERTEX
8
0
6
CONTINUOUS
62
252
70
192
10
-46.533899
20
-0.000000
30
-70.756107
0
VERTEX
8
0
6
CONTINUOUS
62
252
70
192
10
-45.913951
20
-0.000000
30
-70.843892
0
VERTEX
8
0
6
CONTINUOUS
62
252
70
192
10
-45.288039
20
-0.000000
30
-70.827304
0
VERTEX
8
0
6
CONTINUOUS
62
252
70
192
10
-44.673612
20
-0.000000
30
-70.706804
0
VERTEX
8
0
6
CONTINUOUS
62
252
70
192
10
-44.087799
20
-0.000000
30
-70.485751
0
VERTEX
8
0
6
CONTINUOUS
62
252
70
192
10
-43.546932
20
-0.000000
30
-70.170310
0
VERTEX
8
0
6
CONTINUOUS
62
252
70
192
10
-43.066089
20
-0.000000
30
-69.769273
0
VERTEX
8
0
6
CONTINUOUS
62
252
70
192
10
-42.658675
20
-0.000000
30
-69.293820
0
VERTEX
8
0
6
CONTINUOUS
62
252
70
128
10
0.000000
20
0.000000
30
0.000000
71
40
72
1
73
39
0
VERTEX
8
0
6
CONTINUOUS
62
252
70
128
10
0.000000
20
0.000000
30
0.000000
71
39
72
1
73
2
0
VERTEX
8
0
6
CONTINUOUS
62
252
70
128
10
0.000000
20
0.000000
30
0.000000
71
39
72
2
73
38
0
VERTEX
8
0
6
CONTINUOUS
62
252
70
128
10
0.000000
20
0.000000
30
0.000000
71
38
72
2
73
3
0
VERTEX
8
0
6
CONTINUOUS
62
252
70
128
10
0.000000
20
0.000000
30
0.000000
71
38
72
3
73
37
0
VERTEX
8
0
6
CONTINUOUS
62
252
70
128
10
0.000000
20
0.000000
30
0.000000
71
37
72
3
73
4
0
VERTEX
8
0
6
CONTINUOUS
62
252
70
128
10
0.000000
20
0.000000
30
0.000000
71
37
72
4
73
5
0
VERTEX
8
0
6
CONTINUOUS
62
252
70
128
10
0.000000
20
0.000000
30
0.000000
71
37
72
5
73
36
0
VERTEX
8
0
6
CONTINUOUS
62
252
70
128
10
0.000000
20
0.000000
30
0.000000
71
36
72
5
73
6
0
VERTEX
8
0
6
CONTINUOUS
62
252
70
128
10
0.000000
20
0.000000
30
0.000000
71
36
72
6
73
35
0
VERTEX
8
0
6
CONTINUOUS
62
252
70
128
10
0.000000
20
0.000000
30
0.000000
71
35
72
6
73
7
0
VERTEX
8
0
6
CONTINUOUS
62
252
70
128
10
0.000000
20
0.000000
30
0.000000
71
35
72
7
73
34
0
VERTEX
8
0
6
CONTINUOUS
62
252
70
128
10
0.000000
20
0.000000
30
0.000000
71
34
72
7
73
8
0
VERTEX
8
0
6
CONTINUOUS
62
252
70
128
10
0.000000
20
0.000000
30
0.000000
71
34
72
8
73
33
0
VERTEX
8
0
6
CONTINUOUS
62
252
70
128
10
0.000000
20
0.000000
30
0.000000
71
33
72
8
73
9
0
VERTEX
8
0
6
CONTINUOUS
62
252
70
128
10
0.000000
20
0.000000
30
0.000000
71
33
72
9
73
32
0
VERTEX
8
0
6
CONTINUOUS
62
252
70
128
10
0.000000
20
0.000000
30
0.000000
71
32
72
9
73
10
0
VERTEX
8
0
6
CONTINUOUS
62
252
70
128
10
0.000000
20
0.000000
30
0.000000
71
32
72
10
73
31
0
VERTEX
8
0
6
CONTINUOUS
62
252
70
128
10
0.000000
20
0.000000
30
0.000000
71
31
72
10
73
11
0
VERTEX
8
0
6
CONTINUOUS
62
252
70
128
10
0.000000
20
0.000000
30
0.000000
71
31
72
11
73
30
0
VERTEX
8
0
6
CONTINUOUS
62
252
70
128
10
0.000000
20
0.000000
30
0.000000
71
30
72
11
73
12
0
VERTEX
8
0
6
CONTINUOUS
62
252
70
128
10
0.000000
20
0.000000
30
0.000000
71
30
72
12
73
29
0
VERTEX
8
0
6
CONTINUOUS
62
252
70
128
10
0.000000
20
0.000000
30
0.000000
71
29
72
12
73
13
0
VERTEX
8
0
6
CONTINUOUS
62
252
70
128
10
0.000000
20
0.000000
30
0.000000
71
29
72
13
73
28
0
VERTEX
8
0
6
CONTINUOUS
62
252
70
128
10
0.000000
20
0.000000
30
0.000000
71
28
72
13
73
14
0
VERTEX
8
0
6
CONTINUOUS
62
252
70
128
10
0.000000
20
0.000000
30
0.000000
71
28
72
14
73
27
0
VERTEX
8
0
6
CONTINUOUS
62
252
70
128
10
0.000000
20
0.000000
30
0.000000
71
27
72
14
73
15
0
VERTEX
8
0
6
CONTINUOUS
62
252
70
128
10
0.000000
20
0.000000
30
0.000000
71
27
72
15
73
26
0
VERTEX
8
0
6
CONTINUOUS
62
252
70
128
10
0.000000
20
0.000000
30
0.000000
71
26
72
15
73
16
0
VERTEX
8
0
6
CONTINUOUS
62
252
70
128
10
0.000000
20
0.000000
30
0.000000
71
26
72
16
73
25
0
VERTEX
8
0
6
CONTINUOUS
62
252
70
128
10
0.000000
20
0.000000
30
0.000000
71
25
72
16
73
17
0
VERTEX
8
0
6
CONTINUOUS
62
252
70
128
10
0.000000
20
0.000000
30
0.000000
71
25
72
17
73
24
0
VERTEX
8
0
6
CONTINUOUS
62
252
70
128
10
0.000000
20
0.000000
30
0.000000
71
24
72
17
73
18
0
VERTEX
8
0
6
CONTINUOUS
62
252
70
128
10
0.000000
20
0.000000
30
0.000000
71
24
72
18
73
23
0
VERTEX
8
0
6
CONTINUOUS
62
252
70
128
10
0.000000
20
0.000000
30
0.000000
71
23
72
18
73
19
0
VERTEX
8
0
6
CONTINUOUS
62
252
70
128
10
0.000000
20
0.000000
30
0.000000
71
23
72
19
73
22
0
VERTEX
8
0
6
CONTINUOUS
62
252
70
128
10
0.000000
20
0.000000
30
0.000000
71
22
72
19
73
20
0
VERTEX
8
0
6
CONTINUOUS
62
252
70
128
10
0.000000
20
0.000000
30
0.000000
71
22
72
20
73
21
0
SEQEND
0
POLYLINE
66
1
8
0
6
CONTINUOUS
62
252
70
64
75
0
10
0.000000
20
0.000000
30
0.000000
0
VERTEX
8
0
6
CONTINUOUS
62
252
70
192
10
-48.663833
20
-30.000000
30
-64.802568
0
VERTEX
8
0
6
CONTINUOUS
62
252
70
192
10
-48.183936
20
-30.000000
30
-64.057871
0
VERTEX
8
0
6
CONTINUOUS
62
252
70
192
10
-47.840154
20
-30.000000
30
-63.241362
0
VERTEX
8
0
6
CONTINUOUS
62
252
70
192
10
-47.642860
20
-30.000000
30
-62.377678
0
VERTEX
8
0
6
CONTINUOUS
62
252
70
192
10
-47.598008
20
-30.000000
30
-61.492883
0
VERTEX
8
0
6
CONTINUOUS
62
252
70
192
10
-47.706952
20
-30.000000
30
-60.613675
0
VERTEX
8
0
6
CONTINUOUS
62
252
70
192
10
-47.966403
20
-30.000000
30
-59.766587
0
VERTEX
8
0
6
CONTINUOUS
62
252
70
192
10
-48.368534
20
-30.000000
30
-58.977179
0
VERTEX
8
0
6
CONTINUOUS
62
252
70
192
10
-48.901208
20
-30.000000
30
-58.269272
0
VERTEX
8
0
6
CONTINUOUS
62
252
70
192
10
-48.901208
20
-0.000000
30
-58.269272
0
VERTEX
8
0
6
CONTINUOUS
62
252
70
192
10
-48.368534
20
-0.000000
30
-58.977179
0
VERTEX
8
0
6
CONTINUOUS
62
252
70
192
10
-47.966403
20
-0.000000
30
-59.766587
0
VERTEX
8
0
6
CONTINUOUS
62
252
70
192
10
-47.706952
20
-0.000000
30
-60.613675
0
VERTEX
8
0
6
CONTINUOUS
62
252
70
192
10
-47.598008
20
-0.000000
30
-61.492883
0
VERTEX
8
0
6
CONTINUOUS
62
252
70
192
10
-47.642860
20
-0.000000
30
-62.377678
0
VERTEX
8
0
6
CONTINUOUS
62
252
70
192
10
-47.840154
20
-0.000000
30
-63.241362
0
VERTEX
8
0
6
CONTINUOUS
62
252
70
192
10
-48.183936
20
-0.000000
30
-64.057871
0
VERTEX
8
0
6
CONTINUOUS
62
252
70
192
10
-48.663833
20
-0.000000
30
-64.802568
0
VERTEX
8
0
6
CONTINUOUS
62
252
70
128
10
0.000000
20
0.000000
30
0.000000
71
1
72
2
73
18
0
VERTEX
8
0
6
CONTINUOUS
62
252
70
128
10
0.000000
20
0.000000
30
0.000000
71
18
72
2
73
17
0
VERTEX
8
0
6
CONTINUOUS
62
252
70
128
10
0.000000
20
0.000000
30
0.000000
71
17
72
2
73
3
0
VERTEX
8
0
6
CONTINUOUS
62
252
70
128
10
0.000000
20
0.000000
30
0.000000
71
17
72
3
73
16
0
VERTEX
8
0
6
CONTINUOUS
62
252
70
128
10
0.000000
20
0.000000
30
0.000000
71
16
72
3
73
4
0
VERTEX
8
0
6
CONTINUOUS
62
252
70
128
10
0.000000
20
0.000000
30
0.000000
71
16
72
4
73
15
0
VERTEX
8
0
6
CONTINUOUS
62
252
70
128
10
0.000000
20
0.000000
30
0.000000
71
15
72
4
73
5
0
VERTEX
8
0
6
CONTINUOUS
62
252
70
128
10
0.000000
20
0.000000
30
0.000000
71
15
72
5
73
14
0
VERTEX
8
0
6
CONTINUOUS
62
252
70
128
10
0.000000
20
0.000000
30
0.000000
71
14
72
5
73
6
0
VERTEX
8
0
6
CONTINUOUS
62
252
70
128
10
0.000000
20
0.000000
30
0.000000
71
14
72
6
73
13
0
VERTEX
8
0
6
CONTINUOUS
62
252
70
128
10
0.000000
20
0.000000
30
0.000000
71
13
72
6
73
7
0
VERTEX
8
0
6
CONTINUOUS
62
252
70
128
10
0.000000
20
0.000000
30
0.000000
71
13
72
7
73
12
0
VERTEX
8
0
6
CONTINUOUS
62
252
70
128
10
0.000000
20
0.000000
30
0.000000
71
12
72
7
73
8
0
VERTEX
8
0
6
CONTINUOUS
62
252
70
128
10
0.000000
20
0.000000
30
0.000000
71
12
72
8
73
11
0
VERTEX
8
0
6
CONTINUOUS
62
252
70
128
10
0.000000
20
0.000000
30
0.000000
71
11
72
8
73
9
0
VERTEX
8
0
6
CONTINUOUS
62
252
70
128
10
0.000000
20
0.000000
30
0.000000
71
11
72
9
73
10
0
SEQEND
0
POLYLINE
66
1
8
0
6
CONTINUOUS
62
252
70
64
75
0
10
0.000000
20
0.000000
30
0.000000
0
VERTEX
8
0
6
CONTINUOUS
62
252
70
192
10
-57.236846
20
-18.700000
30
-43.809014
0
VERTEX
8
0
6
CONTINUOUS
62
252
70
192
10
-56.074363
20
-18.700000
30
-46.941288
0
VERTEX
8
0
6
CONTINUOUS
62
252
70
192
10
-54.655795
20
-18.700000
30
-49.966213
0
VERTEX
8
0
6
CONTINUOUS
62
252
70
192
10
-52.990942
20
-18.700000
30
-52.862896
0
VERTEX
8
0
6
CONTINUOUS
62
252
70
192
10
-52.990942
20
-13.700000
30
-52.862896
0
VERTEX
8
0
6
CONTINUOUS
62
252
70
192
10
-54.655795
20
-13.700000
30
-49.966213
0
VERTEX
8
0
6
CONTINUOUS
62
252
70
192
10
-56.074363
20
-13.700000
30
-46.941288
0
VERTEX
8
0
6
CONTINUOUS
62
252
70
192
10
-57.236846
20
-13.700000
30
-43.809014
0
VERTEX
8
0
6
CONTINUOUS
62
252
70
192
10
-48.901208
20
-30.000000
30
-58.269272
0
VERTEX
8
0
6
CONTINUOUS
62
252
70
192
10
-52.495627
20
-30.000000
30
-53.627977
0
VERTEX
8
0
6
CONTINUOUS
62
252
70
192
10
-55.375764
20
-30.000000
30
-48.512679
0
VERTEX
8
0
6
CONTINUOUS
62
252
70
192
10
-57.480201
20
-30.000000
30
-43.032460
0
VERTEX
8
0
6
CONTINUOUS
62
252
70
192
10
-58.764062
20
-30.000000
30
-37.304182
0
VERTEX
8
0
6
CONTINUOUS
62
252
70
192
10
-59.199969
20
-30.000000
30
-31.450000
0
VERTEX
8
0
6
CONTINUOUS
62
252
70
192
10
-59.199969
20
-0.000000
30
-31.450000
0
VERTEX
8
0
6
CONTINUOUS
62
252
70
192
10
-58.764062
20
-0.000000
30
-37.304182
0
VERTEX
8
0
6
CONTINUOUS
62
252
70
192
10
-57.480201
20
-0.000000
30
-43.032460
0
VERTEX
8
0
6
CONTINUOUS
62
252
70
192
10
-55.375764
20
-0.000000
30
-48.512679
0
VERTEX
8
0
6
CONTINUOUS
62
252
70
192
10
-52.495627
20
-0.000000
30
-53.627977
0
VERTEX
8
0
6
CONTINUOUS
62
252
70
192
10
-48.901208
20
-0.000000
30
-58.269272
0
VERTEX
8
0
6
CONTINUOUS
62
252
70
128
10
0.000000
20
0.000000
30
0.000000
71
2
72
12
73
1
0
VERTEX
8
0
6
CONTINUOUS
62
252
70
128
10
0.000000
20
0.000000
30
0.000000
71
1
72
12
73
13
0
VERTEX
8
0
6
CONTINUOUS
62
252
70
128
10
0.000000
20
0.000000
30
0.000000
71
1
72
13
73
8
0
VERTEX
8
0
6
CONTINUOUS
62
252
70
128
10
0.000000
20
0.000000
30
0.000000
71
8
72
13
73
16
0
VERTEX
8
0
6
CONTINUOUS
62
252
70
128
10
0.000000
20
0.000000
30
0.000000
71
8
72
16
73
17
0
VERTEX
8
0
6
CONTINUOUS
62
252
70
128
10
0.000000
20
0.000000
30
0.000000
71
12
72
2
73
11
0
VERTEX
8
0
6
CONTINUOUS
62
252
70
128
10
0.000000
20
0.000000
30
0.000000
71
11
72
2
73
3
0
VERTEX
8
0
6
CONTINUOUS
62
252
70
128
10
0.000000
20
0.000000
30
0.000000
71
11
72
3
73
10
0
VERTEX
8
0
6
CONTINUOUS
62
252
70
128
10
0.000000
20
0.000000
30
0.000000
71
10
72
3
73
4
0
VERTEX
8
0
6
CONTINUOUS
62
252
70
128
10
0.000000
20
0.000000
30
0.000000
71
10
72
4
73
5
0
VERTEX
8
0
6
CONTINUOUS
62
252
70
128
10
0.000000
20
0.000000
30
0.000000
71
6
72
19
73
5
0
VERTEX
8
0
6
CONTINUOUS
62
252
70
128
10
0.000000
20
0.000000
30
0.000000
71
5
72
19
73
20
0
VERTEX
8
0
6
CONTINUOUS
62
252
70
128
10
0.000000
20
0.000000
30
0.000000
71
5
72
20
73
10
0
VERTEX
8
0
6
CONTINUOUS
62
252
70
128
10
0.000000
20
0.000000
30
0.000000
71
10
72
20
73
9
0
VERTEX
8
0
6
CONTINUOUS
62
252
70
128
10
0.000000
20
0.000000
30
0.000000
71
19
72
6
73
18
0
VERTEX
8
0
6
CONTINUOUS
62
252
70
128
10
0.000000
20
0.000000
30
0.000000
71
18
72
6
73
7
0
VERTEX
8
0
6
CONTINUOUS
62
252
70
128
10
0.000000
20
0.000000
30
0.000000
71
18
72
7
73
17
0
VERTEX
8
0
6
CONTINUOUS
62
252
70
128
10
0.000000
20
0.000000
30
0.000000
71
17
72
7
73
8
0
VERTEX
8
0
6
CONTINUOUS
62
252
70
128
10
0.000000
20
0.000000
30
0.000000
71
14
72
15
73
13
0
VERTEX
8
0
6
CONTINUOUS
62
252
70
128
10
0.000000
20
0.000000
30
0.000000
71
13
72
15
73
16
0
SEQEND
0
POLYLINE
66
1
8
0
6
CONTINUOUS
62
252
70
64
75
0
10
0.000000
20
0.000000
30
0.000000
0
VERTEX
8
0
6
CONTINUOUS
62
252
70
192
10
-59.199969
20
-30.000000
30
-31.450000
0
VERTEX
8
0
6
CONTINUOUS
62
252
70
192
10
-59.199323
20
-30.000000
30
-31.266660
0
VERTEX
8
0
6
CONTINUOUS
62
252
70
192
10
-59.197841
20
-30.000000
30
-31.083326
0
VERTEX
8
0
6
CONTINUOUS
62
252
70
192
10
-59.195522
20
-30.000000
30
-30.899999
0
VERTEX
8
0
6
CONTINUOUS
62
252
70
192
10
-59.195522
20
-0.000000
30
-30.899999
0
VERTEX
8
0
6
CONTINUOUS
62
252
70
192
10
-59.197841
20
-0.000000
30
-31.083326
0
VERTEX
8
0
6
CONTINUOUS
62
252
70
192
10
-59.199323
20
-0.000000
30
-31.266660
0
VERTEX
8
0
6
CONTINUOUS
62
252
70
192
10
-59.199969
20
-0.000000
30
-31.450000
0
VERTEX
8
0
6
CONTINUOUS
62
252
70
128
10
0.000000
20
0.000000
30
0.000000
71
8
72
1
73
7
0
VERTEX
8
0
6
CONTINUOUS
62
252
70
128
10
0.000000
20
0.000000
30
0.000000
71
7
72
1
73
2
0
VERTEX
8
0
6
CONTINUOUS
62
252
70
128
10
0.000000
20
0.000000
30
0.000000
71
7
72
2
73
6
0
VERTEX
8
0
6
CONTINUOUS
62
252
70
128
10
0.000000
20
0.000000
30
0.000000
71
6
72
2
73
3
0
VERTEX
8
0
6
CONTINUOUS
62
252
70
128
10
0.000000
20
0.000000
30
0.000000
71
6
72
3
73
5
0
VERTEX
8
0
6
CONTINUOUS
62
252
70
128
10
0.000000
20
0.000000
30
0.000000
71
5
72
3
73
4
0
SEQEND
0
POLYLINE
66
1
8
0
6
CONTINUOUS
62
252
70
64
75
0
10
0.000000
20
0.000000
30
0.000000
0
VERTEX
8
0
6
CONTINUOUS
62
252
70
192
10
-59.195522
20
-30.000000
30
-30.899999
0
VERTEX
8
0
6
CONTINUOUS
62
252
70
192
10
-59.178092
20
-30.000000
30
-30.173007
0
VERTEX
8
0
6
CONTINUOUS
62
252
70
192
10
-59.147515
20
-30.000000
30
-29.446448
0
VERTEX
8
0
6
CONTINUOUS
62
252
70
192
10
-59.103799
20
-30.000000
30
-28.720562
0
VERTEX
8
0
6
CONTINUOUS
62
252
70
192
10
-59.103799
20
-0.000000
30
-28.720562
0
VERTEX
8
0
6
CONTINUOUS
62
252
70
192
10
-59.147515
20
-0.000000
30
-29.446448
0
VERTEX
8
0
6
CONTINUOUS
62
252
70
192
10
-59.178092
20
-0.000000
30
-30.173007
0
VERTEX
8
0
6
CONTINUOUS
62
252
70
192
10
-59.195522
20
-0.000000
30
-30.899999
0
VERTEX
8
0
6
CONTINUOUS
62
252
70
128
10
0.000000
20
0.000000
30
0.000000
71
8
72
1
73
7
0
VERTEX
8
0
6
CONTINUOUS
62
252
70
128
10
0.000000
20
0.000000
30
0.000000
71
7
72
1
73
2
0
VERTEX
8
0
6
CONTINUOUS
62
252
70
128
10
0.000000
20
0.000000
30
0.000000
71
7
72
2
73
6
0
VERTEX
8
0
6
CONTINUOUS
62
252
70
128
10
0.000000
20
0.000000
30
0.000000
71
6
72
2
73
3
0
VERTEX
8
0
6
CONTINUOUS
62
252
70
128
10
0.000000
20
0.000000
30
0.000000
71
6
72
3
73
5
0
VERTEX
8
0
6
CONTINUOUS
62
252
70
128
10
0.000000
20
0.000000
30
0.000000
71
5
72
3
73
4
0
SEQEND
0
POLYLINE
66
1
8
0
6
CONTINUOUS
62
252
70
64
75
0
10
0.000000
20
0.000000
30
0.000000
0
VERTEX
8
0
6
CONTINUOUS
62
252
70
192
10
-59.103799
20
-30.000000
30
-28.720562
0
VERTEX
8
0
6
CONTINUOUS
62
252
70
192
10
-57.981616
20
-30.000000
30
-22.778689
0
VERTEX
8
0
6
CONTINUOUS
62
252
70
192
10
-55.893833
20
-30.000000
30
-17.103630
0
VERTEX
8
0
6
CONTINUOUS
62
252
70
192
10
-52.897751
20
-30.000000
30
-11.851141
0
VERTEX
8
0
6
CONTINUOUS
62
252
70
192
10
-49.075602
20
-30.000000
30
-7.165384
0
VERTEX
8
0
6
CONTINUOUS
62
252
70
192
10
-44.532288
20
-30.000000
30
-3.174965
0
VERTEX
8
0
6
CONTINUOUS
62
252
70
192
10
-39.392506
20
-30.000000
30
0.010594
0
VERTEX
8
0
6
CONTINUOUS
62
252
70
192
10
-39.392506
20
0.000000
30
0.010594
0
VERTEX
8
0
6
CONTINUOUS
62
252
70
192
10
-44.532288
20
-0.000000
30
-3.174965
0
VERTEX
8
0
6
CONTINUOUS
62
252
70
192
10
-49.075602
20
-0.000000
30
-7.165384
0
VERTEX
8
0
6
CONTINUOUS
62
252
70
192
10
-52.897751
20
-0.000000
30
-11.851141
0
VERTEX
8
0
6
CONTINUOUS
62
252
70
192
10
-55.893833
20
-0.000000
30
-17.103630
0
VERTEX
8
0
6
CONTINUOUS
62
252
70
192
10
-57.981616
20
-0.000000
30
-22.778689
0
VERTEX
8
0
6
CONTINUOUS
62
252
70
192
10
-59.103799
20
-0.000000
30
-28.720562
0
VERTEX
8
0
6
CONTINUOUS
62
252
70
128
10
0.000000
20
0.000000
30
0.000000
71
14
72
1
73
13
0
VERTEX
8
0
6
CONTINUOUS
62
252
70
128
10
0.000000
20
0.000000
30
0.000000
71
13
72
1
73
2
0
VERTEX
8
0
6
CONTINUOUS
62
252
70
128
10
0.000000
20
0.000000
30
0.000000
71
13
72
2
73
3
0
VERTEX
8
0
6
CONTINUOUS
62
252
70
128
10
0.000000
20
0.000000
30
0.000000
71
13
72
3
73
12
0
VERTEX
8
0
6
CONTINUOUS
62
252
70
128
10
0.000000
20
0.000000
30
0.000000
71
12
72
3
73
4
0
VERTEX
8
0
6
CONTINUOUS
62
252
70
128
10
0.000000
20
0.000000
30
0.000000
71
12
72
4
73
11
0
VERTEX
8
0
6
CONTINUOUS
62
252
70
128
10
0.000000
20
0.000000
30
0.000000
71
11
72
4
73
5
0
VERTEX
8
0
6
CONTINUOUS
62
252
70
128
10
0.000000
20
0.000000
30
0.000000
71
11
72
5
73
10
0
VERTEX
8
0
6
CONTINUOUS
62
252
70
128
10
0.000000
20
0.000000
30
0.000000
71
10
72
5
73
9
0
VERTEX
8
0
6
CONTINUOUS
62
252
70
128
10
0.000000
20
0.000000
30
0.000000
71
9
72
5
73
6
0
VERTEX
8
0
6
CONTINUOUS
62
252
70
128
10
0.000000
20
0.000000
30
0.000000
71
9
72
6
73
8
0
VERTEX
8
0
6
CONTINUOUS
62
252
70
128
10
0.000000
20
0.000000
30
0.000000
71
8
72
6
73
7
0
SEQEND
0
POLYLINE
66
1
8
0
6
CONTINUOUS
62
252
70
64
75
0
10
0.000000
20
0.000000
30
0.000000
0
VERTEX
8
0
6
CONTINUOUS
62
252
70
192
10
-8.825098
20
-30.000000
30
1.008234
0
VERTEX
8
0
6
CONTINUOUS
62
252
70
192
10
-8.056100
20
-30.000000
30
0.732063
0
VERTEX
8
0
6
CONTINUOUS
62
252
70
192
10
-7.252389
20
-30.000000
30
0.584826
0
VERTEX
8
0
6
CONTINUOUS
62
252
70
192
10
-6.435429
20
-30.000000
30
0.570457
0
VERTEX
8
0
6
CONTINUOUS
62
252
70
192
10
-5.627038
20
-30.000000
30
0.689338
0
VERTEX
8
0
6
CONTINUOUS
62
252
70
192
10
-4.848803
20
-30.000000
30
0.938295
0
VERTEX
8
0
6
CONTINUOUS
62
252
70
192
10
-4.121507
20
-30.000000
30
1.310680
0
VERTEX
8
0
6
CONTINUOUS
62
252
70
192
10
-3.464574
20
-30.000000
30
1.796547
0
VERTEX
8
0
6
CONTINUOUS
62
252
70
192
10
-2.895545
20
-30.000000
30
2.382922
0
VERTEX
8
0
6
CONTINUOUS
62
252
70
192
10
-2.895545
20
0.000000
30
2.382922
0
VERTEX
8
0
6
CONTINUOUS
62
252
70
192
10
-3.464574
20
0.000000
30
1.796547
0
VERTEX
8
0
6
CONTINUOUS
62
252
70
192
10
-4.121507
20
0.000000
30
1.310680
0
VERTEX
8
0
6
CONTINUOUS
62
252
70
192
10
-4.848803
20
0.000000
30
0.938295
0
VERTEX
8
0
6
CONTINUOUS
62
252
70
192
10
-5.627038
20
0.000000
30
0.689338
0
VERTEX
8
0
6
CONTINUOUS
62
252
70
192
10
-6.435429
20
0.000000
30
0.570457
0
VERTEX
8
0
6
CONTINUOUS
62
252
70
192
10
-7.252389
20
0.000000
30
0.584826
0
VERTEX
8
0
6
CONTINUOUS
62
252
70
192
10
-8.056100
20
0.000000
30
0.732063
0
VERTEX
8
0
6
CONTINUOUS
62
252
70
192
10
-8.825098
20
0.000000
30
1.008234
0
VERTEX
8
0
6
CONTINUOUS
62
252
70
128
10
0.000000
20
0.000000
30
0.000000
71
18
72
1
73
17
0
VERTEX
8
0
6
CONTINUOUS
62
252
70
128
10
0.000000
20
0.000000
30
0.000000
71
17
72
1
73
2
0
VERTEX
8
0
6
CONTINUOUS
62
252
70
128
10
0.000000
20
0.000000
30
0.000000
71
17
72
2
73
16
0
VERTEX
8
0
6
CONTINUOUS
62
252
70
128
10
0.000000
20
0.000000
30
0.000000
71
16
72
2
73
3
0
VERTEX
8
0
6
CONTINUOUS
62
252
70
128
10
0.000000
20
0.000000
30
0.000000
71
16
72
3
73
15
0
VERTEX
8
0
6
CONTINUOUS
62
252
70
128
10
0.000000
20
0.000000
30
0.000000
71
15
72
3
73
4
0
VERTEX
8
0
6
CONTINUOUS
62
252
70
128
10
0.000000
20
0.000000
30
0.000000
71
15
72
4
73
14
0
VERTEX
8
0
6
CONTINUOUS
62
252
70
128
10
0.000000
20
0.000000
30
0.000000
71
14
72
4
73
5
0
VERTEX
8
0
6
CONTINUOUS
62
252
70
128
10
0.000000
20
0.000000
30
0.000000
71
14
72
5
73
13
0
VERTEX
8
0
6
CONTINUOUS
62
252
70
128
10
0.000000
20
0.000000
30
0.000000
71
13
72
5
73
6
0
VERTEX
8
0
6
CONTINUOUS
62
252
70
128
10
0.000000
20
0.000000
30
0.000000
71
13
72
6
73
12
0
VERTEX
8
0
6
CONTINUOUS
62
252
70
128
10
0.000000
20
0.000000
30
0.000000
71
12
72
6
73
7
0
VERTEX
8
0
6
CONTINUOUS
62
252
70
128
10
0.000000
20
0.000000
30
0.000000
71
12
72
7
73
11
0
VERTEX
8
0
6
CONTINUOUS
62
252
70
128
10
0.000000
20
0.000000
30
0.000000
71
11
72
7
73
8
0
VERTEX
8
0
6
CONTINUOUS
62
252
70
128
10
0.000000
20
0.000000
30
0.000000
71
11
72
8
73
10
0
VERTEX
8
0
6
CONTINUOUS
62
252
70
128
10
0.000000
20
0.000000
30
0.000000
71
10
72
8
73
9
0
SEQEND
0
POLYLINE
66
1
8
0
6
CONTINUOUS
62
252
70
64
75
0
10
0.000000
20
0.000000
30
0.000000
0
VERTEX
8
0
6
CONTINUOUS
62
252
70
192
10
-2.895545
20
-30.000000
30
2.382922
0
VERTEX
8
0
6
CONTINUOUS
62
252
70
192
10
-2.450027
20
-30.000000
30
2.838991
0
VERTEX
8
0
6
CONTINUOUS
62
252
70
192
10
-1.933689
20
-30.000000
30
3.212997
0
VERTEX
8
0
6
CONTINUOUS
62
252
70
192
10
-1.361456
20
-30.000000
30
3.494129
0
VERTEX
8
0
6
CONTINUOUS
62
252
70
192
10
-0.749870
20
-30.000000
30
3.674261
0
VERTEX
8
0
6
CONTINUOUS
62
252
70
192
10
-0.116609
20
-30.000000
30
3.748187
0
VERTEX
8
0
6
CONTINUOUS
62
252
70
192
10
0.520023
20
-30.000000
30
3.713768
0
VERTEX
8
0
6
CONTINUOUS
62
252
70
192
10
1.141624
20
-30.000000
30
3.572002
0
VERTEX
8
0
6
CONTINUOUS
62
252
70
192
10
1.730225
20
-30.000000
30
3.326984
0
VERTEX
8
0
6
CONTINUOUS
62
252
70
192
10
2.268813
20
-30.000000
30
2.985797
0
VERTEX
8
0
6
CONTINUOUS
62
252
70
192
10
2.741820
20
-30.000000
30
2.558305
0
VERTEX
8
0
6
CONTINUOUS
62
252
70
192
10
3.135572
20
-30.000000
30
2.056863
0
VERTEX
8
0
6
CONTINUOUS
62
252
70
192
10
3.438689
20
-30.000000
30
1.495966
0
VERTEX
8
0
6
CONTINUOUS
62
252
70
192
10
3.642409
20
-30.000000
30
0.891828
0
VERTEX
8
0
6
CONTINUOUS
62
252
70
192
10
3.740843
20
-30.000000
30
0.261910
0
VERTEX
8
0
6
CONTINUOUS
62
252
70
192
10
3.731145
20
-30.000000
30
-0.375578
0
VERTEX
8
0
6
CONTINUOUS
62
252
70
192
10
3.613596
20
-30.000000
30
-1.002210
0
VERTEX
8
0
6
CONTINUOUS
62
252
70
192
10
3.391594
20
-30.000000
30
-1.599872
0
VERTEX
8
0
6
CONTINUOUS
62
252
70
192
10
3.071556
20
-30.000000
30
-2.151289
0
VERTEX
8
0
6
CONTINUOUS
62
252
70
192
10
3.071556
20
-0.000000
30
-2.151289
0
VERTEX
8
0
6
CONTINUOUS
62
252
70
192
10
3.391594
20
-0.000000
30
-1.599872
0
VERTEX
8
0
6
CONTINUOUS
62
252
70
192
10
3.613596
20
-0.000000
30
-1.002210
0
VERTEX
8
0
6
CONTINUOUS
62
252
70
192
10
3.731145
20
-0.000000
30
-0.375578
0
VERTEX
8
0
6
CONTINUOUS
62
252
70
192
10
3.740843
20
0.000000
30
0.261910
0
VERTEX
8
0
6
CONTINUOUS
62
252
70
192
10
3.642409
20
0.000000
30
0.891828
0
VERTEX
8
0
6
CONTINUOUS
62
252
70
192
10
3.438689
20
0.000000
30
1.495966
0
VERTEX
8
0
6
CONTINUOUS
62
252
70
192
10
3.135572
20
0.000000
30
2.056863
0
VERTEX
8
0
6
CONTINUOUS
62
252
70
192
10
2.741820
20
0.000000
30
2.558305
0
VERTEX
8
0
6
CONTINUOUS
62
252
70
192
10
2.268813
20
0.000000
30
2.985797
0
VERTEX
8
0
6
CONTINUOUS
62
252
70
192
10
1.730225
20
0.000000
30
3.326984
0
VERTEX
8
0
6
CONTINUOUS
62
252
70
192
10
1.141624
20
0.000000
30
3.572002
0
VERTEX
8
0
6
CONTINUOUS
62
252
70
192
10
0.520023
20
0.000000
30
3.713768
0
VERTEX
8
0
6
CONTINUOUS
62
252
70
192
10
-0.116609
20
0.000000
30
3.748187
0
VERTEX
8
0
6
CONTINUOUS
62
252
70
192
10
-0.749870
20
0.000000
30
3.674261
0
VERTEX
8
0
6
CONTINUOUS
62
252
70
192
10
-1.361456
20
0.000000
30
3.494129
0
VERTEX
8
0
6
CONTINUOUS
62
252
70
192
10
-1.933689
20
0.000000
30
3.212997
0
VERTEX
8
0
6
CONTINUOUS
62
252
70
192
10
-2.450027
20
0.000000
30
2.838991
0
VERTEX
8
0
6
CONTINUOUS
62
252
70
192
10
-2.895545
20
0.000000
30
2.382922
0
VERTEX
8
0
6
CONTINUOUS
62
252
70
128
10
0.000000
20
0.000000
30
0.000000
71
1
72
2
73
38
0
VERTEX
8
0
6
CONTINUOUS
62
252
70
128
10
0.000000
20
0.000000
30
0.000000
71
38
72
2
73
37
0
VERTEX
8
0
6
CONTINUOUS
62
252
70
128
10
0.000000
20
0.000000
30
0.000000
71
37
72
2
73
3
0
VERTEX
8
0
6
CONTINUOUS
62
252
70
128
10
0.000000
20
0.000000
30
0.000000
71
37
72
3
73
36
0
VERTEX
8
0
6
CONTINUOUS
62
252
70
128
10
0.000000
20
0.000000
30
0.000000
71
36
72
3
73
4
0
VERTEX
8
0
6
CONTINUOUS
62
252
70
128
10
0.000000
20
0.000000
30
0.000000
71
36
72
4
73
35
0
VERTEX
8
0
6
CONTINUOUS
62
252
70
128
10
0.000000
20
0.000000
30
0.000000
71
35
72
4
73
5
0
VERTEX
8
0
6
CONTINUOUS
62
252
70
128
10
0.000000
20
0.000000
30
0.000000
71
35
72
5
73
34
0
VERTEX
8
0
6
CONTINUOUS
62
252
70
128
10
0.000000
20
0.000000
30
0.000000
71
34
72
5
73
6
0
VERTEX
8
0
6
CONTINUOUS
62
252
70
128
10
0.000000
20
0.000000
30
0.000000
71
34
72
6
73
33
0
VERTEX
8
0
6
CONTINUOUS
62
252
70
128
10
0.000000
20
0.000000
30
0.000000
71
33
72
6
73
7
0
VERTEX
8
0
6
CONTINUOUS
62
252
70
128
10
0.000000
20
0.000000
30
0.000000
71
33
72
7
73
32
0
VERTEX
8
0
6
CONTINUOUS
62
252
70
128
10
0.000000
20
0.000000
30
0.000000
71
32
72
7
73
8
0
VERTEX
8
0
6
CONTINUOUS
62
252
70
128
10
0.000000
20
0.000000
30
0.000000
71
32
72
8
73
31
0
VERTEX
8
0
6
CONTINUOUS
62
252
70
128
10
0.000000
20
0.000000
30
0.000000
71
31
72
8
73
9
0
VERTEX
8
0
6
CONTINUOUS
62
252
70
128
10
0.000000
20
0.000000
30
0.000000
71
31
72
9
73
30
0
VERTEX
8
0
6
CONTINUOUS
62
252
70
128
10
0.000000
20
0.000000
30
0.000000
71
30
72
9
73
10
0
VERTEX
8
0
6
CONTINUOUS
62
252
70
128
10
0.000000
20
0.000000
30
0.000000
71
30
72
10
73
29
0
VERTEX
8
0
6
CONTINUOUS
62
252
70
128
10
0.000000
20
0.000000
30
0.000000
71
29
72
10
73
11
0
VERTEX
8
0
6
CONTINUOUS
62
252
70
128
10
0.000000
20
0.000000
30
0.000000
71
29
72
11
73
28
0
VERTEX
8
0
6
CONTINUOUS
62
252
70
128
10
0.000000
20
0.000000
30
0.000000
71
28
72
11
73
12
0
VERTEX
8
0
6
CONTINUOUS
62
252
70
128
10
0.000000
20
0.000000
30
0.000000
71
28
72
12
73
27
0
VERTEX
8
0
6
CONTINUOUS
62
252
70
128
10
0.000000
20
0.000000
30
0.000000
71
27
72
12
73
13
0
VERTEX
8
0
6
CONTINUOUS
62
252
70
128
10
0.000000
20
0.000000
30
0.000000
71
27
72
13
73
26
0
VERTEX
8
0
6
CONTINUOUS
62
252
70
128
10
0.000000
20
0.000000
30
0.000000
71
26
72
13
73
14
0
VERTEX
8
0
6
CONTINUOUS
62
252
70
128
10
0.000000
20
0.000000
30
0.000000
71
26
72
14
73
25
0
VERTEX
8
0
6
CONTINUOUS
62
252
70
128
10
0.000000
20
0.000000
30
0.000000
71
25
72
14
73
15
0
VERTEX
8
0
6
CONTINUOUS
62
252
70
128
10
0.000000
20
0.000000
30
0.000000
71
25
72
15
73
24
0
VERTEX
8
0
6
CONTINUOUS
62
252
70
128
10
0.000000
20
0.000000
30
0.000000
71
24
72
15
73
16
0
VERTEX
8
0
6
CONTINUOUS
62
252
70
128
10
0.000000
20
0.000000
30
0.000000
71
24
72
16
73
23
0
VERTEX
8
0
6
CONTINUOUS
62
252
70
128
10
0.000000
20
0.000000
30
0.000000
71
23
72
16
73
17
0
VERTEX
8
0
6
CONTINUOUS
62
252
70
128
10
0.000000
20
0.000000
30
0.000000
71
23
72
17
73
22
0
VERTEX
8
0
6
CONTINUOUS
62
252
70
128
10
0.000000
20
0.000000
30
0.000000
71
22
72
17
73
18
0
VERTEX
8
0
6
CONTINUOUS
62
252
70
128
10
0.000000
20
0.000000
30
0.000000
71
22
72
18
73
21
0
VERTEX
8
0
6
CONTINUOUS
62
252
70
128
10
0.000000
20
0.000000
30
0.000000
71
21
72
18
73
20
0
VERTEX
8
0
6
CONTINUOUS
62
252
70
128
10
0.000000
20
0.000000
30
0.000000
71
20
72
18
73
19
0
SEQEND
0
POLYLINE
66
1
8
0
6
CONTINUOUS
62
252
70
64
75
0
10
0.000000
20
0.000000
30
0.000000
0
VERTEX
8
0
6
CONTINUOUS
62
252
70
192
10
-43.450000
20
0.000000
30
-67.100000
0
VERTEX
8
0
6
CONTINUOUS
62
252
70
192
10
-43.484183
20
-0.000000
30
-66.709292
0
VERTEX
8
0
6
CONTINUOUS
62
252
70
192
10
-43.585692
20
-0.000000
30
-66.330455
0
VERTEX
8
0
6
CONTINUOUS
62
252
70
192
10
-43.751443
20
-0.000000
30
-65.975000
0
VERTEX
8
0
6
CONTINUOUS
62
252
70
192
10
-43.976400
20
-0.000000
30
-65.653728
0
VERTEX
8
0
6
CONTINUOUS
62
252
70
192
10
-44.253728
20
-0.000000
30
-65.376400
0
VERTEX
8
0
6
CONTINUOUS
62
252
70
192
10
-44.575000
20
-0.000000
30
-65.151443
0
VERTEX
8
0
6
CONTINUOUS
62
252
70
192
10
-44.930455
20
-0.000000
30
-64.985692
0
VERTEX
8
0
6
CONTINUOUS
62
252
70
192
10
-45.309292
20
-0.000000
30
-64.884183
0
VERTEX
8
0
6
CONTINUOUS
62
252
70
192
10
-45.700000
20
-0.000000
30
-64.850000
0
VERTEX
8
0
6
CONTINUOUS
62
252
70
192
10
-46.090708
20
-0.000000
30
-64.884183
0
VERTEX
8
0
6
CONTINUOUS
62
252
70
192
10
-46.469545
20
-0.000000
30
-64.985692
0
VERTEX
8
0
6
CONTINUOUS
62
252
70
192
10
-46.825000
20
-0.000000
30
-65.151443
0
VERTEX
8
0
6
CONTINUOUS
62
252
70
192
10
-47.146272
20
-0.000000
30
-65.376400
0
VERTEX
8
0
6
CONTINUOUS
62
252
70
192
10
-47.423600
20
-0.000000
30
-65.653728
0
VERTEX
8
0
6
CONTINUOUS
62
252
70
192
10
-47.648557
20
-0.000000
30
-65.975000
0
VERTEX
8
0
6
CONTINUOUS
62
252
70
192
10
-47.814308
20
-0.000000
30
-66.330455
0
VERTEX
8
0
6
CONTINUOUS
62
252
70
192
10
-47.915817
20
-0.000000
30
-66.709292
0
VERTEX
8
0
6
CONTINUOUS
62
252
70
192
10
-47.950000
20
-0.000000
30
-67.100000
0
VERTEX
8
0
6
CONTINUOUS
62
252
70
192
10
-47.915817
20
-0.000000
30
-67.490708
0
VERTEX
8
0
6
CONTINUOUS
62
252
70
192
10
-47.814308
20
-0.000000
30
-67.869545
0
VERTEX
8
0
6
CONTINUOUS
62
252
70
192
10
-47.648557
20
-0.000000
30
-68.225000
0
VERTEX
8
0
6
CONTINUOUS
62
252
70
192
10
-47.423600
20
-0.000000
30
-68.546272
0
VERTEX
8
0
6
CONTINUOUS
62
252
70
192
10
-47.146272
20
-0.000000
30
-68.823600
0
VERTEX
8
0
6
CONTINUOUS
62
252
70
192
10
-46.825000
20
-0.000000
30
-69.048557
0
VERTEX
8
0
6
CONTINUOUS
62
252
70
192
10
-46.469545
20
-0.000000
30
-69.214308
0
VERTEX
8
0
6
CONTINUOUS
62
252
70
192
10
-46.090708
20
-0.000000
30
-69.315817
0
VERTEX
8
0
6
CONTINUOUS
62
252
70
192
10
-45.700000
20
-0.000000
30
-69.350000
0
VERTEX
8
0
6
CONTINUOUS
62
252
70
192
10
-45.309292
20
-0.000000
30
-69.315817
0
VERTEX
8
0
6
CONTINUOUS
62
252
70
192
10
-44.930455
20
-0.000000
30
-69.214308
0
VERTEX
8
0
6
CONTINUOUS
62
252
70
192
10
-44.575000
20
-0.000000
30
-69.048557
0
VERTEX
8
0
6
CONTINUOUS
62
252
70
192
10
-44.253728
20
-0.000000
30
-68.823600
0
VERTEX
8
0
6
CONTINUOUS
62
252
70
192
10
-43.976400
20
-0.000000
30
-68.546272
0
VERTEX
8
0
6
CONTINUOUS
62
252
70
192
10
-43.751443
20
-0.000000
30
-68.225000
0
VERTEX
8
0
6
CONTINUOUS
62
252
70
192
10
-43.585692
20
-0.000000
30
-67.869545
0
VERTEX
8
0
6
CONTINUOUS
62
252
70
192
10
-43.484183
20
-0.000000
30
-67.490708
0
VERTEX
8
0
6
CONTINUOUS
62
252
70
192
10
2.250000
20
0.000000
30
0.000000
0
VERTEX
8
0
6
CONTINUOUS
62
252
70
192
10
2.215817
20
0.000000
30
0.390708
0
VERTEX
8
0
6
CONTINUOUS
62
252
70
192
10
2.114308
20
0.000000
30
0.769545
0
VERTEX
8
0
6
CONTINUOUS
62
252
70
192
10
1.948557
20
0.000000
30
1.125000
0
VERTEX
8
0
6
CONTINUOUS
62
252
70
192
10
1.723600
20
0.000000
30
1.446272
0
VERTEX
8
0
6
CONTINUOUS
62
252
70
192
10
1.446272
20
0.000000
30
1.723600
0
VERTEX
8
0
6
CONTINUOUS
62
252
70
192
10
1.125000
20
0.000000
30
1.948557
0
VERTEX
8
0
6
CONTINUOUS
62
252
70
192
10
0.769545
20
0.000000
30
2.114308
0
VERTEX
8
0
6
CONTINUOUS
62
252
70
192
10
0.390708
20
0.000000
30
2.215817
0
VERTEX
8
0
6
CONTINUOUS
62
252
70
192
10
0.000000
20
0.000000
30
2.250000
0
VERTEX
8
0
6
CONTINUOUS
62
252
70
192
10
-0.390708
20
0.000000
30
2.215817
0
VERTEX
8
0
6
CONTINUOUS
62
252
70
192
10
-0.769545
20
0.000000
30
2.114308
0
VERTEX
8
0
6
CONTINUOUS
62
252
70
192
10
-1.125000
20
0.000000
30
1.948557
0
VERTEX
8
0
6
CONTINUOUS
62
252
70
192
10
-1.446272
20
0.000000
30
1.723600
0
VERTEX
8
0
6
CONTINUOUS
62
252
70
192
10
-1.723600
20
0.000000
30
1.446272
0
VERTEX
8
0
6
CONTINUOUS
62
252
70
192
10
-1.948557
20
0.000000
30
1.125000
0
VERTEX
8
0
6
CONTINUOUS
62
252
70
192
10
-2.114308
20
0.000000
30
0.769545
0
VERTEX
8
0
6
CONTINUOUS
62
252
70
192
10
-2.215817
20
0.000000
30
0.390708
0
VERTEX
8
0
6
CONTINUOUS
62
252
70
192
10
-2.250000
20
0.000000
30
0.000000
0
VERTEX
8
0
6
CONTINUOUS
62
252
70
192
10
-2.215817
20
-0.000000
30
-0.390708
0
VERTEX
8
0
6
CONTINUOUS
62
252
70
192
10
-2.114308
20
-0.000000
30
-0.769545
0
VERTEX
8
0
6
CONTINUOUS
62
252
70
192
10
-1.948557
20
-0.000000
30
-1.125000
0
VERTEX
8
0
6
CONTINUOUS
62
252
70
192
10
-1.723600
20
-0.000000
30
-1.446272
0
VERTEX
8
0
6
CONTINUOUS
62
252
70
192
10
-1.446272
20
-0.000000
30
-1.723600
0
VERTEX
8
0
6
CONTINUOUS
62
252
70
192
10
-1.125000
20
-0.000000
30
-1.948557
0
VERTEX
8
0
6
CONTINUOUS
62
252
70
192
10
-0.769545
20
-0.000000
30
-2.114308
0
VERTEX
8
0
6
CONTINUOUS
62
252
70
192
10
-0.390708
20
-0.000000
30
-2.215817
0
VERTEX
8
0
6
CONTINUOUS
62
252
70
192
10
-0.000000
20
-0.000000
30
-2.250000
0
VERTEX
8
0
6
CONTINUOUS
62
252
70
192
10
0.390708
20
-0.000000
30
-2.215817
0
VERTEX
8
0
6
CONTINUOUS
62
252
70
192
10
0.769545
20
-0.000000
30
-2.114308
0
VERTEX
8
0
6
CONTINUOUS
62
252
70
192
10
1.125000
20
-0.000000
30
-1.948557
0
VERTEX
8
0
6
CONTINUOUS
62
252
70
192
10
1.446272
20
-0.000000
30
-1.723600
0
VERTEX
8
0
6
CONTINUOUS
62
252
70
192
10
1.723600
20
-0.000000
30
-1.446272
0
VERTEX
8
0
6
CONTINUOUS
62
252
70
192
10
1.948557
20
-0.000000
30
-1.125000
0
VERTEX
8
0
6
CONTINUOUS
62
252
70
192
10
2.114308
20
-0.000000
30
-0.769545
0
VERTEX
8
0
6
CONTINUOUS
62
252
70
192
10
2.215817
20
-0.000000
30
-0.390708
0
VERTEX
8
0
6
CONTINUOUS
62
252
70
192
10
-2.895545
20
0.000000
30
2.382922
0
VERTEX
8
0
6
CONTINUOUS
62
252
70
192
10
-2.450027
20
0.000000
30
2.838991
0
VERTEX
8
0
6
CONTINUOUS
62
252
70
192
10
-1.933689
20
0.000000
30
3.212997
0
VERTEX
8
0
6
CONTINUOUS
62
252
70
192
10
-1.361456
20
0.000000
30
3.494129
0
VERTEX
8
0
6
CONTINUOUS
62
252
70
192
10
-0.749870
20
0.000000
30
3.674261
0
VERTEX
8
0
6
CONTINUOUS
62
252
70
192
10
-0.116609
20
0.000000
30
3.748187
0
VERTEX
8
0
6
CONTINUOUS
62
252
70
192
10
0.520023
20
0.000000
30
3.713768
0
VERTEX
8
0
6
CONTINUOUS
62
252
70
192
10
1.141624
20
0.000000
30
3.572002
0
VERTEX
8
0
6
CONTINUOUS
62
252
70
192
10
1.730225
20
0.000000
30
3.326984
0
VERTEX
8
0
6
CONTINUOUS
62
252
70
192
10
2.268813
20
0.000000
30
2.985797
0
VERTEX
8
0
6
CONTINUOUS
62
252
70
192
10
2.741820
20
0.000000
30
2.558305
0
VERTEX
8
0
6
CONTINUOUS
62
252
70
192
10
3.135572
20
0.000000
30
2.056863
0
VERTEX
8
0
6
CONTINUOUS
62
252
70
192
10
3.438689
20
0.000000
30
1.495966
0
VERTEX
8
0
6
CONTINUOUS
62
252
70
192
10
3.642409
20
0.000000
30
0.891828
0
VERTEX
8
0
6
CONTINUOUS
62
252
70
192
10
3.740843
20
0.000000
30
0.261910
0
VERTEX
8
0
6
CONTINUOUS
62
252
70
192
10
3.731145
20
-0.000000
30
-0.375578
0
VERTEX
8
0
6
CONTINUOUS
62
252
70
192
10
3.613596
20
-0.000000
30
-1.002210
0
VERTEX
8
0
6
CONTINUOUS
62
252
70
192
10
3.391594
20
-0.000000
30
-1.599872
0
VERTEX
8
0
6
CONTINUOUS
62
252
70
192
10
3.071556
20
-0.000000
30
-2.151289
0
VERTEX
8
0
6
CONTINUOUS
62
252
70
192
10
2.659064
20
-0.000000
30
-2.856612
0
VERTEX
8
0
6
CONTINUOUS
62
252
70
192
10
2.366956
20
-0.000000
30
-3.619699
0
VERTEX
8
0
6
CONTINUOUS
62
252
70
192
10
2.203034
20
-0.000000
30
-4.420173
0
VERTEX
8
0
6
CONTINUOUS
62
252
70
192
10
2.171674
20
-0.000000
30
-5.236657
0
VERTEX
8
0
6
CONTINUOUS
62
252
70
192
10
2.273714
20
-0.000000
30
-6.047347
0
VERTEX
8
0
6
CONTINUOUS
62
252
70
192
10
2.506429
20
-0.000000
30
-6.830592
0
VERTEX
8
0
6
CONTINUOUS
62
252
70
192
10
2.863604
20
-0.000000
30
-7.565476
0
VERTEX
8
0
6
CONTINUOUS
62
252
70
192
10
3.335702
20
-0.000000
30
-8.232375
0
VERTEX
8
0
6
CONTINUOUS
62
252
70
192
10
6.193232
20
-0.000000
30
-12.174839
0
VERTEX
8
0
6
CONTINUOUS
62
252
70
192
10
8.467273
20
-0.000000
30
-16.480329
0
VERTEX
8
0
6
CONTINUOUS
62
252
70
192
10
10.112527
20
-0.000000
30
-21.063084
0
VERTEX
8
0
6
CONTINUOUS
62
252
70
192
10
11.096224
20
-0.000000
30
-25.831820
0
VERTEX
8
0
6
CONTINUOUS
62
252
70
192
10
11.398768
20
-0.000000
30
-30.691550
0
VERTEX
8
0
6
CONTINUOUS
62
252
70
192
10
11.409883
20
-0.000000
30
-30.848918
0
VERTEX
8
0
6
CONTINUOUS
62
252
70
192
10
11.445608
20
-0.000000
30
-31.002581
0
VERTEX
8
0
6
CONTINUOUS
62
252
70
192
10
11.505056
20
-0.000000
30
-31.148712
0
VERTEX
8
0
6
CONTINUOUS
62
252
70
192
10
11.586745
20
-0.000000
30
-31.283676
0
VERTEX
8
0
6
CONTINUOUS
62
252
70
192
10
11.688644
20
-0.000000
30
-31.404113
0
VERTEX
8
0
6
CONTINUOUS
62
252
70
192
10
11.808215
20
-0.000000
30
-31.507026
0
VERTEX
8
0
6
CONTINUOUS
62
252
70
192
10
11.942484
20
-0.000000
30
-31.589853
0
VERTEX
8
0
6
CONTINUOUS
62
252
70
192
10
12.088108
20
-0.000000
30
-31.650533
0
VERTEX
8
0
6
CONTINUOUS
62
252
70
192
10
12.241463
20
-0.000000
30
-31.687556
0
VERTEX
8
0
6
CONTINUOUS
62
252
70
192
10
12.398732
20
-0.000000
30
-31.700001
0
VERTEX
8
0
6
CONTINUOUS
62
252
70
192
10
16.500000
20
-0.000000
30
-31.700001
0
VERTEX
8
0
6
CONTINUOUS
62
252
70
192
10
16.500000
20
-0.000000
30
-71.600001
0
VERTEX
8
0
6
CONTINUOUS
62
252
70
192
10
-19.000000
20
-0.000000
30
-71.600001
0
VERTEX
8
0
6
CONTINUOUS
62
252
70
192
10
-24.948526
20
-0.000000
30
-71.157453
0
VERTEX
8
0
6
CONTINUOUS
62
252
70
192
10
-30.766081
20
-0.000000
30
-69.839555
0
VERTEX
8
0
6
CONTINUOUS
62
252
70
192
10
-36.324580
20
-0.000000
30
-67.675322
0
VERTEX
8
0
6
CONTINUOUS
62
252
70
192
10
-37.154159
20
-0.000000
30
-67.364400
0
VERTEX
8
0
6
CONTINUOUS
62
252
70
192
10
-38.025028
20
-0.000000
30
-67.201733
0
VERTEX
8
0
6
CONTINUOUS
62
252
70
192
10
-38.910909
20
-0.000000
30
-67.192229
0
VERTEX
8
0
6
CONTINUOUS
62
252
70
192
10
-39.785068
20
-0.000000
30
-67.336174
0
VERTEX
8
0
6
CONTINUOUS
62
252
70
192
10
-40.621127
20
-0.000000
30
-67.629226
0
VERTEX
8
0
6
CONTINUOUS
62
252
70
192
10
-41.393857
20
-0.000000
30
-68.062541
0
VERTEX
8
0
6
CONTINUOUS
62
252
70
192
10
-42.079941
20
-0.000000
30
-68.623044
0
VERTEX
8
0
6
CONTINUOUS
62
252
70
192
10
-42.658675
20
-0.000000
30
-69.293820
0
VERTEX
8
0
6
CONTINUOUS
62
252
70
192
10
-43.066089
20
-0.000000
30
-69.769273
0
VERTEX
8
0
6
CONTINUOUS
62
252
70
192
10
-43.546932
20
-0.000000
30
-70.170310
0
VERTEX
8
0
6
CONTINUOUS
62
252
70
192
10
-44.087799
20
-0.000000
30
-70.485751
0
VERTEX
8
0
6
CONTINUOUS
62
252
70
192
10
-44.673612
20
-0.000000
30
-70.706804
0
VERTEX
8
0
6
CONTINUOUS
62
252
70
192
10
-45.288039
20
-0.000000
30
-70.827304
0
VERTEX
8
0
6
CONTINUOUS
62
252
70
192
10
-45.913951
20
-0.000000
30
-70.843892
0
VERTEX
8
0
6
CONTINUOUS
62
252
70
192
10
-46.533899
20
-0.000000
30
-70.756107
0
VERTEX
8
0
6
CONTINUOUS
62
252
70
192
10
-47.130598
20
-0.000000
30
-70.566395
0
VERTEX
8
0
6
CONTINUOUS
62
252
70
192
10
-47.687415
20
-0.000000
30
-70.280045
0
VERTEX
8
0
6
CONTINUOUS
62
252
70
192
10
-48.188825
20
-0.000000
30
-69.905040
0
VERTEX
8
0
6
CONTINUOUS
62
252
70
192
10
-48.620851
20
-0.000000
30
-69.451836
0
VERTEX
8
0
6
CONTINUOUS
62
252
70
192
10
-48.971448
20
-0.000000
30
-68.933066
0
VERTEX
8
0
6
CONTINUOUS
62
252
70
192
10
-49.230842
20
-0.000000
30
-68.363192
0
VERTEX
8
0
6
CONTINUOUS
62
252
70
192
10
-49.391802
20
-0.000000
30
-67.758103
0
VERTEX
8
0
6
CONTINUOUS
62
252
70
192
10
-49.449840
20
-0.000000
30
-67.134667
0
VERTEX
8
0
6
CONTINUOUS
62
252
70
192
10
-49.403338
20
-0.000000
30
-66.510265
0
VERTEX
8
0
6
CONTINUOUS
62
252
70
192
10
-49.253593
20
-0.000000
30
-65.902303
0
VERTEX
8
0
6
CONTINUOUS
62
252
70
192
10
-49.004779
20
-0.000000
30
-65.327731
0
VERTEX
8
0
6
CONTINUOUS
62
252
70
192
10
-48.663833
20
-0.000000
30
-64.802568
0
VERTEX
8
0
6
CONTINUOUS
62
252
70
192
10
-48.183936
20
-0.000000
30
-64.057871
0
VERTEX
8
0
6
CONTINUOUS
62
252
70
192
10
-47.840154
20
-0.000000
30
-63.241362
0
VERTEX
8
0
6
CONTINUOUS
62
252
70
192
10
-47.642860
20
-0.000000
30
-62.377678
0
VERTEX
8
0
6
CONTINUOUS
62
252
70
192
10
-47.598008
20
-0.000000
30
-61.492883
0
VERTEX
8
0
6
CONTINUOUS
62
252
70
192
10
-47.706952
20
-0.000000
30
-60.613675
0
VERTEX
8
0
6
CONTINUOUS
62
252
70
192
10
-47.966403
20
-0.000000
30
-59.766587
0
VERTEX
8
0
6
CONTINUOUS
62
252
70
192
10
-48.368534
20
-0.000000
30
-58.977179
0
VERTEX
8
0
6
CONTINUOUS
62
252
70
192
10
-48.901208
20
-0.000000
30
-58.269272
0
VERTEX
8
0
6
CONTINUOUS
62
252
70
192
10
-52.495627
20
-0.000000
30
-53.627977
0
VERTEX
8
0
6
CONTINUOUS
62
252
70
192
10
-55.375764
20
-0.000000
30
-48.512679
0
VERTEX
8
0
6
CONTINUOUS
62
252
70
192
10
-57.480201
20
-0.000000
30
-43.032460
0
VERTEX
8
0
6
CONTINUOUS
62
252
70
192
10
-58.764062
20
-0.000000
30
-37.304182
0
VERTEX
8
0
6
CONTINUOUS
62
252
70
192
10
-59.199969
20
-0.000000
30
-31.450000
0
VERTEX
8
0
6
CONTINUOUS
62
252
70
192
10
-59.199323
20
-0.000000
30
-31.266660
0
VERTEX
8
0
6
CONTINUOUS
62
252
70
192
10
-59.197841
20
-0.000000
30
-31.083326
0
VERTEX
8
0
6
CONTINUOUS
62
252
70
192
10
-59.195522
20
-0.000000
30
-30.899999
0
VERTEX
8
0
6
CONTINUOUS
62
252
70
192
10
-59.178092
20
-0.000000
30
-30.173007
0
VERTEX
8
0
6
CONTINUOUS
62
252
70
192
10
-59.147515
20
-0.000000
30
-29.446448
0
VERTEX
8
0
6
CONTINUOUS
62
252
70
192
10
-59.103799
20
-0.000000
30
-28.720562
0
VERTEX
8
0
6
CONTINUOUS
62
252
70
192
10
-57.981616
20
-0.000000
30
-22.778689
0
VERTEX
8
0
6
CONTINUOUS
62
252
70
192
10
-55.893833
20
-0.000000
30
-17.103630
0
VERTEX
8
0
6
CONTINUOUS
62
252
70
192
10
-52.897751
20
-0.000000
30
-11.851141
0
VERTEX
8
0
6
CONTINUOUS
62
252
70
192
10
-49.075602
20
-0.000000
30
-7.165384
0
VERTEX
8
0
6
CONTINUOUS
62
252
70
192
10
-44.532288
20
-0.000000
30
-3.174965
0
VERTEX
8
0
6
CONTINUOUS
62
252
70
192
10
-39.392506
20
0.000000
30
0.010594
0
VERTEX
8
0
6
CONTINUOUS
62
252
70
192
10
-34.906610
20
0.000000
30
2.016878
0
VERTEX
8
0
6
CONTINUOUS
62
252
70
192
10
-30.181176
20
0.000000
30
3.365470
0
VERTEX
8
0
6
CONTINUOUS
62
252
70
192
10
-25.312075
20
0.000000
30
4.029010
0
VERTEX
8
0
6
CONTINUOUS
62
252
70
192
10
-20.398094
20
0.000000
30
3.994036
0
VERTEX
8
0
6
CONTINUOUS
62
252
70
192
10
-15.538931
20
0.000000
30
3.261257
0
VERTEX
8
0
6
CONTINUOUS
62
252
70
192
10
-15.062843
20
0.000000
30
3.150769
0
VERTEX
8
0
6
CONTINUOUS
62
252
70
192
10
-14.588368
20
0.000000
30
3.033548
0
VERTEX
8
0
6
CONTINUOUS
62
252
70
192
10
-14.115601
20
0.000000
30
2.909617
0
VERTEX
8
0
6
CONTINUOUS
62
252
70
192
10
-12.318489
20
0.000000
30
2.372077
0
VERTEX
8
0
6
CONTINUOUS
62
252
70
192
10
-10.553248
20
0.000000
30
1.737657
0
VERTEX
8
0
6
CONTINUOUS
62
252
70
192
10
-8.825098
20
0.000000
30
1.008234
0
VERTEX
8
0
6
CONTINUOUS
62
252
70
192
10
-8.056100
20
0.000000
30
0.732063
0
VERTEX
8
0
6
CONTINUOUS
62
252
70
192
10
-7.252389
20
0.000000
30
0.584826
0
VERTEX
8
0
6
CONTINUOUS
62
252
70
192
10
-6.435429
20
0.000000
30
0.570457
0
VERTEX
8
0
6
CONTINUOUS
62
252
70
192
10
-5.627038
20
0.000000
30
0.689338
0
VERTEX
8
0
6
CONTINUOUS
62
252
70
192
10
-4.848803
20
0.000000
30
0.938295
0
VERTEX
8
0
6
CONTINUOUS
62
252
70
192
10
-4.121507
20
0.000000
30
1.310680
0
VERTEX
8
0
6
CONTINUOUS
62
252
70
192
10
-3.464574
20
0.000000
30
1.796547
0
VERTEX
8
0
6
CONTINUOUS
62
252
70
128
10
0.000000
20
0.000000
30
0.000000
71
36
72
1
73
126
0
VERTEX
8
0
6
CONTINUOUS
62
252
70
128
10
0.000000
20
0.000000
30
0.000000
71
126
72
1
73
2
0
VERTEX
8
0
6
CONTINUOUS
62
252
70
128
10
0.000000
20
0.000000
30
0.000000
71
126
72
2
73
125
0
VERTEX
8
0
6
CONTINUOUS
62
252
70
128
10
0.000000
20
0.000000
30
0.000000
71
125
72
2
73
3
0
VERTEX
8
0
6
CONTINUOUS
62
252
70
128
10
0.000000
20
0.000000
30
0.000000
71
125
72
3
73
4
0
VERTEX
8
0
6
CONTINUOUS
62
252
70
128
10
0.000000
20
0.000000
30
0.000000
71
125
72
4
73
124
0
VERTEX
8
0
6
CONTINUOUS
62
252
70
128
10
0.000000
20
0.000000
30
0.000000
71
124
72
4
73
5
0
VERTEX
8
0
6
CONTINUOUS
62
252
70
128
10
0.000000
20
0.000000
30
0.000000
71
124
72
5
73
123
0
VERTEX
8
0
6
CONTINUOUS
62
252
70
128
10
0.000000
20
0.000000
30
0.000000
71
123
72
5
73
6
0
VERTEX
8
0
6
CONTINUOUS
62
252
70
128
10
0.000000
20
0.000000
30
0.000000
71
123
72
6
73
152
0
VERTEX
8
0
6
CONTINUOUS
62
252
70
128
10
0.000000
20
0.000000
30
0.000000
71
152
72
6
73
7
0
VERTEX
8
0
6
CONTINUOUS
62
252
70
128
10
0.000000
20
0.000000
30
0.000000
71
152
72
7
73
8
0
VERTEX
8
0
6
CONTINUOUS
62
252
70
128
10
0.000000
20
0.000000
30
0.000000
71
152
72
8
73
151
0
VERTEX
8
0
6
CONTINUOUS
62
252
70
128
10
0.000000
20
0.000000
30
0.000000
71
151
72
8
73
9
0
VERTEX
8
0
6
CONTINUOUS
62
252
70
128
10
0.000000
20
0.000000
30
0.000000
71
151
72
9
73
150
0
VERTEX
8
0
6
CONTINUOUS
62
252
70
128
10
0.000000
20
0.000000
30
0.000000
71
150
72
9
73
10
0
VERTEX
8
0
6
CONTINUOUS
62
252
70
128
10
0.000000
20
0.000000
30
0.000000
71
150
72
10
73
11
0
VERTEX
8
0
6
CONTINUOUS
62
252
70
128
10
0.000000
20
0.000000
30
0.000000
71
150
72
11
73
149
0
VERTEX
8
0
6
CONTINUOUS
62
252
70
128
10
0.000000
20
0.000000
30
0.000000
71
149
72
11
73
12
0
VERTEX
8
0
6
CONTINUOUS
62
252
70
128
10
0.000000
20
0.000000
30
0.000000
71
149
72
12
73
148
0
VERTEX
8
0
6
CONTINUOUS
62
252
70
128
10
0.000000
20
0.000000
30
0.000000
71
148
72
12
73
13
0
VERTEX
8
0
6
CONTINUOUS
62
252
70
128
10
0.000000
20
0.000000
30
0.000000
71
148
72
13
73
14
0
VERTEX
8
0
6
CONTINUOUS
62
252
70
128
10
0.000000
20
0.000000
30
0.000000
71
148
72
14
73
147
0
VERTEX
8
0
6
CONTINUOUS
62
252
70
128
10
0.000000
20
0.000000
30
0.000000
71
147
72
14
73
15
0
VERTEX
8
0
6
CONTINUOUS
62
252
70
128
10
0.000000
20
0.000000
30
0.000000
71
147
72
15
73
16
0
VERTEX
8
0
6
CONTINUOUS
62
252
70
128
10
0.000000
20
0.000000
30
0.000000
71
147
72
16
73
146
0
VERTEX
8
0
6
CONTINUOUS
62
252
70
128
10
0.000000
20
0.000000
30
0.000000
71
146
72
16
73
17
0
VERTEX
8
0
6
CONTINUOUS
62
252
70
128
10
0.000000
20
0.000000
30
0.000000
71
146
72
17
73
145
0
VERTEX
8
0
6
CONTINUOUS
62
252
70
128
10
0.000000
20
0.000000
30
0.000000
71
145
72
17
73
18
0
VERTEX
8
0
6
CONTINUOUS
62
252
70
128
10
0.000000
20
0.000000
30
0.000000
71
145
72
18
73
144
0
VERTEX
8
0
6
CONTINUOUS
62
252
70
128
10
0.000000
20
0.000000
30
0.000000
71
144
72
18
73
19
0
VERTEX
8
0
6
CONTINUOUS
62
252
70
128
10
0.000000
20
0.000000
30
0.000000
71
144
72
19
73
143
0
VERTEX
8
0
6
CONTINUOUS
62
252
70
128
10
0.000000
20
0.000000
30
0.000000
71
143
72
19
73
20
0
VERTEX
8
0
6
CONTINUOUS
62
252
70
128
10
0.000000
20
0.000000
30
0.000000
71
143
72
20
73
142
0
VERTEX
8
0
6
CONTINUOUS
62
252
70
128
10
0.000000
20
0.000000
30
0.000000
71
142
72
20
73
141
0
VERTEX
8
0
6
CONTINUOUS
62
252
70
128
10
0.000000
20
0.000000
30
0.000000
71
141
72
20
73
21
0
VERTEX
8
0
6
CONTINUOUS
62
252
70
128
10
0.000000
20
0.000000
30
0.000000
71
141
72
21
73
140
0
VERTEX
8
0
6
CONTINUOUS
62
252
70
128
10
0.000000
20
0.000000
30
0.000000
71
140
72
21
73
22
0
VERTEX
8
0
6
CONTINUOUS
62
252
70
128
10
0.000000
20
0.000000
30
0.000000
71
140
72
22
73
139
0
VERTEX
8
0
6
CONTINUOUS
62
252
70
128
10
0.000000
20
0.000000
30
0.000000
71
139
72
22
73
23
0
VERTEX
8
0
6
CONTINUOUS
62
252
70
128
10
0.000000
20
0.000000
30
0.000000
71
139
72
23
73
138
0
VERTEX
8
0
6
CONTINUOUS
62
252
70
128
10
0.000000
20
0.000000
30
0.000000
71
138
72
23
73
24
0
VERTEX
8
0
6
CONTINUOUS
62
252
70
128
10
0.000000
20
0.000000
30
0.000000
71
138
72
24
73
137
0
VERTEX
8
0
6
CONTINUOUS
62
252
70
128
10
0.000000
20
0.000000
30
0.000000
71
137
72
24
73
25
0
VERTEX
8
0
6
CONTINUOUS
62
252
70
128
10
0.000000
20
0.000000
30
0.000000
71
137
72
25
73
136
0
VERTEX
8
0
6
CONTINUOUS
62
252
70
128
10
0.000000
20
0.000000
30
0.000000
71
136
72
25
73
26
0
VERTEX
8
0
6
CONTINUOUS
62
252
70
128
10
0.000000
20
0.000000
30
0.000000
71
136
72
26
73
135
0
VERTEX
8
0
6
CONTINUOUS
62
252
70
128
10
0.000000
20
0.000000
30
0.000000
71
135
72
26
73
27
0
VERTEX
8
0
6
CONTINUOUS
62
252
70
128
10
0.000000
20
0.000000
30
0.000000
71
135
72
27
73
134
0
VERTEX
8
0
6
CONTINUOUS
62
252
70
128
10
0.000000
20
0.000000
30
0.000000
71
134
72
27
73
28
0
VERTEX
8
0
6
CONTINUOUS
62
252
70
128
10
0.000000
20
0.000000
30
0.000000
71
134
72
28
73
133
0
VERTEX
8
0
6
CONTINUOUS
62
252
70
128
10
0.000000
20
0.000000
30
0.000000
71
133
72
28
73
29
0
VERTEX
8
0
6
CONTINUOUS
62
252
70
128
10
0.000000
20
0.000000
30
0.000000
71
133
72
29
73
132
0
VERTEX
8
0
6
CONTINUOUS
62
252
70
128
10
0.000000
20
0.000000
30
0.000000
71
132
72
29
73
30
0
VERTEX
8
0
6
CONTINUOUS
62
252
70
128
10
0.000000
20
0.000000
30
0.000000
71
132
72
30
73
131
0
VERTEX
8
0
6
CONTINUOUS
62
252
70
128
10
0.000000
20
0.000000
30
0.000000
71
131
72
30
73
31
0
VERTEX
8
0
6
CONTINUOUS
62
252
70
128
10
0.000000
20
0.000000
30
0.000000
71
131
72
31
73
130
0
VERTEX
8
0
6
CONTINUOUS
62
252
70
128
10
0.000000
20
0.000000
30
0.000000
71
130
72
31
73
32
0
VERTEX
8
0
6
CONTINUOUS
62
252
70
128
10
0.000000
20
0.000000
30
0.000000
71
130
72
32
73
129
0
VERTEX
8
0
6
CONTINUOUS
62
252
70
128
10
0.000000
20
0.000000
30
0.000000
71
129
72
32
73
33
0
VERTEX
8
0
6
CONTINUOUS
62
252
70
128
10
0.000000
20
0.000000
30
0.000000
71
129
72
33
73
128
0
VERTEX
8
0
6
CONTINUOUS
62
252
70
128
10
0.000000
20
0.000000
30
0.000000
71
128
72
33
73
34
0
VERTEX
8
0
6
CONTINUOUS
62
252
70
128
10
0.000000
20
0.000000
30
0.000000
71
128
72
34
73
127
0
VERTEX
8
0
6
CONTINUOUS
62
252
70
128
10
0.000000
20
0.000000
30
0.000000
71
127
72
34
73
35
0
VERTEX
8
0
6
CONTINUOUS
62
252
70
128
10
0.000000
20
0.000000
30
0.000000
71
127
72
35
73
36
0
VERTEX
8
0
6
CONTINUOUS
62
252
70
128
10
0.000000
20
0.000000
30
0.000000
71
127
72
36
73
126
0
VERTEX
8
0
6
CONTINUOUS
62
252
70
128
10
0.000000
20
0.000000
30
0.000000
71
38
72
87
73
37
0
VERTEX
8
0
6
CONTINUOUS
62
252
70
128
10
0.000000
20
0.000000
30
0.000000
71
37
72
87
73
88
0
VERTEX
8
0
6
CONTINUOUS
62
252
70
128
10
0.000000
20
0.000000
30
0.000000
71
37
72
88
73
72
0
VERTEX
8
0
6
CONTINUOUS
62
252
70
128
10
0.000000
20
0.000000
30
0.000000
71
72
72
88
73
89
0
VERTEX
8
0
6
CONTINUOUS
62
252
70
128
10
0.000000
20
0.000000
30
0.000000
71
72
72
89
73
71
0
VERTEX
8
0
6
CONTINUOUS
62
252
70
128
10
0.000000
20
0.000000
30
0.000000
71
71
72
89
73
90
0
VERTEX
8
0
6
CONTINUOUS
62
252
70
128
10
0.000000
20
0.000000
30
0.000000
71
71
72
90
73
70
0
VERTEX
8
0
6
CONTINUOUS
62
252
70
128
10
0.000000
20
0.000000
30
0.000000
71
70
72
90
73
91
0
VERTEX
8
0
6
CONTINUOUS
62
252
70
128
10
0.000000
20
0.000000
30
0.000000
71
70
72
91
73
69
0
VERTEX
8
0
6
CONTINUOUS
62
252
70
128
10
0.000000
20
0.000000
30
0.000000
71
69
72
91
73
92
0
VERTEX
8
0
6
CONTINUOUS
62
252
70
128
10
0.000000
20
0.000000
30
0.000000
71
69
72
92
73
68
0
VERTEX
8
0
6
CONTINUOUS
62
252
70
128
10
0.000000
20
0.000000
30
0.000000
71
68
72
92
73
67
0
VERTEX
8
0
6
CONTINUOUS
62
252
70
128
10
0.000000
20
0.000000
30
0.000000
71
67
72
92
73
93
0
VERTEX
8
0
6
CONTINUOUS
62
252
70
128
10
0.000000
20
0.000000
30
0.000000
71
67
72
93
73
66
0
VERTEX
8
0
6
CONTINUOUS
62
252
70
128
10
0.000000
20
0.000000
30
0.000000
71
66
72
93
73
65
0
VERTEX
8
0
6
CONTINUOUS
62
252
70
128
10
0.000000
20
0.000000
30
0.000000
71
65
72
93
73
94
0
VERTEX
8
0
6
CONTINUOUS
62
252
70
128
10
0.000000
20
0.000000
30
0.000000
71
65
72
94
73
64
0
VERTEX
8
0
6
CONTINUOUS
62
252
70
128
10
0.000000
20
0.000000
30
0.000000
71
64
72
94
73
95
0
VERTEX
8
0
6
CONTINUOUS
62
252
70
128
10
0.000000
20
0.000000
30
0.000000
71
64
72
95
73
63
0
VERTEX
8
0
6
CONTINUOUS
62
252
70
128
10
0.000000
20
0.000000
30
0.000000
71
63
72
95
73
62
0
VERTEX
8
0
6
CONTINUOUS
62
252
70
128
10
0.000000
20
0.000000
30
0.000000
71
62
72
95
73
96
0
VERTEX
8
0
6
CONTINUOUS
62
252
70
128
10
0.000000
20
0.000000
30
0.000000
71
62
72
96
73
61
0
VERTEX
8
0
6
CONTINUOUS
62
252
70
128
10
0.000000
20
0.000000
30
0.000000
71
61
72
96
73
97
0
VERTEX
8
0
6
CONTINUOUS
62
252
70
128
10
0.000000
20
0.000000
30
0.000000
71
61
72
97
73
60
0
VERTEX
8
0
6
CONTINUOUS
62
252
70
128
10
0.000000
20
0.000000
30
0.000000
71
60
72
97
73
185
0
VERTEX
8
0
6
CONTINUOUS
62
252
70
128
10
0.000000
20
0.000000
30
0.000000
71
60
72
185
73
186
0
VERTEX
8
0
6
CONTINUOUS
62
252
70
128
10
0.000000
20
0.000000
30
0.000000
71
87
72
38
73
86
0
VERTEX
8
0
6
CONTINUOUS
62
252
70
128
10
0.000000
20
0.000000
30
0.000000
71
86
72
38
73
39
0
VERTEX
8
0
6
CONTINUOUS
62
252
70
128
10
0.000000
20
0.000000
30
0.000000
71
86
72
39
73
85
0
VERTEX
8
0
6
CONTINUOUS
62
252
70
128
10
0.000000
20
0.000000
30
0.000000
71
85
72
39
73
40
0
VERTEX
8
0
6
CONTINUOUS
62
252
70
128
10
0.000000
20
0.000000
30
0.000000
71
85
72
40
73
84
0
VERTEX
8
0
6
CONTINUOUS
62
252
70
128
10
0.000000
20
0.000000
30
0.000000
71
84
72
40
73
41
0
VERTEX
8
0
6
CONTINUOUS
62
252
70
128
10
0.000000
20
0.000000
30
0.000000
71
84
72
41
73
83
0
VERTEX
8
0
6
CONTINUOUS
62
252
70
128
10
0.000000
20
0.000000
30
0.000000
71
83
72
41
73
42
0
VERTEX
8
0
6
CONTINUOUS
62
252
70
128
10
0.000000
20
0.000000
30
0.000000
71
83
72
42
73
82
0
VERTEX
8
0
6
CONTINUOUS
62
252
70
128
10
0.000000
20
0.000000
30
0.000000
71
82
72
42
73
43
0
VERTEX
8
0
6
CONTINUOUS
62
252
70
128
10
0.000000
20
0.000000
30
0.000000
71
82
72
43
73
81
0
VERTEX
8
0
6
CONTINUOUS
62
252
70
128
10
0.000000
20
0.000000
30
0.000000
71
81
72
43
73
44
0
VERTEX
8
0
6
CONTINUOUS
62
252
70
128
10
0.000000
20
0.000000
30
0.000000
71
81
72
44
73
80
0
VERTEX
8
0
6
CONTINUOUS
62
252
70
128
10
0.000000
20
0.000000
30
0.000000
71
80
72
44
73
45
0
VERTEX
8
0
6
CONTINUOUS
62
252
70
128
10
0.000000
20
0.000000
30
0.000000
71
80
72
45
73
79
0
VERTEX
8
0
6
CONTINUOUS
62
252
70
128
10
0.000000
20
0.000000
30
0.000000
71
79
72
45
73
46
0
VERTEX
8
0
6
CONTINUOUS
62
252
70
128
10
0.000000
20
0.000000
30
0.000000
71
79
72
46
73
78
0
VERTEX
8
0
6
CONTINUOUS
62
252
70
128
10
0.000000
20
0.000000
30
0.000000
71
78
72
46
73
47
0
VERTEX
8
0
6
CONTINUOUS
62
252
70
128
10
0.000000
20
0.000000
30
0.000000
71
78
72
47
73
77
0
VERTEX
8
0
6
CONTINUOUS
62
252
70
128
10
0.000000
20
0.000000
30
0.000000
71
77
72
47
73
48
0
VERTEX
8
0
6
CONTINUOUS
62
252
70
128
10
0.000000
20
0.000000
30
0.000000
71
77
72
48
73
76
0
VERTEX
8
0
6
CONTINUOUS
62
252
70
128
10
0.000000
20
0.000000
30
0.000000
71
76
72
48
73
49
0
VERTEX
8
0
6
CONTINUOUS
62
252
70
128
10
0.000000
20
0.000000
30
0.000000
71
76
72
49
73
75
0
VERTEX
8
0
6
CONTINUOUS
62
252
70
128
10
0.000000
20
0.000000
30
0.000000
71
75
72
49
73
50
0
VERTEX
8
0
6
CONTINUOUS
62
252
70
128
10
0.000000
20
0.000000
30
0.000000
71
75
72
50
73
74
0
VERTEX
8
0
6
CONTINUOUS
62
252
70
128
10
0.000000
20
0.000000
30
0.000000
71
74
72
50
73
51
0
VERTEX
8
0
6
CONTINUOUS
62
252
70
128
10
0.000000
20
0.000000
30
0.000000
71
74
72
51
73
73
0
VERTEX
8
0
6
CONTINUOUS
62
252
70
128
10
0.000000
20
0.000000
30
0.000000
71
73
72
51
73
52
0
VERTEX
8
0
6
CONTINUOUS
62
252
70
128
10
0.000000
20
0.000000
30
0.000000
71
73
72
52
73
190
0
VERTEX
8
0
6
CONTINUOUS
62
252
70
128
10
0.000000
20
0.000000
30
0.000000
71
190
72
52
73
53
0
VERTEX
8
0
6
CONTINUOUS
62
252
70
128
10
0.000000
20
0.000000
30
0.000000
71
190
72
53
73
54
0
VERTEX
8
0
6
CONTINUOUS
62
252
70
128
10
0.000000
20
0.000000
30
0.000000
71
190
72
54
73
189
0
VERTEX
8
0
6
CONTINUOUS
62
252
70
128
10
0.000000
20
0.000000
30
0.000000
71
189
72
54
73
55
0
VERTEX
8
0
6
CONTINUOUS
62
252
70
128
10
0.000000
20
0.000000
30
0.000000
71
189
72
55
73
188
0
VERTEX
8
0
6
CONTINUOUS
62
252
70
128
10
0.000000
20
0.000000
30
0.000000
71
188
72
55
73
56
0
VERTEX
8
0
6
CONTINUOUS
62
252
70
128
10
0.000000
20
0.000000
30
0.000000
71
188
72
56
73
57
0
VERTEX
8
0
6
CONTINUOUS
62
252
70
128
10
0.000000
20
0.000000
30
0.000000
71
188
72
57
73
187
0
VERTEX
8
0
6
CONTINUOUS
62
252
70
128
10
0.000000
20
0.000000
30
0.000000
71
187
72
57
73
58
0
VERTEX
8
0
6
CONTINUOUS
62
252
70
128
10
0.000000
20
0.000000
30
0.000000
71
187
72
58
73
186
0
VERTEX
8
0
6
CONTINUOUS
62
252
70
128
10
0.000000
20
0.000000
30
0.000000
71
186
72
58
73
59
0
VERTEX
8
0
6
CONTINUOUS
62
252
70
128
10
0.000000
20
0.000000
30
0.000000
71
186
72
59
73
60
0
VERTEX
8
0
6
CONTINUOUS
62
252
70
128
10
0.000000
20
0.000000
30
0.000000
71
185
72
97
73
184
0
VERTEX
8
0
6
CONTINUOUS
62
252
70
128
10
0.000000
20
0.000000
30
0.000000
71
184
72
97
73
98
0
VERTEX
8
0
6
CONTINUOUS
62
252
70
128
10
0.000000
20
0.000000
30
0.000000
71
184
72
98
73
183
0
VERTEX
8
0
6
CONTINUOUS
62
252
70
128
10
0.000000
20
0.000000
30
0.000000
71
183
72
98
73
99
0
VERTEX
8
0
6
CONTINUOUS
62
252
70
128
10
0.000000
20
0.000000
30
0.000000
71
183
72
99
73
172
0
VERTEX
8
0
6
CONTINUOUS
62
252
70
128
10
0.000000
20
0.000000
30
0.000000
71
172
72
99
73
100
0
VERTEX
8
0
6
CONTINUOUS
62
252
70
128
10
0.000000
20
0.000000
30
0.000000
71
172
72
100
73
101
0
VERTEX
8
0
6
CONTINUOUS
62
252
70
128
10
0.000000
20
0.000000
30
0.000000
71
101
72
102
73
172
0
VERTEX
8
0
6
CONTINUOUS
62
252
70
128
10
0.000000
20
0.000000
30
0.000000
71
172
72
102
73
103
0
VERTEX
8
0
6
CONTINUOUS
62
252
70
128
10
0.000000
20
0.000000
30
0.000000
71
172
72
103
73
104
0
VERTEX
8
0
6
CONTINUOUS
62
252
70
128
10
0.000000
20
0.000000
30
0.000000
71
105
72
157
73
104
0
VERTEX
8
0
6
CONTINUOUS
62
252
70
128
10
0.000000
20
0.000000
30
0.000000
71
104
72
157
73
158
0
VERTEX
8
0
6
CONTINUOUS
62
252
70
128
10
0.000000
20
0.000000
30
0.000000
71
104
72
158
73
159
0
VERTEX
8
0
6
CONTINUOUS
62
252
70
128
10
0.000000
20
0.000000
30
0.000000
71
106
72
119
73
105
0
VERTEX
8
0
6
CONTINUOUS
62
252
70
128
10
0.000000
20
0.000000
30
0.000000
71
105
72
119
73
120
0
VERTEX
8
0
6
CONTINUOUS
62
252
70
128
10
0.000000
20
0.000000
30
0.000000
71
105
72
120
73
155
0
VERTEX
8
0
6
CONTINUOUS
62
252
70
128
10
0.000000
20
0.000000
30
0.000000
71
155
72
120
73
154
0
VERTEX
8
0
6
CONTINUOUS
62
252
70
128
10
0.000000
20
0.000000
30
0.000000
71
154
72
120
73
121
0
VERTEX
8
0
6
CONTINUOUS
62
252
70
128
10
0.000000
20
0.000000
30
0.000000
71
154
72
121
73
153
0
VERTEX
8
0
6
CONTINUOUS
62
252
70
128
10
0.000000
20
0.000000
30
0.000000
71
153
72
121
73
122
0
VERTEX
8
0
6
CONTINUOUS
62
252
70
128
10
0.000000
20
0.000000
30
0.000000
71
153
72
122
73
152
0
VERTEX
8
0
6
CONTINUOUS
62
252
70
128
10
0.000000
20
0.000000
30
0.000000
71
152
72
122
73
123
0
VERTEX
8
0
6
CONTINUOUS
62
252
70
128
10
0.000000
20
0.000000
30
0.000000
71
107
72
117
73
106
0
VERTEX
8
0
6
CONTINUOUS
62
252
70
128
10
0.000000
20
0.000000
30
0.000000
71
106
72
117
73
118
0
VERTEX
8
0
6
CONTINUOUS
62
252
70
128
10
0.000000
20
0.000000
30
0.000000
71
106
72
118
73
119
0
VERTEX
8
0
6
CONTINUOUS
62
252
70
128
10
0.000000
20
0.000000
30
0.000000
71
107
72
108
73
117
0
VERTEX
8
0
6
CONTINUOUS
62
252
70
128
10
0.000000
20
0.000000
30
0.000000
71
117
72
108
73
109
0
VERTEX
8
0
6
CONTINUOUS
62
252
70
128
10
0.000000
20
0.000000
30
0.000000
71
117
72
109
73
110
0
VERTEX
8
0
6
CONTINUOUS
62
252
70
128
10
0.000000
20
0.000000
30
0.000000
71
110
72
111
73
117
0
VERTEX
8
0
6
CONTINUOUS
62
252
70
128
10
0.000000
20
0.000000
30
0.000000
71
117
72
111
73
116
0
VERTEX
8
0
6
CONTINUOUS
62
252
70
128
10
0.000000
20
0.000000
30
0.000000
71
116
72
111
73
112
0
VERTEX
8
0
6
CONTINUOUS
62
252
70
128
10
0.000000
20
0.000000
30
0.000000
71
116
72
112
73
113
0
VERTEX
8
0
6
CONTINUOUS
62
252
70
128
10
0.000000
20
0.000000
30
0.000000
71
113
72
114
73
116
0
VERTEX
8
0
6
CONTINUOUS
62
252
70
128
10
0.000000
20
0.000000
30
0.000000
71
116
72
114
73
115
0
VERTEX
8
0
6
CONTINUOUS
62
252
70
128
10
0.000000
20
0.000000
30
0.000000
71
155
72
156
73
105
0
VERTEX
8
0
6
CONTINUOUS
62
252
70
128
10
0.000000
20
0.000000
30
0.000000
71
105
72
156
73
157
0
VERTEX
8
0
6
CONTINUOUS
62
252
70
128
10
0.000000
20
0.000000
30
0.000000
71
159
72
160
73
104
0
VERTEX
8
0
6
CONTINUOUS
62
252
70
128
10
0.000000
20
0.000000
30
0.000000
71
104
72
160
73
167
0
VERTEX
8
0
6
CONTINUOUS
62
252
70
128
10
0.000000
20
0.000000
30
0.000000
71
104
72
167
73
168
0
VERTEX
8
0
6
CONTINUOUS
62
252
70
128
10
0.000000
20
0.000000
30
0.000000
71
160
72
161
73
167
0
VERTEX
8
0
6
CONTINUOUS
62
252
70
128
10
0.000000
20
0.000000
30
0.000000
71
167
72
161
73
162
0
VERTEX
8
0
6
CONTINUOUS
62
252
70
128
10
0.000000
20
0.000000
30
0.000000
71
167
72
162
73
163
0
VERTEX
8
0
6
CONTINUOUS
62
252
70
128
10
0.000000
20
0.000000
30
0.000000
71
163
72
164
73
167
0
VERTEX
8
0
6
CONTINUOUS
62
252
70
128
10
0.000000
20
0.000000
30
0.000000
71
167
72
164
73
165
0
VERTEX
8
0
6
CONTINUOUS
62
252
70
128
10
0.000000
20
0.000000
30
0.000000
71
167
72
165
73
166
0
VERTEX
8
0
6
CONTINUOUS
62
252
70
128
10
0.000000
20
0.000000
30
0.000000
71
168
72
169
73
104
0
VERTEX
8
0
6
CONTINUOUS
62
252
70
128
10
0.000000
20
0.000000
30
0.000000
71
104
72
169
73
170
0
VERTEX
8
0
6
CONTINUOUS
62
252
70
128
10
0.000000
20
0.000000
30
0.000000
71
104
72
170
73
171
0
VERTEX
8
0
6
CONTINUOUS
62
252
70
128
10
0.000000
20
0.000000
30
0.000000
71
171
72
172
73
104
0
VERTEX
8
0
6
CONTINUOUS
62
252
70
128
10
0.000000
20
0.000000
30
0.000000
71
173
72
177
73
172
0
VERTEX
8
0
6
CONTINUOUS
62
252
70
128
10
0.000000
20
0.000000
30
0.000000
71
172
72
177
73
178
0
VERTEX
8
0
6
CONTINUOUS
62
252
70
128
10
0.000000
20
0.000000
30
0.000000
71
172
72
178
73
179
0
VERTEX
8
0
6
CONTINUOUS
62
252
70
128
10
0.000000
20
0.000000
30
0.000000
71
173
72
174
73
177
0
VERTEX
8
0
6
CONTINUOUS
62
252
70
128
10
0.000000
20
0.000000
30
0.000000
71
177
72
174
73
176
0
VERTEX
8
0
6
CONTINUOUS
62
252
70
128
10
0.000000
20
0.000000
30
0.000000
71
176
72
174
73
175
0
VERTEX
8
0
6
CONTINUOUS
62
252
70
128
10
0.000000
20
0.000000
30
0.000000
71
179
72
180
73
172
0
VERTEX
8
0
6
CONTINUOUS
62
252
70
128
10
0.000000
20
0.000000
30
0.000000
71
172
72
180
73
181
0
VERTEX
8
0
6
CONTINUOUS
62
252
70
128
10
0.000000
20
0.000000
30
0.000000
71
172
72
181
73
182
0
VERTEX
8
0
6
CONTINUOUS
62
252
70
128
10
0.000000
20
0.000000
30
0.000000
71
182
72
183
73
172
0
SEQEND
0
POLYLINE
66
1
8
0
6
CONTINUOUS
62
252
70
64
75
0
10
0.000000
20
0.000000
30
0.000000
0
VERTEX
8
0
6
CONTINUOUS
62
252
70
192
10
3.650000
20
-30.000000
30
-30.900000
0
VERTEX
8
0
6
CONTINUOUS
62
252
70
192
10
3.266396
20
-30.000000
30
-35.284616
0
VERTEX
8
0
6
CONTINUOUS
62
252
70
192
10
2.127239
20
-30.000000
30
-39.536009
0
VERTEX
8
0
6
CONTINUOUS
62
252
70
192
10
0.267141
20
-30.000000
30
-43.525000
0
VERTEX
8
0
6
CONTINUOUS
62
252
70
192
10
-2.257378
20
-30.000000
30
-47.130387
0
VERTEX
8
0
6
CONTINUOUS
62
252
70
192
10
-5.369613
20
-30.000000
30
-50.242622
0
VERTEX
8
0
6
CONTINUOUS
62
252
70
192
10
-8.975000
20
-30.000000
30
-52.767141
0
VERTEX
8
0
6
CONTINUOUS
62
252
70
192
10
-12.963991
20
-30.000000
30
-54.627239
0
VERTEX
8
0
6
CONTINUOUS
62
252
70
192
10
-17.215384
20
-30.000000
30
-55.766396
0
VERTEX
8
0
6
CONTINUOUS
62
252
70
192
10
-21.600000
20
-30.000000
30
-56.150000
0
VERTEX
8
0
6
CONTINUOUS
62
252
70
192
10
-25.984616
20
-30.000000
30
-55.766396
0
VERTEX
8
0
6
CONTINUOUS
62
252
70
192
10
-30.236009
20
-30.000000
30
-54.627239
0
VERTEX
8
0
6
CONTINUOUS
62
252
70
192
10
-34.225000
20
-30.000000
30
-52.767141
0
VERTEX
8
0
6
CONTINUOUS
62
252
70
192
10
-37.830387
20
-30.000000
30
-50.242622
0
VERTEX
8
0
6
CONTINUOUS
62
252
70
192
10
-40.942622
20
-30.000000
30
-47.130387
0
VERTEX
8
0
6
CONTINUOUS
62
252
70
192
10
-43.467141
20
-30.000000
30
-43.525000
0
VERTEX
8
0
6
CONTINUOUS
62
252
70
192
10
-45.327239
20
-30.000000
30
-39.536009
0
VERTEX
8
0
6
CONTINUOUS
62
252
70
192
10
-46.466396
20
-30.000000
30
-35.284616
0
VERTEX
8
0
6
CONTINUOUS
62
252
70
192
10
-46.850000
20
-30.000000
30
-30.900000
0
VERTEX
8
0
6
CONTINUOUS
62
252
70
192
10
-46.466396
20
-30.000000
30
-26.515384
0
VERTEX
8
0
6
CONTINUOUS
62
252
70
192
10
-45.327239
20
-30.000000
30
-22.263991
0
VERTEX
8
0
6
CONTINUOUS
62
252
70
192
10
-43.467141
20
-30.000000
30
-18.275000
0
VERTEX
8
0
6
CONTINUOUS
62
252
70
192
10
-40.942622
20
-30.000000
30
-14.669613
0
VERTEX
8
0
6
CONTINUOUS
62
252
70
192
10
-37.830387
20
-30.000000
30
-11.557378
0
VERTEX
8
0
6
CONTINUOUS
62
252
70
192
10
-34.225000
20
-30.000000
30
-9.032859
0
VERTEX
8
0
6
CONTINUOUS
62
252
70
192
10
-30.236009
20
-30.000000
30
-7.172761
0
VERTEX
8
0
6
CONTINUOUS
62
252
70
192
10
-25.984616
20
-30.000000
30
-6.033604
0
VERTEX
8
0
6
CONTINUOUS
62
252
70
192
10
-21.600000
20
-30.000000
30
-5.650000
0
VERTEX
8
0
6
CONTINUOUS
62
252
70
192
10
-17.215384
20
-30.000000
30
-6.033604
0
VERTEX
8
0
6
CONTINUOUS
62
252
70
192
10
-12.963991
20
-30.000000
30
-7.172761
0
VERTEX
8
0
6
CONTINUOUS
62
252
70
192
10
-8.975000
20
-30.000000
30
-9.032859
0
VERTEX
8
0
6
CONTINUOUS
62
252
70
192
10
-5.369613
20
-30.000000
30
-11.557378
0
VERTEX
8
0
6
CONTINUOUS
62
252
70
192
10
-2.257378
20
-30.000000
30
-14.669613
0
VERTEX
8
0
6
CONTINUOUS
62
252
70
192
10
0.267141
20
-30.000000
30
-18.275000
0
VERTEX
8
0
6
CONTINUOUS
62
252
70
192
10
2.127239
20
-30.000000
30
-22.263991
0
VERTEX
8
0
6
CONTINUOUS
62
252
70
192
10
3.266396
20
-30.000000
30
-26.515384
0
VERTEX
8
0
6
CONTINUOUS
62
252
70
192
10
-43.450000
20
-30.000000
30
-67.100000
0
VERTEX
8
0
6
CONTINUOUS
62
252
70
192
10
-43.484183
20
-30.000000
30
-67.490708
0
VERTEX
8
0
6
CONTINUOUS
62
252
70
192
10
-43.585692
20
-30.000000
30
-67.869545
0
VERTEX
8
0
6
CONTINUOUS
62
252
70
192
10
-43.751443
20
-30.000000
30
-68.225000
0
VERTEX
8
0
6
CONTINUOUS
62
252
70
192
10
-43.976400
20
-30.000000
30
-68.546272
0
VERTEX
8
0
6
CONTINUOUS
62
252
70
192
10
-44.253728
20
-30.000000
30
-68.823600
0
VERTEX
8
0
6
CONTINUOUS
62
252
70
192
10
-44.575000
20
-30.000000
30
-69.048557
0
VERTEX
8
0
6
CONTINUOUS
62
252
70
192
10
-44.930455
20
-30.000000
30
-69.214308
0
VERTEX
8
0
6
CONTINUOUS
62
252
70
192
10
-45.309292
20
-30.000000
30
-69.315817
0
VERTEX
8
0
6
CONTINUOUS
62
252
70
192
10
-45.700000
20
-30.000000
30
-69.350000
0
VERTEX
8
0
6
CONTINUOUS
62
252
70
192
10
-46.090708
20
-30.000000
30
-69.315817
0
VERTEX
8
0
6
CONTINUOUS
62
252
70
192
10
-46.469545
20
-30.000000
30
-69.214308
0
VERTEX
8
0
6
CONTINUOUS
62
252
70
192
10
-46.825000
20
-30.000000
30
-69.048557
0
VERTEX
8
0
6
CONTINUOUS
62
252
70
192
10
-47.146272
20
-30.000000
30
-68.823600
0
VERTEX
8
0
6
CONTINUOUS
62
252
70
192
10
-47.423600
20
-30.000000
30
-68.546272
0
VERTEX
8
0
6
CONTINUOUS
62
252
70
192
10
-47.648557
20
-30.000000
30
-68.225000
0
VERTEX
8
0
6
CONTINUOUS
62
252
70
192
10
-47.814308
20
-30.000000
30
-67.869545
0
VERTEX
8
0
6
CONTINUOUS
62
252
70
192
10
-47.915817
20
-30.000000
30
-67.490708
0
VERTEX
8
0
6
CONTINUOUS
62
252
70
192
10
-47.950000
20
-30.000000
30
-67.100000
0
VERTEX
8
0
6
CONTINUOUS
62
252
70
192
10
-47.915817
20
-30.000000
30
-66.709292
0
VERTEX
8
0
6
CONTINUOUS
62
252
70
192
10
-47.814308
20
-30.000000
30
-66.330455
0
VERTEX
8
0
6
CONTINUOUS
62
252
70
192
10
-47.648557
20
-30.000000
30
-65.975000
0
VERTEX
8
0
6
CONTINUOUS
62
252
70
192
10
-47.423600
20
-30.000000
30
-65.653728
0
VERTEX
8
0
6
CONTINUOUS
62
252
70
192
10
-47.146272
20
-30.000000
30
-65.376400
0
VERTEX
8
0
6
CONTINUOUS
62
252
70
192
10
-46.825000
20
-30.000000
30
-65.151443
0
VERTEX
8
0
6
CONTINUOUS
62
252
70
192
10
-46.469545
20
-30.000000
30
-64.985692
0
VERTEX
8
0
6
CONTINUOUS
62
252
70
192
10
-46.090708
20
-30.000000
30
-64.884183
0
VERTEX
8
0
6
CONTINUOUS
62
252
70
192
10
-45.700000
20
-30.000000
30
-64.850000
0
VERTEX
8
0
6
CONTINUOUS
62
252
70
192
10
-45.309292
20
-30.000000
30
-64.884183
0
VERTEX
8
0
6
CONTINUOUS
62
252
70
192
10
-44.930455
20
-30.000000
30
-64.985692
0
VERTEX
8
0
6
CONTINUOUS
62
252
70
192
10
-44.575000
20
-30.000000
30
-65.151443
0
VERTEX
8
0
6
CONTINUOUS
62
252
70
192
10
-44.253728
20
-30.000000
30
-65.376400
0
VERTEX
8
0
6
CONTINUOUS
62
252
70
192
10
-43.976400
20
-30.000000
30
-65.653728
0
VERTEX
8
0
6
CONTINUOUS
62
252
70
192
10
-43.751443
20
-30.000000
30
-65.975000
0
VERTEX
8
0
6
CONTINUOUS
62
252
70
192
10
-43.585692
20
-30.000000
30
-66.330455
0
VERTEX
8
0
6
CONTINUOUS
62
252
70
192
10
-43.484183
20
-30.000000
30
-66.709292
0
VERTEX
8
0
6
CONTINUOUS
62
252
70
192
10
2.250000
20
-30.000000
30
0.000000
0
VERTEX
8
0
6
CONTINUOUS
62
252
70
192
10
2.215817
20
-30.000000
30
-0.390708
0
VERTEX
8
0
6
CONTINUOUS
62
252
70
192
10
2.114308
20
-30.000000
30
-0.769545
0
VERTEX
8
0
6
CONTINUOUS
62
252
70
192
10
1.948557
20
-30.000000
30
-1.125000
0
VERTEX
8
0
6
CONTINUOUS
62
252
70
192
10
1.723600
20
-30.000000
30
-1.446272
0
VERTEX
8
0
6
CONTINUOUS
62
252
70
192
10
1.446272
20
-30.000000
30
-1.723600
0
VERTEX
8
0
6
CONTINUOUS
62
252
70
192
10
1.125000
20
-30.000000
30
-1.948557
0
VERTEX
8
0
6
CONTINUOUS
62
252
70
192
10
0.769545
20
-30.000000
30
-2.114308
0
VERTEX
8
0
6
CONTINUOUS
62
252
70
192
10
0.390708
20
-30.000000
30
-2.215817
0
VERTEX
8
0
6
CONTINUOUS
62
252
70
192
10
0.000000
20
-30.000000
30
-2.250000
0
VERTEX
8
0
6
CONTINUOUS
62
252
70
192
10
-0.390708
20
-30.000000
30
-2.215817
0
VERTEX
8
0
6
CONTINUOUS
62
252
70
192
10
-0.769545
20
-30.000000
30
-2.114308
0
VERTEX
8
0
6
CONTINUOUS
62
252
70
192
10
-1.125000
20
-30.000000
30
-1.948557
0
VERTEX
8
0
6
CONTINUOUS
62
252
70
192
10
-1.446272
20
-30.000000
30
-1.723600
0
VERTEX
8
0
6
CONTINUOUS
62
252
70
192
10
-1.723600
20
-30.000000
30
-1.446272
0
VERTEX
8
0
6
CONTINUOUS
62
252
70
192
10
-1.948557
20
-30.000000
30
-1.125000
0
VERTEX
8
0
6
CONTINUOUS
62
252
70
192
10
-2.114308
20
-30.000000
30
-0.769545
0
VERTEX
8
0
6
CONTINUOUS
62
252
70
192
10
-2.215817
20
-30.000000
30
-0.390708
0
VERTEX
8
0
6
CONTINUOUS
62
252
70
192
10
-2.250000
20
-30.000000
30
-0.000000
0
VERTEX
8
0
6
CONTINUOUS
62
252
70
192
10
-2.215817
20
-30.000000
30
0.390708
0
VERTEX
8
0
6
CONTINUOUS
62
252
70
192
10
-2.114308
20
-30.000000
30
0.769545
0
VERTEX
8
0
6
CONTINUOUS
62
252
70
192
10
-1.948557
20
-30.000000
30
1.125000
0
VERTEX
8
0
6
CONTINUOUS
62
252
70
192
10
-1.723600
20
-30.000000
30
1.446272
0
VERTEX
8
0
6
CONTINUOUS
62
252
70
192
10
-1.446272
20
-30.000000
30
1.723600
0
VERTEX
8
0
6
CONTINUOUS
62
252
70
192
10
-1.125000
20
-30.000000
30
1.948557
0
VERTEX
8
0
6
CONTINUOUS
62
252
70
192
10
-0.769545
20
-30.000000
30
2.114308
0
VERTEX
8
0
6
CONTINUOUS
62
252
70
192
10
-0.390708
20
-30.000000
30
2.215817
0
VERTEX
8
0
6
CONTINUOUS
62
252
70
192
10
-0.000000
20
-30.000000
30
2.250000
0
VERTEX
8
0
6
CONTINUOUS
62
252
70
192
10
0.390708
20
-30.000000
30
2.215817
0
VERTEX
8
0
6
CONTINUOUS
62
252
70
192
10
0.769545
20
-30.000000
30
2.114308
0
VERTEX
8
0
6
CONTINUOUS
62
252
70
192
10
1.125000
20
-30.000000
30
1.948557
0
VERTEX
8
0
6
CONTINUOUS
62
252
70
192
10
1.446272
20
-30.000000
30
1.723600
0
VERTEX
8
0
6
CONTINUOUS
62
252
70
192
10
1.723600
20
-30.000000
30
1.446272
0
VERTEX
8
0
6
CONTINUOUS
62
252
70
192
10
1.948557
20
-30.000000
30
1.125000
0
VERTEX
8
0
6
CONTINUOUS
62
252
70
192
10
2.114308
20
-30.000000
30
0.769545
0
VERTEX
8
0
6
CONTINUOUS
62
252
70
192
10
2.215817
20
-30.000000
30
0.390708
0
VERTEX
8
0
6
CONTINUOUS
62
252
70
192
10
3.335702
20
-30.000000
30
-8.232375
0
VERTEX
8
0
6
CONTINUOUS
62
252
70
192
10
2.863604
20
-30.000000
30
-7.565476
0
VERTEX
8
0
6
CONTINUOUS
62
252
70
192
10
2.506429
20
-30.000000
30
-6.830592
0
VERTEX
8
0
6
CONTINUOUS
62
252
70
192
10
2.273714
20
-30.000000
30
-6.047347
0
VERTEX
8
0
6
CONTINUOUS
62
252
70
192
10
2.171674
20
-30.000000
30
-5.236657
0
VERTEX
8
0
6
CONTINUOUS
62
252
70
192
10
2.203034
20
-30.000000
30
-4.420173
0
VERTEX
8
0
6
CONTINUOUS
62
252
70
192
10
2.366956
20
-30.000000
30
-3.619699
0
VERTEX
8
0
6
CONTINUOUS
62
252
70
192
10
2.659064
20
-30.000000
30
-2.856612
0
VERTEX
8
0
6
CONTINUOUS
62
252
70
192
10
3.071556
20
-30.000000
30
-2.151289
0
VERTEX
8
0
6
CONTINUOUS
62
252
70
192
10
3.391594
20
-30.000000
30
-1.599872
0
VERTEX
8
0
6
CONTINUOUS
62
252
70
192
10
3.613596
20
-30.000000
30
-1.002210
0
VERTEX
8
0
6
CONTINUOUS
62
252
70
192
10
3.731145
20
-30.000000
30
-0.375578
0
VERTEX
8
0
6
CONTINUOUS
62
252
70
192
10
3.740843
20
-30.000000
30
0.261910
0
VERTEX
8
0
6
CONTINUOUS
62
252
70
192
10
3.642409
20
-30.000000
30
0.891828
0
VERTEX
8
0
6
CONTINUOUS
62
252
70
192
10
3.438689
20
-30.000000
30
1.495966
0
VERTEX
8
0
6
CONTINUOUS
62
252
70
192
10
3.135572
20
-30.000000
30
2.056863
0
VERTEX
8
0
6
CONTINUOUS
62
252
70
192
10
2.741820
20
-30.000000
30
2.558305
0
VERTEX
8
0
6
CONTINUOUS
62
252
70
192
10
2.268813
20
-30.000000
30
2.985797
0
VERTEX
8
0
6
CONTINUOUS
62
252
70
192
10
1.730225
20
-30.000000
30
3.326984
0
VERTEX
8
0
6
CONTINUOUS
62
252
70
192
10
1.141624
20
-30.000000
30
3.572002
0
VERTEX
8
0
6
CONTINUOUS
62
252
70
192
10
0.520023
20
-30.000000
30
3.713768
0
VERTEX
8
0
6
CONTINUOUS
62
252
70
192
10
-0.116609
20
-30.000000
30
3.748187
0
VERTEX
8
0
6
CONTINUOUS
62
252
70
192
10
-0.749870
20
-30.000000
30
3.674261
0
VERTEX
8
0
6
CONTINUOUS
62
252
70
192
10
-1.361456
20
-30.000000
30
3.494129
0
VERTEX
8
0
6
CONTINUOUS
62
252
70
192
10
-1.933689
20
-30.000000
30
3.212997
0
VERTEX
8
0
6
CONTINUOUS
62
252
70
192
10
-2.450027
20
-30.000000
30
2.838991
0
VERTEX
8
0
6
CONTINUOUS
62
252
70
192
10
-2.895545
20
-30.000000
30
2.382922
0
VERTEX
8
0
6
CONTINUOUS
62
252
70
192
10
-3.464574
20
-30.000000
30
1.796547
0
VERTEX
8
0
6
CONTINUOUS
62
252
70
192
10
-4.121507
20
-30.000000
30
1.310680
0
VERTEX
8
0
6
CONTINUOUS
62
252
70
192
10
-4.848803
20
-30.000000
30
0.938295
0
VERTEX
8
0
6
CONTINUOUS
62
252
70
192
10
-5.627038
20
-30.000000
30
0.689338
0
VERTEX
8
0
6
CONTINUOUS
62
252
70
192
10
-6.435429
20
-30.000000
30
0.570457
0
VERTEX
8
0
6
CONTINUOUS
62
252
70
192
10
-7.252389
20
-30.000000
30
0.584826
0
VERTEX
8
0
6
CONTINUOUS
62
252
70
192
10
-8.056100
20
-30.000000
30
0.732063
0
VERTEX
8
0
6
CONTINUOUS
62
252
70
192
10
-8.825098
20
-30.000000
30
1.008234
0
VERTEX
8
0
6
CONTINUOUS
62
252
70
192
10
-13.780933
20
-30.000000
30
2.817540
0
VERTEX
8
0
6
CONTINUOUS
62
252
70
192
10
-18.954692
20
-30.000000
30
3.850057
0
VERTEX
8
0
6
CONTINUOUS
62
252
70
192
10
-24.225390
20
-30.000000
30
4.081640
0
VERTEX
8
0
6
CONTINUOUS
62
252
70
192
10
-29.469771
20
-30.000000
30
3.506873
0
VERTEX
8
0
6
CONTINUOUS
62
252
70
192
10
-34.565195
20
-30.000000
30
2.139197
0
VERTEX
8
0
6
CONTINUOUS
62
252
70
192
10
-39.392506
20
-30.000000
30
0.010594
0
VERTEX
8
0
6
CONTINUOUS
62
252
70
192
10
-44.532288
20
-30.000000
30
-3.174965
0
VERTEX
8
0
6
CONTINUOUS
62
252
70
192
10
-49.075602
20
-30.000000
30
-7.165384
0
VERTEX
8
0
6
CONTINUOUS
62
252
70
192
10
-52.897751
20
-30.000000
30
-11.851141
0
VERTEX
8
0
6
CONTINUOUS
62
252
70
192
10
-55.893833
20
-30.000000
30
-17.103630
0
VERTEX
8
0
6
CONTINUOUS
62
252
70
192
10
-57.981616
20
-30.000000
30
-22.778689
0
VERTEX
8
0
6
CONTINUOUS
62
252
70
192
10
-59.103799
20
-30.000000
30
-28.720562
0
VERTEX
8
0
6
CONTINUOUS
62
252
70
192
10
-59.147515
20
-30.000000
30
-29.446448
0
VERTEX
8
0
6
CONTINUOUS
62
252
70
192
10
-59.178092
20
-30.000000
30
-30.173007
0
VERTEX
8
0
6
CONTINUOUS
62
252
70
192
10
-59.195522
20
-30.000000
30
-30.899999
0
VERTEX
8
0
6
CONTINUOUS
62
252
70
192
10
-59.197841
20
-30.000000
30
-31.083326
0
VERTEX
8
0
6
CONTINUOUS
62
252
70
192
10
-59.199323
20
-30.000000
30
-31.266660
0
VERTEX
8
0
6
CONTINUOUS
62
252
70
192
10
-59.199969
20
-30.000000
30
-31.450000
0
VERTEX
8
0
6
CONTINUOUS
62
252
70
192
10
-58.764062
20
-30.000000
30
-37.304182
0
VERTEX
8
0
6
CONTINUOUS
62
252
70
192
10
-57.480201
20
-30.000000
30
-43.032460
0
VERTEX
8
0
6
CONTINUOUS
62
252
70
192
10
-55.375764
20
-30.000000
30
-48.512679
0
VERTEX
8
0
6
CONTINUOUS
62
252
70
192
10
-52.495627
20
-30.000000
30
-53.627977
0
VERTEX
8
0
6
CONTINUOUS
62
252
70
192
10
-48.901208
20
-30.000000
30
-58.269272
0
VERTEX
8
0
6
CONTINUOUS
62
252
70
192
10
-48.368534
20
-30.000000
30
-58.977179
0
VERTEX
8
0
6
CONTINUOUS
62
252
70
192
10
-47.966403
20
-30.000000
30
-59.766587
0
VERTEX
8
0
6
CONTINUOUS
62
252
70
192
10
-47.706952
20
-30.000000
30
-60.613675
0
VERTEX
8
0
6
CONTINUOUS
62
252
70
192
10
-47.598008
20
-30.000000
30
-61.492883
0
VERTEX
8
0
6
CONTINUOUS
62
252
70
192
10
-47.642860
20
-30.000000
30
-62.377678
0
VERTEX
8
0
6
CONTINUOUS
62
252
70
192
10
-47.840154
20
-30.000000
30
-63.241362
0
VERTEX
8
0
6
CONTINUOUS
62
252
70
192
10
-48.183936
20
-30.000000
30
-64.057871
0
VERTEX
8
0
6
CONTINUOUS
62
252
70
192
10
-48.663833
20
-30.000000
30
-64.802568
0
VERTEX
8
0
6
CONTINUOUS
62
252
70
192
10
-49.004779
20
-30.000000
30
-65.327731
0
VERTEX
8
0
6
CONTINUOUS
62
252
70
192
10
-49.253593
20
-30.000000
30
-65.902303
0
VERTEX
8
0
6
CONTINUOUS
62
252
70
192
10
-49.403338
20
-30.000000
30
-66.510265
0
VERTEX
8
0
6
CONTINUOUS
62
252
70
192
10
-49.449840
20
-30.000000
30
-67.134667
0
VERTEX
8
0
6
CONTINUOUS
62
252
70
192
10
-49.391802
20
-30.000000
30
-67.758103
0
VERTEX
8
0
6
CONTINUOUS
62
252
70
192
10
-49.230842
20
-30.000000
30
-68.363192
0
VERTEX
8
0
6
CONTINUOUS
62
252
70
192
10
-48.971448
20
-30.000000
30
-68.933066
0
VERTEX
8
0
6
CONTINUOUS
62
252
70
192
10
-48.620851
20
-30.000000
30
-69.451836
0
VERTEX
8
0
6
CONTINUOUS
62
252
70
192
10
-48.188825
20
-30.000000
30
-69.905040
0
VERTEX
8
0
6
CONTINUOUS
62
252
70
192
10
-47.687415
20
-30.000000
30
-70.280045
0
VERTEX
8
0
6
CONTINUOUS
62
252
70
192
10
-47.130598
20
-30.000000
30
-70.566395
0
VERTEX
8
0
6
CONTINUOUS
62
252
70
192
10
-46.533899
20
-30.000000
30
-70.756107
0
VERTEX
8
0
6
CONTINUOUS
62
252
70
192
10
-45.913951
20
-30.000000
30
-70.843892
0
VERTEX
8
0
6
CONTINUOUS
62
252
70
192
10
-45.288039
20
-30.000000
30
-70.827304
0
VERTEX
8
0
6
CONTINUOUS
62
252
70
192
10
-44.673612
20
-30.000000
30
-70.706804
0
VERTEX
8
0
6
CONTINUOUS
62
252
70
192
10
-44.087799
20
-30.000000
30
-70.485751
0
VERTEX
8
0
6
CONTINUOUS
62
252
70
192
10
-43.546932
20
-30.000000
30
-70.170310
0
VERTEX
8
0
6
CONTINUOUS
62
252
70
192
10
-43.066089
20
-30.000000
30
-69.769273
0
VERTEX
8
0
6
CONTINUOUS
62
252
70
192
10
-42.658675
20
-30.000000
30
-69.293820
0
VERTEX
8
0
6
CONTINUOUS
62
252
70
192
10
-42.079941
20
-30.000000
30
-68.623044
0
VERTEX
8
0
6
CONTINUOUS
62
252
70
192
10
-41.393857
20
-30.000000
30
-68.062541
0
VERTEX
8
0
6
CONTINUOUS
62
252
70
192
10
-40.621127
20
-30.000000
30
-67.629226
0
VERTEX
8
0
6
CONTINUOUS
62
252
70
192
10
-39.785068
20
-30.000000
30
-67.336174
0
VERTEX
8
0
6
CONTINUOUS
62
252
70
192
10
-38.910909
20
-30.000000
30
-67.192229
0
VERTEX
8
0
6
CONTINUOUS
62
252
70
192
10
-38.025028
20
-30.000000
30
-67.201733
0
VERTEX
8
0
6
CONTINUOUS
62
252
70
192
10
-37.154159
20
-30.000000
30
-67.364400
0
VERTEX
8
0
6
CONTINUOUS
62
252
70
192
10
-36.324580
20
-30.000000
30
-67.675322
0
VERTEX
8
0
6
CONTINUOUS
62
252
70
192
10
-30.766081
20
-30.000000
30
-69.839555
0
VERTEX
8
0
6
CONTINUOUS
62
252
70
192
10
-24.948526
20
-30.000000
30
-71.157453
0
VERTEX
8
0
6
CONTINUOUS
62
252
70
192
10
-19.000000
20
-30.000000
30
-71.600001
0
VERTEX
8
0
6
CONTINUOUS
62
252
70
192
10
16.500000
20
-30.000000
30
-71.600001
0
VERTEX
8
0
6
CONTINUOUS
62
252
70
192
10
16.500000
20
-30.000000
30
-31.700001
0
VERTEX
8
0
6
CONTINUOUS
62
252
70
192
10
12.398732
20
-30.000000
30
-31.700001
0
VERTEX
8
0
6
CONTINUOUS
62
252
70
192
10
12.241463
20
-30.000000
30
-31.687556
0
VERTEX
8
0
6
CONTINUOUS
62
252
70
192
10
12.088108
20
-30.000000
30
-31.650533
0
VERTEX
8
0
6
CONTINUOUS
62
252
70
192
10
11.942484
20
-30.000000
30
-31.589853
0
VERTEX
8
0
6
CONTINUOUS
62
252
70
192
10
11.808215
20
-30.000000
30
-31.507026
0
VERTEX
8
0
6
CONTINUOUS
62
252
70
192
10
11.688644
20
-30.000000
30
-31.404113
0
VERTEX
8
0
6
CONTINUOUS
62
252
70
192
10
11.586745
20
-30.000000
30
-31.283676
0
VERTEX
8
0
6
CONTINUOUS
62
252
70
192
10
11.505056
20
-30.000000
30
-31.148712
0
VERTEX
8
0
6
CONTINUOUS
62
252
70
192
10
11.445608
20
-30.000000
30
-31.002581
0
VERTEX
8
0
6
CONTINUOUS
62
252
70
192
10
11.409883
20
-30.000000
30
-30.848918
0
VERTEX
8
0
6
CONTINUOUS
62
252
70
192
10
11.398768
20
-30.000000
30
-30.691550
0
VERTEX
8
0
6
CONTINUOUS
62
252
70
192
10
11.096224
20
-30.000000
30
-25.831820
0
VERTEX
8
0
6
CONTINUOUS
62
252
70
192
10
10.112527
20
-30.000000
30
-21.063084
0
VERTEX
8
0
6
CONTINUOUS
62
252
70
192
10
8.467273
20
-30.000000
30
-16.480329
0
VERTEX
8
0
6
CONTINUOUS
62
252
70
192
10
6.193232
20
-30.000000
30
-12.174839
0
VERTEX
8
0
6
CONTINUOUS
62
252
70
128
10
0.000000
20
0.000000
30
0.000000
71
2
72
214
73
1
0
VERTEX
8
0
6
CONTINUOUS
62
252
70
128
10
0.000000
20
0.000000
30
0.000000
71
1
72
214
73
215
0
VERTEX
8
0
6
CONTINUOUS
62
252
70
128
10
0.000000
20
0.000000
30
0.000000
71
1
72
215
73
216
0
VERTEX
8
0
6
CONTINUOUS
62
252
70
128
10
0.000000
20
0.000000
30
0.000000
71
3
72
209
73
2
0
VERTEX
8
0
6
CONTINUOUS
62
252
70
128
10
0.000000
20
0.000000
30
0.000000
71
2
72
209
73
210
0
VERTEX
8
0
6
CONTINUOUS
62
252
70
128
10
0.000000
20
0.000000
30
0.000000
71
2
72
210
73
211
0
VERTEX
8
0
6
CONTINUOUS
62
252
70
128
10
0.000000
20
0.000000
30
0.000000
71
4
72
206
73
3
0
VERTEX
8
0
6
CONTINUOUS
62
252
70
128
10
0.000000
20
0.000000
30
0.000000
71
3
72
206
73
207
0
VERTEX
8
0
6
CONTINUOUS
62
252
70
128
10
0.000000
20
0.000000
30
0.000000
71
3
72
207
73
208
0
VERTEX
8
0
6
CONTINUOUS
62
252
70
128
10
0.000000
20
0.000000
30
0.000000
71
206
72
4
73
205
0
VERTEX
8
0
6
CONTINUOUS
62
252
70
128
10
0.000000
20
0.000000
30
0.000000
71
205
72
4
73
5
0
VERTEX
8
0
6
CONTINUOUS
62
252
70
128
10
0.000000
20
0.000000
30
0.000000
71
205
72
5
73
6
0
VERTEX
8
0
6
CONTINUOUS
62
252
70
128
10
0.000000
20
0.000000
30
0.000000
71
6
72
7
73
205
0
VERTEX
8
0
6
CONTINUOUS
62
252
70
128
10
0.000000
20
0.000000
30
0.000000
71
205
72
7
73
204
0
VERTEX
8
0
6
CONTINUOUS
62
252
70
128
10
0.000000
20
0.000000
30
0.000000
71
204
72
7
73
8
0
VERTEX
8
0
6
CONTINUOUS
62
252
70
128
10
0.000000
20
0.000000
30
0.000000
71
204
72
8
73
9
0
VERTEX
8
0
6
CONTINUOUS
62
252
70
128
10
0.000000
20
0.000000
30
0.000000
71
9
72
10
73
204
0
VERTEX
8
0
6
CONTINUOUS
62
252
70
128
10
0.000000
20
0.000000
30
0.000000
71
204
72
10
73
203
0
VERTEX
8
0
6
CONTINUOUS
62
252
70
128
10
0.000000
20
0.000000
30
0.000000
71
203
72
10
73
11
0
VERTEX
8
0
6
CONTINUOUS
62
252
70
128
10
0.000000
20
0.000000
30
0.000000
71
203
72
11
73
202
0
VERTEX
8
0
6
CONTINUOUS
62
252
70
128
10
0.000000
20
0.000000
30
0.000000
71
202
72
11
73
12
0
VERTEX
8
0
6
CONTINUOUS
62
252
70
128
10
0.000000
20
0.000000
30
0.000000
71
202
72
12
73
201
0
VERTEX
8
0
6
CONTINUOUS
62
252
70
128
10
0.000000
20
0.000000
30
0.000000
71
201
72
12
73
200
0
VERTEX
8
0
6
CONTINUOUS
62
252
70
128
10
0.000000
20
0.000000
30
0.000000
71
200
72
12
73
13
0
VERTEX
8
0
6
CONTINUOUS
62
252
70
128
10
0.000000
20
0.000000
30
0.000000
71
200
72
13
73
199
0
VERTEX
8
0
6
CONTINUOUS
62
252
70
128
10
0.000000
20
0.000000
30
0.000000
71
199
72
13
73
198
0
VERTEX
8
0
6
CONTINUOUS
62
252
70
128
10
0.000000
20
0.000000
30
0.000000
71
198
72
13
73
68
0
VERTEX
8
0
6
CONTINUOUS
62
252
70
128
10
0.000000
20
0.000000
30
0.000000
71
198
72
68
73
69
0
VERTEX
8
0
6
CONTINUOUS
62
252
70
128
10
0.000000
20
0.000000
30
0.000000
71
14
72
168
73
13
0
VERTEX
8
0
6
CONTINUOUS
62
252
70
128
10
0.000000
20
0.000000
30
0.000000
71
13
72
168
73
169
0
VERTEX
8
0
6
CONTINUOUS
62
252
70
128
10
0.000000
20
0.000000
30
0.000000
71
13
72
169
73
67
0
VERTEX
8
0
6
CONTINUOUS
62
252
70
128
10
0.000000
20
0.000000
30
0.000000
71
67
72
169
73
66
0
VERTEX
8
0
6
CONTINUOUS
62
252
70
128
10
0.000000
20
0.000000
30
0.000000
71
66
72
169
73
170
0
VERTEX
8
0
6
CONTINUOUS
62
252
70
128
10
0.000000
20
0.000000
30
0.000000
71
66
72
170
73
65
0
VERTEX
8
0
6
CONTINUOUS
62
252
70
128
10
0.000000
20
0.000000
30
0.000000
71
65
72
170
73
171
0
VERTEX
8
0
6
CONTINUOUS
62
252
70
128
10
0.000000
20
0.000000
30
0.000000
71
65
72
171
73
64
0
VERTEX
8
0
6
CONTINUOUS
62
252
70
128
10
0.000000
20
0.000000
30
0.000000
71
64
72
171
73
63
0
VERTEX
8
0
6
CONTINUOUS
62
252
70
128
10
0.000000
20
0.000000
30
0.000000
71
63
72
171
73
172
0
VERTEX
8
0
6
CONTINUOUS
62
252
70
128
10
0.000000
20
0.000000
30
0.000000
71
63
72
172
73
62
0
VERTEX
8
0
6
CONTINUOUS
62
252
70
128
10
0.000000
20
0.000000
30
0.000000
71
62
72
172
73
173
0
VERTEX
8
0
6
CONTINUOUS
62
252
70
128
10
0.000000
20
0.000000
30
0.000000
71
62
72
173
73
61
0
VERTEX
8
0
6
CONTINUOUS
62
252
70
128
10
0.000000
20
0.000000
30
0.000000
71
61
72
173
73
60
0
VERTEX
8
0
6
CONTINUOUS
62
252
70
128
10
0.000000
20
0.000000
30
0.000000
71
60
72
173
73
174
0
VERTEX
8
0
6
CONTINUOUS
62
252
70
128
10
0.000000
20
0.000000
30
0.000000
71
60
72
174
73
59
0
VERTEX
8
0
6
CONTINUOUS
62
252
70
128
10
0.000000
20
0.000000
30
0.000000
71
59
72
174
73
58
0
VERTEX
8
0
6
CONTINUOUS
62
252
70
128
10
0.000000
20
0.000000
30
0.000000
71
58
72
174
73
175
0
VERTEX
8
0
6
CONTINUOUS
62
252
70
128
10
0.000000
20
0.000000
30
0.000000
71
58
72
175
73
57
0
VERTEX
8
0
6
CONTINUOUS
62
252
70
128
10
0.000000
20
0.000000
30
0.000000
71
57
72
175
73
176
0
VERTEX
8
0
6
CONTINUOUS
62
252
70
128
10
0.000000
20
0.000000
30
0.000000
71
57
72
176
73
56
0
VERTEX
8
0
6
CONTINUOUS
62
252
70
128
10
0.000000
20
0.000000
30
0.000000
71
56
72
176
73
177
0
VERTEX
8
0
6
CONTINUOUS
62
252
70
128
10
0.000000
20
0.000000
30
0.000000
71
56
72
177
73
55
0
VERTEX
8
0
6
CONTINUOUS
62
252
70
128
10
0.000000
20
0.000000
30
0.000000
71
55
72
177
73
178
0
VERTEX
8
0
6
CONTINUOUS
62
252
70
128
10
0.000000
20
0.000000
30
0.000000
71
55
72
178
73
54
0
VERTEX
8
0
6
CONTINUOUS
62
252
70
128
10
0.000000
20
0.000000
30
0.000000
71
54
72
178
73
179
0
VERTEX
8
0
6
CONTINUOUS
62
252
70
128
10
0.000000
20
0.000000
30
0.000000
71
54
72
179
73
180
0
VERTEX
8
0
6
CONTINUOUS
62
252
70
128
10
0.000000
20
0.000000
30
0.000000
71
15
72
166
73
14
0
VERTEX
8
0
6
CONTINUOUS
62
252
70
128
10
0.000000
20
0.000000
30
0.000000
71
14
72
166
73
167
0
VERTEX
8
0
6
CONTINUOUS
62
252
70
128
10
0.000000
20
0.000000
30
0.000000
71
14
72
167
73
168
0
VERTEX
8
0
6
CONTINUOUS
62
252
70
128
10
0.000000
20
0.000000
30
0.000000
71
166
72
15
73
165
0
VERTEX
8
0
6
CONTINUOUS
62
252
70
128
10
0.000000
20
0.000000
30
0.000000
71
165
72
15
73
16
0
VERTEX
8
0
6
CONTINUOUS
62
252
70
128
10
0.000000
20
0.000000
30
0.000000
71
165
72
16
73
164
0
VERTEX
8
0
6
CONTINUOUS
62
252
70
128
10
0.000000
20
0.000000
30
0.000000
71
164
72
16
73
17
0
VERTEX
8
0
6
CONTINUOUS
62
252
70
128
10
0.000000
20
0.000000
30
0.000000
71
164
72
17
73
163
0
VERTEX
8
0
6
CONTINUOUS
62
252
70
128
10
0.000000
20
0.000000
30
0.000000
71
163
72
17
73
18
0
VERTEX
8
0
6
CONTINUOUS
62
252
70
128
10
0.000000
20
0.000000
30
0.000000
71
163
72
18
73
162
0
VERTEX
8
0
6
CONTINUOUS
62
252
70
128
10
0.000000
20
0.000000
30
0.000000
71
162
72
18
73
161
0
VERTEX
8
0
6
CONTINUOUS
62
252
70
128
10
0.000000
20
0.000000
30
0.000000
71
161
72
18
73
19
0
VERTEX
8
0
6
CONTINUOUS
62
252
70
128
10
0.000000
20
0.000000
30
0.000000
71
161
72
19
73
160
0
VERTEX
8
0
6
CONTINUOUS
62
252
70
128
10
0.000000
20
0.000000
30
0.000000
71
160
72
19
73
159
0
VERTEX
8
0
6
CONTINUOUS
62
252
70
128
10
0.000000
20
0.000000
30
0.000000
71
159
72
19
73
158
0
VERTEX
8
0
6
CONTINUOUS
62
252
70
128
10
0.000000
20
0.000000
30
0.000000
71
158
72
19
73
157
0
VERTEX
8
0
6
CONTINUOUS
62
252
70
128
10
0.000000
20
0.000000
30
0.000000
71
157
72
19
73
156
0
VERTEX
8
0
6
CONTINUOUS
62
252
70
128
10
0.000000
20
0.000000
30
0.000000
71
156
72
19
73
155
0
VERTEX
8
0
6
CONTINUOUS
62
252
70
128
10
0.000000
20
0.000000
30
0.000000
71
155
72
19
73
20
0
VERTEX
8
0
6
CONTINUOUS
62
252
70
128
10
0.000000
20
0.000000
30
0.000000
71
155
72
20
73
154
0
VERTEX
8
0
6
CONTINUOUS
62
252
70
128
10
0.000000
20
0.000000
30
0.000000
71
154
72
20
73
21
0
VERTEX
8
0
6
CONTINUOUS
62
252
70
128
10
0.000000
20
0.000000
30
0.000000
71
154
72
21
73
153
0
VERTEX
8
0
6
CONTINUOUS
62
252
70
128
10
0.000000
20
0.000000
30
0.000000
71
153
72
21
73
22
0
VERTEX
8
0
6
CONTINUOUS
62
252
70
128
10
0.000000
20
0.000000
30
0.000000
71
153
72
22
73
152
0
VERTEX
8
0
6
CONTINUOUS
62
252
70
128
10
0.000000
20
0.000000
30
0.000000
71
152
72
22
73
23
0
VERTEX
8
0
6
CONTINUOUS
62
252
70
128
10
0.000000
20
0.000000
30
0.000000
71
152
72
23
73
151
0
VERTEX
8
0
6
CONTINUOUS
62
252
70
128
10
0.000000
20
0.000000
30
0.000000
71
151
72
23
73
24
0
VERTEX
8
0
6
CONTINUOUS
62
252
70
128
10
0.000000
20
0.000000
30
0.000000
71
151
72
24
73
150
0
VERTEX
8
0
6
CONTINUOUS
62
252
70
128
10
0.000000
20
0.000000
30
0.000000
71
150
72
24
73
149
0
VERTEX
8
0
6
CONTINUOUS
62
252
70
128
10
0.000000
20
0.000000
30
0.000000
71
149
72
24
73
25
0
VERTEX
8
0
6
CONTINUOUS
62
252
70
128
10
0.000000
20
0.000000
30
0.000000
71
149
72
25
73
148
0
VERTEX
8
0
6
CONTINUOUS
62
252
70
128
10
0.000000
20
0.000000
30
0.000000
71
148
72
25
73
26
0
VERTEX
8
0
6
CONTINUOUS
62
252
70
128
10
0.000000
20
0.000000
30
0.000000
71
148
72
26
73
147
0
VERTEX
8
0
6
CONTINUOUS
62
252
70
128
10
0.000000
20
0.000000
30
0.000000
71
147
72
26
73
27
0
VERTEX
8
0
6
CONTINUOUS
62
252
70
128
10
0.000000
20
0.000000
30
0.000000
71
147
72
27
73
146
0
VERTEX
8
0
6
CONTINUOUS
62
252
70
128
10
0.000000
20
0.000000
30
0.000000
71
146
72
27
73
28
0
VERTEX
8
0
6
CONTINUOUS
62
252
70
128
10
0.000000
20
0.000000
30
0.000000
71
146
72
28
73
145
0
VERTEX
8
0
6
CONTINUOUS
62
252
70
128
10
0.000000
20
0.000000
30
0.000000
71
145
72
28
73
29
0
VERTEX
8
0
6
CONTINUOUS
62
252
70
128
10
0.000000
20
0.000000
30
0.000000
71
145
72
29
73
144
0
VERTEX
8
0
6
CONTINUOUS
62
252
70
128
10
0.000000
20
0.000000
30
0.000000
71
144
72
29
73
30
0
VERTEX
8
0
6
CONTINUOUS
62
252
70
128
10
0.000000
20
0.000000
30
0.000000
71
144
72
30
73
143
0
VERTEX
8
0
6
CONTINUOUS
62
252
70
128
10
0.000000
20
0.000000
30
0.000000
71
143
72
30
73
142
0
VERTEX
8
0
6
CONTINUOUS
62
252
70
128
10
0.000000
20
0.000000
30
0.000000
71
142
72
30
73
31
0
VERTEX
8
0
6
CONTINUOUS
62
252
70
128
10
0.000000
20
0.000000
30
0.000000
71
142
72
31
73
141
0
VERTEX
8
0
6
CONTINUOUS
62
252
70
128
10
0.000000
20
0.000000
30
0.000000
71
141
72
31
73
140
0
VERTEX
8
0
6
CONTINUOUS
62
252
70
128
10
0.000000
20
0.000000
30
0.000000
71
140
72
31
73
87
0
VERTEX
8
0
6
CONTINUOUS
62
252
70
128
10
0.000000
20
0.000000
30
0.000000
71
140
72
87
73
88
0
VERTEX
8
0
6
CONTINUOUS
62
252
70
128
10
0.000000
20
0.000000
30
0.000000
71
32
72
85
73
31
0
VERTEX
8
0
6
CONTINUOUS
62
252
70
128
10
0.000000
20
0.000000
30
0.000000
71
31
72
85
73
86
0
VERTEX
8
0
6
CONTINUOUS
62
252
70
128
10
0.000000
20
0.000000
30
0.000000
71
31
72
86
73
87
0
VERTEX
8
0
6
CONTINUOUS
62
252
70
128
10
0.000000
20
0.000000
30
0.000000
71
33
72
110
73
32
0
VERTEX
8
0
6
CONTINUOUS
62
252
70
128
10
0.000000
20
0.000000
30
0.000000
71
32
72
110
73
111
0
VERTEX
8
0
6
CONTINUOUS
62
252
70
128
10
0.000000
20
0.000000
30
0.000000
71
32
72
111
73
112
0
VERTEX
8
0
6
CONTINUOUS
62
252
70
128
10
0.000000
20
0.000000
30
0.000000
71
34
72
221
73
33
0
VERTEX
8
0
6
CONTINUOUS
62
252
70
128
10
0.000000
20
0.000000
30
0.000000
71
33
72
221
73
109
0
VERTEX
8
0
6
CONTINUOUS
62
252
70
128
10
0.000000
20
0.000000
30
0.000000
71
33
72
109
73
110
0
VERTEX
8
0
6
CONTINUOUS
62
252
70
128
10
0.000000
20
0.000000
30
0.000000
71
221
72
34
73
220
0
VERTEX
8
0
6
CONTINUOUS
62
252
70
128
10
0.000000
20
0.000000
30
0.000000
71
220
72
34
73
35
0
VERTEX
8
0
6
CONTINUOUS
62
252
70
128
10
0.000000
20
0.000000
30
0.000000
71
220
72
35
73
219
0
VERTEX
8
0
6
CONTINUOUS
62
252
70
128
10
0.000000
20
0.000000
30
0.000000
71
219
72
35
73
36
0
VERTEX
8
0
6
CONTINUOUS
62
252
70
128
10
0.000000
20
0.000000
30
0.000000
71
219
72
36
73
218
0
VERTEX
8
0
6
CONTINUOUS
62
252
70
128
10
0.000000
20
0.000000
30
0.000000
71
218
72
36
73
1
0
VERTEX
8
0
6
CONTINUOUS
62
252
70
128
10
0.000000
20
0.000000
30
0.000000
71
218
72
1
73
217
0
VERTEX
8
0
6
CONTINUOUS
62
252
70
128
10
0.000000
20
0.000000
30
0.000000
71
217
72
1
73
216
0
VERTEX
8
0
6
CONTINUOUS
62
252
70
128
10
0.000000
20
0.000000
30
0.000000
71
72
72
37
73
195
0
VERTEX
8
0
6
CONTINUOUS
62
252
70
128
10
0.000000
20
0.000000
30
0.000000
71
195
72
37
73
38
0
VERTEX
8
0
6
CONTINUOUS
62
252
70
128
10
0.000000
20
0.000000
30
0.000000
71
195
72
38
73
194
0
VERTEX
8
0
6
CONTINUOUS
62
252
70
128
10
0.000000
20
0.000000
30
0.000000
71
194
72
38
73
39
0
VERTEX
8
0
6
CONTINUOUS
62
252
70
128
10
0.000000
20
0.000000
30
0.000000
71
194
72
39
73
40
0
VERTEX
8
0
6
CONTINUOUS
62
252
70
128
10
0.000000
20
0.000000
30
0.000000
71
194
72
40
73
193
0
VERTEX
8
0
6
CONTINUOUS
62
252
70
128
10
0.000000
20
0.000000
30
0.000000
71
193
72
40
73
41
0
VERTEX
8
0
6
CONTINUOUS
62
252
70
128
10
0.000000
20
0.000000
30
0.000000
71
193
72
41
73
192
0
VERTEX
8
0
6
CONTINUOUS
62
252
70
128
10
0.000000
20
0.000000
30
0.000000
71
192
72
41
73
42
0
VERTEX
8
0
6
CONTINUOUS
62
252
70
128
10
0.000000
20
0.000000
30
0.000000
71
192
72
42
73
191
0
VERTEX
8
0
6
CONTINUOUS
62
252
70
128
10
0.000000
20
0.000000
30
0.000000
71
191
72
42
73
43
0
VERTEX
8
0
6
CONTINUOUS
62
252
70
128
10
0.000000
20
0.000000
30
0.000000
71
191
72
43
73
190
0
VERTEX
8
0
6
CONTINUOUS
62
252
70
128
10
0.000000
20
0.000000
30
0.000000
71
190
72
43
73
44
0
VERTEX
8
0
6
CONTINUOUS
62
252
70
128
10
0.000000
20
0.000000
30
0.000000
71
190
72
44
73
189
0
VERTEX
8
0
6
CONTINUOUS
62
252
70
128
10
0.000000
20
0.000000
30
0.000000
71
189
72
44
73
45
0
VERTEX
8
0
6
CONTINUOUS
62
252
70
128
10
0.000000
20
0.000000
30
0.000000
71
189
72
45
73
188
0
VERTEX
8
0
6
CONTINUOUS
62
252
70
128
10
0.000000
20
0.000000
30
0.000000
71
188
72
45
73
46
0
VERTEX
8
0
6
CONTINUOUS
62
252
70
128
10
0.000000
20
0.000000
30
0.000000
71
188
72
46
73
187
0
VERTEX
8
0
6
CONTINUOUS
62
252
70
128
10
0.000000
20
0.000000
30
0.000000
71
187
72
46
73
47
0
VERTEX
8
0
6
CONTINUOUS
62
252
70
128
10
0.000000
20
0.000000
30
0.000000
71
187
72
47
73
186
0
VERTEX
8
0
6
CONTINUOUS
62
252
70
128
10
0.000000
20
0.000000
30
0.000000
71
186
72
47
73
48
0
VERTEX
8
0
6
CONTINUOUS
62
252
70
128
10
0.000000
20
0.000000
30
0.000000
71
186
72
48
73
185
0
VERTEX
8
0
6
CONTINUOUS
62
252
70
128
10
0.000000
20
0.000000
30
0.000000
71
185
72
48
73
49
0
VERTEX
8
0
6
CONTINUOUS
62
252
70
128
10
0.000000
20
0.000000
30
0.000000
71
185
72
49
73
184
0
VERTEX
8
0
6
CONTINUOUS
62
252
70
128
10
0.000000
20
0.000000
30
0.000000
71
184
72
49
73
50
0
VERTEX
8
0
6
CONTINUOUS
62
252
70
128
10
0.000000
20
0.000000
30
0.000000
71
184
72
50
73
183
0
VERTEX
8
0
6
CONTINUOUS
62
252
70
128
10
0.000000
20
0.000000
30
0.000000
71
183
72
50
73
51
0
VERTEX
8
0
6
CONTINUOUS
62
252
70
128
10
0.000000
20
0.000000
30
0.000000
71
183
72
51
73
182
0
VERTEX
8
0
6
CONTINUOUS
62
252
70
128
10
0.000000
20
0.000000
30
0.000000
71
182
72
51
73
52
0
VERTEX
8
0
6
CONTINUOUS
62
252
70
128
10
0.000000
20
0.000000
30
0.000000
71
182
72
52
73
181
0
VERTEX
8
0
6
CONTINUOUS
62
252
70
128
10
0.000000
20
0.000000
30
0.000000
71
181
72
52
73
53
0
VERTEX
8
0
6
CONTINUOUS
62
252
70
128
10
0.000000
20
0.000000
30
0.000000
71
181
72
53
73
180
0
VERTEX
8
0
6
CONTINUOUS
62
252
70
128
10
0.000000
20
0.000000
30
0.000000
71
180
72
53
73
54
0
VERTEX
8
0
6
CONTINUOUS
62
252
70
128
10
0.000000
20
0.000000
30
0.000000
71
67
72
68
73
13
0
VERTEX
8
0
6
CONTINUOUS
62
252
70
128
10
0.000000
20
0.000000
30
0.000000
71
198
72
69
73
197
0
VERTEX
8
0
6
CONTINUOUS
62
252
70
128
10
0.000000
20
0.000000
30
0.000000
71
197
72
69
73
70
0
VERTEX
8
0
6
CONTINUOUS
62
252
70
128
10
0.000000
20
0.000000
30
0.000000
71
197
72
70
73
196
0
VERTEX
8
0
6
CONTINUOUS
62
252
70
128
10
0.000000
20
0.000000
30
0.000000
71
196
72
70
73
71
0
VERTEX
8
0
6
CONTINUOUS
62
252
70
128
10
0.000000
20
0.000000
30
0.000000
71
196
72
71
73
72
0
VERTEX
8
0
6
CONTINUOUS
62
252
70
128
10
0.000000
20
0.000000
30
0.000000
71
196
72
72
73
195
0
VERTEX
8
0
6
CONTINUOUS
62
252
70
128
10
0.000000
20
0.000000
30
0.000000
71
74
72
120
73
73
0
VERTEX
8
0
6
CONTINUOUS
62
252
70
128
10
0.000000
20
0.000000
30
0.000000
71
73
72
120
73
121
0
VERTEX
8
0
6
CONTINUOUS
62
252
70
128
10
0.000000
20
0.000000
30
0.000000
71
73
72
121
73
108
0
VERTEX
8
0
6
CONTINUOUS
62
252
70
128
10
0.000000
20
0.000000
30
0.000000
71
108
72
121
73
122
0
VERTEX
8
0
6
CONTINUOUS
62
252
70
128
10
0.000000
20
0.000000
30
0.000000
71
108
72
122
73
107
0
VERTEX
8
0
6
CONTINUOUS
62
252
70
128
10
0.000000
20
0.000000
30
0.000000
71
107
72
122
73
123
0
VERTEX
8
0
6
CONTINUOUS
62
252
70
128
10
0.000000
20
0.000000
30
0.000000
71
107
72
123
73
106
0
VERTEX
8
0
6
CONTINUOUS
62
252
70
128
10
0.000000
20
0.000000
30
0.000000
71
106
72
123
73
124
0
VERTEX
8
0
6
CONTINUOUS
62
252
70
128
10
0.000000
20
0.000000
30
0.000000
71
106
72
124
73
105
0
VERTEX
8
0
6
CONTINUOUS
62
252
70
128
10
0.000000
20
0.000000
30
0.000000
71
105
72
124
73
125
0
VERTEX
8
0
6
CONTINUOUS
62
252
70
128
10
0.000000
20
0.000000
30
0.000000
71
105
72
125
73
104
0
VERTEX
8
0
6
CONTINUOUS
62
252
70
128
10
0.000000
20
0.000000
30
0.000000
71
104
72
125
73
126
0
VERTEX
8
0
6
CONTINUOUS
62
252
70
128
10
0.000000
20
0.000000
30
0.000000
71
104
72
126
73
103
0
VERTEX
8
0
6
CONTINUOUS
62
252
70
128
10
0.000000
20
0.000000
30
0.000000
71
103
72
126
73
127
0
VERTEX
8
0
6
CONTINUOUS
62
252
70
128
10
0.000000
20
0.000000
30
0.000000
71
103
72
127
73
102
0
VERTEX
8
0
6
CONTINUOUS
62
252
70
128
10
0.000000
20
0.000000
30
0.000000
71
102
72
127
73
128
0
VERTEX
8
0
6
CONTINUOUS
62
252
70
128
10
0.000000
20
0.000000
30
0.000000
71
102
72
128
73
101
0
VERTEX
8
0
6
CONTINUOUS
62
252
70
128
10
0.000000
20
0.000000
30
0.000000
71
101
72
128
73
129
0
VERTEX
8
0
6
CONTINUOUS
62
252
70
128
10
0.000000
20
0.000000
30
0.000000
71
101
72
129
73
100
0
VERTEX
8
0
6
CONTINUOUS
62
252
70
128
10
0.000000
20
0.000000
30
0.000000
71
100
72
129
73
130
0
VERTEX
8
0
6
CONTINUOUS
62
252
70
128
10
0.000000
20
0.000000
30
0.000000
71
100
72
130
73
99
0
VERTEX
8
0
6
CONTINUOUS
62
252
70
128
10
0.000000
20
0.000000
30
0.000000
71
99
72
130
73
131
0
VERTEX
8
0
6
CONTINUOUS
62
252
70
128
10
0.000000
20
0.000000
30
0.000000
71
99
72
131
73
98
0
VERTEX
8
0
6
CONTINUOUS
62
252
70
128
10
0.000000
20
0.000000
30
0.000000
71
98
72
131
73
132
0
VERTEX
8
0
6
CONTINUOUS
62
252
70
128
10
0.000000
20
0.000000
30
0.000000
71
98
72
132
73
97
0
VERTEX
8
0
6
CONTINUOUS
62
252
70
128
10
0.000000
20
0.000000
30
0.000000
71
97
72
132
73
133
0
VERTEX
8
0
6
CONTINUOUS
62
252
70
128
10
0.000000
20
0.000000
30
0.000000
71
97
72
133
73
96
0
VERTEX
8
0
6
CONTINUOUS
62
252
70
128
10
0.000000
20
0.000000
30
0.000000
71
96
72
133
73
134
0
VERTEX
8
0
6
CONTINUOUS
62
252
70
128
10
0.000000
20
0.000000
30
0.000000
71
96
72
134
73
95
0
VERTEX
8
0
6
CONTINUOUS
62
252
70
128
10
0.000000
20
0.000000
30
0.000000
71
95
72
134
73
135
0
VERTEX
8
0
6
CONTINUOUS
62
252
70
128
10
0.000000
20
0.000000
30
0.000000
71
95
72
135
73
94
0
VERTEX
8
0
6
CONTINUOUS
62
252
70
128
10
0.000000
20
0.000000
30
0.000000
71
94
72
135
73
136
0
VERTEX
8
0
6
CONTINUOUS
62
252
70
128
10
0.000000
20
0.000000
30
0.000000
71
94
72
136
73
93
0
VERTEX
8
0
6
CONTINUOUS
62
252
70
128
10
0.000000
20
0.000000
30
0.000000
71
93
72
136
73
92
0
VERTEX
8
0
6
CONTINUOUS
62
252
70
128
10
0.000000
20
0.000000
30
0.000000
71
92
72
136
73
137
0
VERTEX
8
0
6
CONTINUOUS
62
252
70
128
10
0.000000
20
0.000000
30
0.000000
71
92
72
137
73
91
0
VERTEX
8
0
6
CONTINUOUS
62
252
70
128
10
0.000000
20
0.000000
30
0.000000
71
91
72
137
73
138
0
VERTEX
8
0
6
CONTINUOUS
62
252
70
128
10
0.000000
20
0.000000
30
0.000000
71
91
72
138
73
90
0
VERTEX
8
0
6
CONTINUOUS
62
252
70
128
10
0.000000
20
0.000000
30
0.000000
71
90
72
138
73
89
0
VERTEX
8
0
6
CONTINUOUS
62
252
70
128
10
0.000000
20
0.000000
30
0.000000
71
89
72
138
73
139
0
VERTEX
8
0
6
CONTINUOUS
62
252
70
128
10
0.000000
20
0.000000
30
0.000000
71
89
72
139
73
88
0
VERTEX
8
0
6
CONTINUOUS
62
252
70
128
10
0.000000
20
0.000000
30
0.000000
71
88
72
139
73
140
0
VERTEX
8
0
6
CONTINUOUS
62
252
70
128
10
0.000000
20
0.000000
30
0.000000
71
120
72
74
73
119
0
VERTEX
8
0
6
CONTINUOUS
62
252
70
128
10
0.000000
20
0.000000
30
0.000000
71
119
72
74
73
75
0
VERTEX
8
0
6
CONTINUOUS
62
252
70
128
10
0.000000
20
0.000000
30
0.000000
71
119
72
75
73
118
0
VERTEX
8
0
6
CONTINUOUS
62
252
70
128
10
0.000000
20
0.000000
30
0.000000
71
118
72
75
73
76
0
VERTEX
8
0
6
CONTINUOUS
62
252
70
128
10
0.000000
20
0.000000
30
0.000000
71
118
72
76
73
117
0
VERTEX
8
0
6
CONTINUOUS
62
252
70
128
10
0.000000
20
0.000000
30
0.000000
71
117
72
76
73
77
0
VERTEX
8
0
6
CONTINUOUS
62
252
70
128
10
0.000000
20
0.000000
30
0.000000
71
117
72
77
73
116
0
VERTEX
8
0
6
CONTINUOUS
62
252
70
128
10
0.000000
20
0.000000
30
0.000000
71
116
72
77
73
78
0
VERTEX
8
0
6
CONTINUOUS
62
252
70
128
10
0.000000
20
0.000000
30
0.000000
71
116
72
78
73
79
0
VERTEX
8
0
6
CONTINUOUS
62
252
70
128
10
0.000000
20
0.000000
30
0.000000
71
116
72
79
73
115
0
VERTEX
8
0
6
CONTINUOUS
62
252
70
128
10
0.000000
20
0.000000
30
0.000000
71
115
72
79
73
80
0
VERTEX
8
0
6
CONTINUOUS
62
252
70
128
10
0.000000
20
0.000000
30
0.000000
71
115
72
80
73
81
0
VERTEX
8
0
6
CONTINUOUS
62
252
70
128
10
0.000000
20
0.000000
30
0.000000
71
115
72
81
73
114
0
VERTEX
8
0
6
CONTINUOUS
62
252
70
128
10
0.000000
20
0.000000
30
0.000000
71
114
72
81
73
82
0
VERTEX
8
0
6
CONTINUOUS
62
252
70
128
10
0.000000
20
0.000000
30
0.000000
71
114
72
82
73
113
0
VERTEX
8
0
6
CONTINUOUS
62
252
70
128
10
0.000000
20
0.000000
30
0.000000
71
113
72
82
73
83
0
VERTEX
8
0
6
CONTINUOUS
62
252
70
128
10
0.000000
20
0.000000
30
0.000000
71
113
72
83
73
84
0
VERTEX
8
0
6
CONTINUOUS
62
252
70
128
10
0.000000
20
0.000000
30
0.000000
71
85
72
32
73
84
0
VERTEX
8
0
6
CONTINUOUS
62
252
70
128
10
0.000000
20
0.000000
30
0.000000
71
84
72
32
73
112
0
VERTEX
8
0
6
CONTINUOUS
62
252
70
128
10
0.000000
20
0.000000
30
0.000000
71
84
72
112
73
113
0
VERTEX
8
0
6
CONTINUOUS
62
252
70
128
10
0.000000
20
0.000000
30
0.000000
71
208
72
209
73
3
0
VERTEX
8
0
6
CONTINUOUS
62
252
70
128
10
0.000000
20
0.000000
30
0.000000
71
211
72
212
73
2
0
VERTEX
8
0
6
CONTINUOUS
62
252
70
128
10
0.000000
20
0.000000
30
0.000000
71
2
72
212
73
213
0
VERTEX
8
0
6
CONTINUOUS
62
252
70
128
10
0.000000
20
0.000000
30
0.000000
71
2
72
213
73
214
0
SEQEND
0
ENDSEC
0
EOF
