0
SECTION
2
HEADER
9
$ACADVER
1
AC1009
9
$INSBASE
10
0.0
20
0.0
30
0.0
9
$EXTMIN
10
0.000000
20
0.000000
30
0.000000
9
$EXTMAX
10
0.000000
20
0.000000
30
0.000000
9
$UCSORG
10
0.0
20
0.0
30
0.0
9
$UCSXDIR
10
1.0
20
0.0
30
0.0
9
$UCSYDIR
10
0.0
20
1.0
30
0.0
9
$CLAYER
8
0
9
$SHADEDGE
70
3
0
ENDSEC
0
SECTION
2
TABLES
0
TABLE
2
LTYPE
70
2
0
LTYPE
2
CONTINUOUS
70
0
3
Solid line
72
65
73
0
40
0.0
0
ENDTAB
0
TABLE
2
LAYER
70
5
0
LAYER
2
0
70
0
62
7
6
CONTINUOUS
0
ENDTAB
0
TABLE
2
APPID
70
1
0
APPID
2
ACAD
70
64
0
ENDTAB
0
ENDSEC
0
SECTION
2
BLOCKS
0
ENDSEC
0
SECTION
2
ENTITIES
0
POLYLINE
66
1
8
0
6
CONTINUOUS
62
252
70
64
75
0
10
0.000000
20
0.000000
30
0.000000
0
VERTEX
8
0
6
CONTINUOUS
62
252
70
192
10
-1.900000
20
-2.000000
30
10.300000
0
VERTEX
8
0
6
CONTINUOUS
62
252
70
192
10
-1.900000
20
-6.300000
30
10.300000
0
VERTEX
8
0
6
CONTINUOUS
62
252
70
192
10
4.300000
20
-6.300000
30
10.300000
0
VERTEX
8
0
6
CONTINUOUS
62
252
70
192
10
4.300000
20
-12.000000
30
10.300000
0
VERTEX
8
0
6
CONTINUOUS
62
252
70
192
10
-8.500000
20
-12.000000
30
10.300000
0
VERTEX
8
0
6
CONTINUOUS
62
252
70
192
10
-8.500000
20
-2.000000
30
10.300000
0
VERTEX
8
0
6
CONTINUOUS
62
252
70
128
10
0.000000
20
0.000000
30
0.000000
71
1
72
2
73
6
0
VERTEX
8
0
6
CONTINUOUS
62
252
70
128
10
0.000000
20
0.000000
30
0.000000
71
6
72
2
73
5
0
VERTEX
8
0
6
CONTINUOUS
62
252
70
128
10
0.000000
20
0.000000
30
0.000000
71
5
72
2
73
4
0
VERTEX
8
0
6
CONTINUOUS
62
252
70
128
10
0.000000
20
0.000000
30
0.000000
71
4
72
2
73
3
0
SEQEND
0
POLYLINE
66
1
8
0
6
CONTINUOUS
62
252
70
64
75
0
10
0.000000
20
0.000000
30
0.000000
0
VERTEX
8
0
6
CONTINUOUS
62
252
70
192
10
-8.500000
20
-12.000000
30
11.000000
0
VERTEX
8
0
6
CONTINUOUS
62
252
70
192
10
-6.000000
20
-13.400000
30
11.000000
0
VERTEX
8
0
6
CONTINUOUS
62
252
70
192
10
-6.000000
20
-13.400000
30
15.000000
0
VERTEX
8
0
6
CONTINUOUS
62
252
70
192
10
-8.500000
20
-12.000000
30
15.000000
0
VERTEX
8
0
6
CONTINUOUS
62
252
70
128
10
0.000000
20
0.000000
30
0.000000
71
2
72
3
73
1
0
VERTEX
8
0
6
CONTINUOUS
62
252
70
128
10
0.000000
20
0.000000
30
0.000000
71
1
72
3
73
4
0
SEQEND
0
POLYLINE
66
1
8
0
6
CONTINUOUS
62
252
70
64
75
0
10
0.000000
20
0.000000
30
0.000000
0
VERTEX
8
0
6
CONTINUOUS
62
252
70
192
10
-6.000000
20
-13.400000
30
11.000000
0
VERTEX
8
0
6
CONTINUOUS
62
252
70
192
10
-5.500000
20
-13.400000
30
11.000000
0
VERTEX
8
0
6
CONTINUOUS
62
252
70
192
10
-5.500000
20
-13.400000
30
15.000000
0
VERTEX
8
0
6
CONTINUOUS
62
252
70
192
10
-6.000000
20
-13.400000
30
15.000000
0
VERTEX
8
0
6
CONTINUOUS
62
252
70
128
10
0.000000
20
0.000000
30
0.000000
71
2
72
3
73
1
0
VERTEX
8
0
6
CONTINUOUS
62
252
70
128
10
0.000000
20
0.000000
30
0.000000
71
1
72
3
73
4
0
SEQEND
0
POLYLINE
66
1
8
0
6
CONTINUOUS
62
252
70
64
75
0
10
0.000000
20
0.000000
30
0.000000
0
VERTEX
8
0
6
CONTINUOUS
62
252
70
192
10
-5.500000
20
-13.400000
30
11.000000
0
VERTEX
8
0
6
CONTINUOUS
62
252
70
192
10
-5.500000
20
-12.000000
30
11.000000
0
VERTEX
8
0
6
CONTINUOUS
62
252
70
192
10
-5.500000
20
-12.000000
30
15.000000
0
VERTEX
8
0
6
CONTINUOUS
62
252
70
192
10
-5.500000
20
-13.400000
30
15.000000
0
VERTEX
8
0
6
CONTINUOUS
62
252
70
128
10
0.000000
20
0.000000
30
0.000000
71
2
72
3
73
1
0
VERTEX
8
0
6
CONTINUOUS
62
252
70
128
10
0.000000
20
0.000000
30
0.000000
71
1
72
3
73
4
0
SEQEND
0
POLYLINE
66
1
8
0
6
CONTINUOUS
62
252
70
64
75
0
10
0.000000
20
0.000000
30
0.000000
0
VERTEX
8
0
6
CONTINUOUS
62
252
70
192
10
-5.500000
20
-12.000000
30
15.000000
0
VERTEX
8
0
6
CONTINUOUS
62
252
70
192
10
-8.500000
20
-12.000000
30
15.000000
0
VERTEX
8
0
6
CONTINUOUS
62
252
70
192
10
-6.000000
20
-13.400000
30
15.000000
0
VERTEX
8
0
6
CONTINUOUS
62
252
70
192
10
-5.500000
20
-13.400000
30
15.000000
0
VERTEX
8
0
6
CONTINUOUS
62
252
70
128
10
0.000000
20
0.000000
30
0.000000
71
2
72
3
73
1
0
VERTEX
8
0
6
CONTINUOUS
62
252
70
128
10
0.000000
20
0.000000
30
0.000000
71
1
72
3
73
4
0
SEQEND
0
POLYLINE
66
1
8
0
6
CONTINUOUS
62
252
70
64
75
0
10
0.000000
20
0.000000
30
0.000000
0
VERTEX
8
0
6
CONTINUOUS
62
252
70
192
10
-6.000000
20
-13.400000
30
11.000000
0
VERTEX
8
0
6
CONTINUOUS
62
252
70
192
10
-8.500000
20
-12.000000
30
11.000000
0
VERTEX
8
0
6
CONTINUOUS
62
252
70
192
10
-5.500000
20
-12.000000
30
11.000000
0
VERTEX
8
0
6
CONTINUOUS
62
252
70
192
10
-5.500000
20
-13.400000
30
11.000000
0
VERTEX
8
0
6
CONTINUOUS
62
252
70
128
10
0.000000
20
0.000000
30
0.000000
71
2
72
3
73
1
0
VERTEX
8
0
6
CONTINUOUS
62
252
70
128
10
0.000000
20
0.000000
30
0.000000
71
1
72
3
73
4
0
SEQEND
0
POLYLINE
66
1
8
0
6
CONTINUOUS
62
252
70
64
75
0
10
0.000000
20
0.000000
30
0.000000
0
VERTEX
8
0
6
CONTINUOUS
62
252
70
192
10
-3.500000
20
-11.200000
30
11.200000
0
VERTEX
8
0
6
CONTINUOUS
62
252
70
192
10
-3.500000
20
-11.200000
30
14.800000
0
VERTEX
8
0
6
CONTINUOUS
62
252
70
192
10
-3.500000
20
-7.600000
30
14.800000
0
VERTEX
8
0
6
CONTINUOUS
62
252
70
192
10
-3.500000
20
-7.600000
30
11.200000
0
VERTEX
8
0
6
CONTINUOUS
62
252
70
128
10
0.000000
20
0.000000
30
0.000000
71
2
72
3
73
1
0
VERTEX
8
0
6
CONTINUOUS
62
252
70
128
10
0.000000
20
0.000000
30
0.000000
71
1
72
3
73
4
0
SEQEND
0
POLYLINE
66
1
8
0
6
CONTINUOUS
62
252
70
64
75
0
10
0.000000
20
0.000000
30
0.000000
0
VERTEX
8
0
6
CONTINUOUS
62
252
70
192
10
-8.500000
20
-7.600000
30
14.800000
0
VERTEX
8
0
6
CONTINUOUS
62
252
70
192
10
-3.500000
20
-7.600000
30
14.800000
0
VERTEX
8
0
6
CONTINUOUS
62
252
70
192
10
-3.500000
20
-11.200000
30
14.800000
0
VERTEX
8
0
6
CONTINUOUS
62
252
70
192
10
-8.500000
20
-11.200000
30
14.800000
0
VERTEX
8
0
6
CONTINUOUS
62
252
70
128
10
0.000000
20
0.000000
30
0.000000
71
1
72
2
73
4
0
VERTEX
8
0
6
CONTINUOUS
62
252
70
128
10
0.000000
20
0.000000
30
0.000000
71
4
72
2
73
3
0
SEQEND
0
POLYLINE
66
1
8
0
6
CONTINUOUS
62
252
70
64
75
0
10
0.000000
20
0.000000
30
0.000000
0
VERTEX
8
0
6
CONTINUOUS
62
252
70
192
10
-8.500000
20
-7.600000
30
11.200000
0
VERTEX
8
0
6
CONTINUOUS
62
252
70
192
10
-3.500000
20
-7.600000
30
11.200000
0
VERTEX
8
0
6
CONTINUOUS
62
252
70
192
10
-3.500000
20
-7.600000
30
14.800000
0
VERTEX
8
0
6
CONTINUOUS
62
252
70
192
10
-8.500000
20
-7.600000
30
14.800000
0
VERTEX
8
0
6
CONTINUOUS
62
252
70
128
10
0.000000
20
0.000000
30
0.000000
71
1
72
2
73
4
0
VERTEX
8
0
6
CONTINUOUS
62
252
70
128
10
0.000000
20
0.000000
30
0.000000
71
4
72
2
73
3
0
SEQEND
0
POLYLINE
66
1
8
0
6
CONTINUOUS
62
252
70
64
75
0
10
0.000000
20
0.000000
30
0.000000
0
VERTEX
8
0
6
CONTINUOUS
62
252
70
192
10
-8.500000
20
-11.200000
30
11.200000
0
VERTEX
8
0
6
CONTINUOUS
62
252
70
192
10
-3.500000
20
-11.200000
30
11.200000
0
VERTEX
8
0
6
CONTINUOUS
62
252
70
192
10
-3.500000
20
-7.600000
30
11.200000
0
VERTEX
8
0
6
CONTINUOUS
62
252
70
192
10
-8.500000
20
-7.600000
30
11.200000
0
VERTEX
8
0
6
CONTINUOUS
62
252
70
128
10
0.000000
20
0.000000
30
0.000000
71
1
72
2
73
4
0
VERTEX
8
0
6
CONTINUOUS
62
252
70
128
10
0.000000
20
0.000000
30
0.000000
71
4
72
2
73
3
0
SEQEND
0
POLYLINE
66
1
8
0
6
CONTINUOUS
62
252
70
64
75
0
10
0.000000
20
0.000000
30
0.000000
0
VERTEX
8
0
6
CONTINUOUS
62
252
70
192
10
-8.500000
20
-11.200000
30
14.800000
0
VERTEX
8
0
6
CONTINUOUS
62
252
70
192
10
-3.500000
20
-11.200000
30
14.800000
0
VERTEX
8
0
6
CONTINUOUS
62
252
70
192
10
-3.500000
20
-11.200000
30
11.200000
0
VERTEX
8
0
6
CONTINUOUS
62
252
70
192
10
-8.500000
20
-11.200000
30
11.200000
0
VERTEX
8
0
6
CONTINUOUS
62
252
70
128
10
0.000000
20
0.000000
30
0.000000
71
1
72
2
73
4
0
VERTEX
8
0
6
CONTINUOUS
62
252
70
128
10
0.000000
20
0.000000
30
0.000000
71
4
72
2
73
3
0
SEQEND
0
POLYLINE
66
1
8
0
6
CONTINUOUS
62
252
70
64
75
0
10
0.000000
20
0.000000
30
0.000000
0
VERTEX
8
0
6
CONTINUOUS
62
252
70
192
10
-3.500000
20
-6.400000
30
11.200000
0
VERTEX
8
0
6
CONTINUOUS
62
252
70
192
10
-3.500000
20
-6.400000
30
14.800000
0
VERTEX
8
0
6
CONTINUOUS
62
252
70
192
10
-3.500000
20
-2.800000
30
14.800000
0
VERTEX
8
0
6
CONTINUOUS
62
252
70
192
10
-3.500000
20
-2.800000
30
11.200000
0
VERTEX
8
0
6
CONTINUOUS
62
252
70
128
10
0.000000
20
0.000000
30
0.000000
71
2
72
3
73
1
0
VERTEX
8
0
6
CONTINUOUS
62
252
70
128
10
0.000000
20
0.000000
30
0.000000
71
1
72
3
73
4
0
SEQEND
0
POLYLINE
66
1
8
0
6
CONTINUOUS
62
252
70
64
75
0
10
0.000000
20
0.000000
30
0.000000
0
VERTEX
8
0
6
CONTINUOUS
62
252
70
192
10
-8.500000
20
-2.800000
30
14.800000
0
VERTEX
8
0
6
CONTINUOUS
62
252
70
192
10
-3.500000
20
-2.800000
30
14.800000
0
VERTEX
8
0
6
CONTINUOUS
62
252
70
192
10
-3.500000
20
-6.400000
30
14.800000
0
VERTEX
8
0
6
CONTINUOUS
62
252
70
192
10
-8.500000
20
-6.400000
30
14.800000
0
VERTEX
8
0
6
CONTINUOUS
62
252
70
128
10
0.000000
20
0.000000
30
0.000000
71
1
72
2
73
4
0
VERTEX
8
0
6
CONTINUOUS
62
252
70
128
10
0.000000
20
0.000000
30
0.000000
71
4
72
2
73
3
0
SEQEND
0
POLYLINE
66
1
8
0
6
CONTINUOUS
62
252
70
64
75
0
10
0.000000
20
0.000000
30
0.000000
0
VERTEX
8
0
6
CONTINUOUS
62
252
70
192
10
-8.500000
20
-2.800000
30
11.200000
0
VERTEX
8
0
6
CONTINUOUS
62
252
70
192
10
-3.500000
20
-2.800000
30
11.200000
0
VERTEX
8
0
6
CONTINUOUS
62
252
70
192
10
-3.500000
20
-2.800000
30
14.800000
0
VERTEX
8
0
6
CONTINUOUS
62
252
70
192
10
-8.500000
20
-2.800000
30
14.800000
0
VERTEX
8
0
6
CONTINUOUS
62
252
70
128
10
0.000000
20
0.000000
30
0.000000
71
1
72
2
73
4
0
VERTEX
8
0
6
CONTINUOUS
62
252
70
128
10
0.000000
20
0.000000
30
0.000000
71
4
72
2
73
3
0
SEQEND
0
POLYLINE
66
1
8
0
6
CONTINUOUS
62
252
70
64
75
0
10
0.000000
20
0.000000
30
0.000000
0
VERTEX
8
0
6
CONTINUOUS
62
252
70
192
10
-8.500000
20
-6.400000
30
11.200000
0
VERTEX
8
0
6
CONTINUOUS
62
252
70
192
10
-3.500000
20
-6.400000
30
11.200000
0
VERTEX
8
0
6
CONTINUOUS
62
252
70
192
10
-3.500000
20
-2.800000
30
11.200000
0
VERTEX
8
0
6
CONTINUOUS
62
252
70
192
10
-8.500000
20
-2.800000
30
11.200000
0
VERTEX
8
0
6
CONTINUOUS
62
252
70
128
10
0.000000
20
0.000000
30
0.000000
71
1
72
2
73
4
0
VERTEX
8
0
6
CONTINUOUS
62
252
70
128
10
0.000000
20
0.000000
30
0.000000
71
4
72
2
73
3
0
SEQEND
0
POLYLINE
66
1
8
0
6
CONTINUOUS
62
252
70
64
75
0
10
0.000000
20
0.000000
30
0.000000
0
VERTEX
8
0
6
CONTINUOUS
62
252
70
192
10
-8.500000
20
-6.400000
30
14.800000
0
VERTEX
8
0
6
CONTINUOUS
62
252
70
192
10
-3.500000
20
-6.400000
30
14.800000
0
VERTEX
8
0
6
CONTINUOUS
62
252
70
192
10
-3.500000
20
-6.400000
30
11.200000
0
VERTEX
8
0
6
CONTINUOUS
62
252
70
192
10
-8.500000
20
-6.400000
30
11.200000
0
VERTEX
8
0
6
CONTINUOUS
62
252
70
128
10
0.000000
20
0.000000
30
0.000000
71
1
72
2
73
4
0
VERTEX
8
0
6
CONTINUOUS
62
252
70
128
10
0.000000
20
0.000000
30
0.000000
71
4
72
2
73
3
0
SEQEND
0
POLYLINE
66
1
8
0
6
CONTINUOUS
62
252
70
64
75
0
10
0.000000
20
0.000000
30
0.000000
0
VERTEX
8
0
6
CONTINUOUS
62
252
70
192
10
-8.500000
20
-7.600000
30
14.800000
0
VERTEX
8
0
6
CONTINUOUS
62
252
70
192
10
-8.500000
20
-11.200000
30
14.800000
0
VERTEX
8
0
6
CONTINUOUS
62
252
70
192
10
-8.500000
20
-11.200000
30
11.200000
0
VERTEX
8
0
6
CONTINUOUS
62
252
70
192
10
-8.500000
20
-7.600000
30
11.200000
0
VERTEX
8
0
6
CONTINUOUS
62
252
70
192
10
-8.500000
20
-2.800000
30
14.800000
0
VERTEX
8
0
6
CONTINUOUS
62
252
70
192
10
-8.500000
20
-6.400000
30
14.800000
0
VERTEX
8
0
6
CONTINUOUS
62
252
70
192
10
-8.500000
20
-6.400000
30
11.200000
0
VERTEX
8
0
6
CONTINUOUS
62
252
70
192
10
-8.500000
20
-2.800000
30
11.200000
0
VERTEX
8
0
6
CONTINUOUS
62
252
70
192
10
-8.500000
20
-12.000000
30
10.300000
0
VERTEX
8
0
6
CONTINUOUS
62
252
70
192
10
-8.500000
20
-12.000000
30
11.000000
0
VERTEX
8
0
6
CONTINUOUS
62
252
70
192
10
-8.500000
20
-12.000000
30
15.000000
0
VERTEX
8
0
6
CONTINUOUS
62
252
70
192
10
-8.500000
20
-12.000000
30
15.700000
0
VERTEX
8
0
6
CONTINUOUS
62
252
70
192
10
-8.500000
20
-2.000000
30
15.700000
0
VERTEX
8
0
6
CONTINUOUS
62
252
70
192
10
-8.500000
20
-2.000000
30
10.300000
0
VERTEX
8
0
6
CONTINUOUS
62
252
70
128
10
0.000000
20
0.000000
30
0.000000
71
2
72
12
73
1
0
VERTEX
8
0
6
CONTINUOUS
62
252
70
128
10
0.000000
20
0.000000
30
0.000000
71
1
72
12
73
13
0
VERTEX
8
0
6
CONTINUOUS
62
252
70
128
10
0.000000
20
0.000000
30
0.000000
71
1
72
13
73
6
0
VERTEX
8
0
6
CONTINUOUS
62
252
70
128
10
0.000000
20
0.000000
30
0.000000
71
6
72
13
73
5
0
VERTEX
8
0
6
CONTINUOUS
62
252
70
128
10
0.000000
20
0.000000
30
0.000000
71
5
72
13
73
14
0
VERTEX
8
0
6
CONTINUOUS
62
252
70
128
10
0.000000
20
0.000000
30
0.000000
71
5
72
14
73
8
0
VERTEX
8
0
6
CONTINUOUS
62
252
70
128
10
0.000000
20
0.000000
30
0.000000
71
8
72
14
73
7
0
VERTEX
8
0
6
CONTINUOUS
62
252
70
128
10
0.000000
20
0.000000
30
0.000000
71
7
72
14
73
4
0
VERTEX
8
0
6
CONTINUOUS
62
252
70
128
10
0.000000
20
0.000000
30
0.000000
71
7
72
4
73
6
0
VERTEX
8
0
6
CONTINUOUS
62
252
70
128
10
0.000000
20
0.000000
30
0.000000
71
6
72
4
73
1
0
VERTEX
8
0
6
CONTINUOUS
62
252
70
128
10
0.000000
20
0.000000
30
0.000000
71
12
72
2
73
11
0
VERTEX
8
0
6
CONTINUOUS
62
252
70
128
10
0.000000
20
0.000000
30
0.000000
71
11
72
2
73
3
0
VERTEX
8
0
6
CONTINUOUS
62
252
70
128
10
0.000000
20
0.000000
30
0.000000
71
11
72
3
73
10
0
VERTEX
8
0
6
CONTINUOUS
62
252
70
128
10
0.000000
20
0.000000
30
0.000000
71
10
72
3
73
9
0
VERTEX
8
0
6
CONTINUOUS
62
252
70
128
10
0.000000
20
0.000000
30
0.000000
71
9
72
3
73
4
0
VERTEX
8
0
6
CONTINUOUS
62
252
70
128
10
0.000000
20
0.000000
30
0.000000
71
9
72
4
73
14
0
SEQEND
0
POLYLINE
66
1
8
0
6
CONTINUOUS
62
252
70
64
75
0
10
0.000000
20
0.000000
30
0.000000
0
VERTEX
8
0
6
CONTINUOUS
62
252
70
192
10
-1.900000
20
-2.000000
30
15.700000
0
VERTEX
8
0
6
CONTINUOUS
62
252
70
192
10
-1.900000
20
-2.000000
30
10.300000
0
VERTEX
8
0
6
CONTINUOUS
62
252
70
192
10
-8.500000
20
-2.000000
30
10.300000
0
VERTEX
8
0
6
CONTINUOUS
62
252
70
192
10
-8.500000
20
-2.000000
30
15.700000
0
VERTEX
8
0
6
CONTINUOUS
62
252
70
128
10
0.000000
20
0.000000
30
0.000000
71
2
72
3
73
1
0
VERTEX
8
0
6
CONTINUOUS
62
252
70
128
10
0.000000
20
0.000000
30
0.000000
71
1
72
3
73
4
0
SEQEND
0
POLYLINE
66
1
8
0
6
CONTINUOUS
62
252
70
64
75
0
10
0.000000
20
0.000000
30
0.000000
0
VERTEX
8
0
6
CONTINUOUS
62
252
70
192
10
-1.900000
20
-6.300000
30
15.700000
0
VERTEX
8
0
6
CONTINUOUS
62
252
70
192
10
-1.900000
20
-2.000000
30
15.700000
0
VERTEX
8
0
6
CONTINUOUS
62
252
70
192
10
-8.500000
20
-2.000000
30
15.700000
0
VERTEX
8
0
6
CONTINUOUS
62
252
70
192
10
-8.500000
20
-12.000000
30
15.700000
0
VERTEX
8
0
6
CONTINUOUS
62
252
70
192
10
4.300000
20
-12.000000
30
15.700000
0
VERTEX
8
0
6
CONTINUOUS
62
252
70
192
10
4.300000
20
-6.300000
30
15.700000
0
VERTEX
8
0
6
CONTINUOUS
62
252
70
128
10
0.000000
20
0.000000
30
0.000000
71
2
72
3
73
1
0
VERTEX
8
0
6
CONTINUOUS
62
252
70
128
10
0.000000
20
0.000000
30
0.000000
71
1
72
3
73
4
0
VERTEX
8
0
6
CONTINUOUS
62
252
70
128
10
0.000000
20
0.000000
30
0.000000
71
1
72
4
73
5
0
VERTEX
8
0
6
CONTINUOUS
62
252
70
128
10
0.000000
20
0.000000
30
0.000000
71
5
72
6
73
1
0
SEQEND
0
POLYLINE
66
1
8
0
6
CONTINUOUS
62
252
70
64
75
0
10
0.000000
20
0.000000
30
0.000000
0
VERTEX
8
0
6
CONTINUOUS
62
252
70
192
10
-5.500000
20
-12.000000
30
11.000000
0
VERTEX
8
0
6
CONTINUOUS
62
252
70
192
10
-8.500000
20
-12.000000
30
11.000000
0
VERTEX
8
0
6
CONTINUOUS
62
252
70
192
10
-8.500000
20
-12.000000
30
10.300000
0
VERTEX
8
0
6
CONTINUOUS
62
252
70
192
10
4.300000
20
-12.000000
30
10.300000
0
VERTEX
8
0
6
CONTINUOUS
62
252
70
192
10
4.300000
20
-12.000000
30
15.700000
0
VERTEX
8
0
6
CONTINUOUS
62
252
70
192
10
-8.500000
20
-12.000000
30
15.700000
0
VERTEX
8
0
6
CONTINUOUS
62
252
70
192
10
-8.500000
20
-12.000000
30
15.000000
0
VERTEX
8
0
6
CONTINUOUS
62
252
70
192
10
-5.500000
20
-12.000000
30
15.000000
0
VERTEX
8
0
6
CONTINUOUS
62
252
70
128
10
0.000000
20
0.000000
30
0.000000
71
2
72
3
73
1
0
VERTEX
8
0
6
CONTINUOUS
62
252
70
128
10
0.000000
20
0.000000
30
0.000000
71
1
72
3
73
4
0
VERTEX
8
0
6
CONTINUOUS
62
252
70
128
10
0.000000
20
0.000000
30
0.000000
71
1
72
4
73
8
0
VERTEX
8
0
6
CONTINUOUS
62
252
70
128
10
0.000000
20
0.000000
30
0.000000
71
8
72
4
73
5
0
VERTEX
8
0
6
CONTINUOUS
62
252
70
128
10
0.000000
20
0.000000
30
0.000000
71
8
72
5
73
6
0
VERTEX
8
0
6
CONTINUOUS
62
252
70
128
10
0.000000
20
0.000000
30
0.000000
71
6
72
7
73
8
0
SEQEND
0
POLYLINE
66
1
8
0
6
CONTINUOUS
62
252
70
64
75
0
10
0.000000
20
0.000000
30
0.000000
0
VERTEX
8
0
6
CONTINUOUS
62
252
70
192
10
-1.900000
20
-6.300000
30
10.300000
0
VERTEX
8
0
6
CONTINUOUS
62
252
70
192
10
-1.900000
20
-2.000000
30
10.300000
0
VERTEX
8
0
6
CONTINUOUS
62
252
70
192
10
-1.900000
20
-2.000000
30
15.700000
0
VERTEX
8
0
6
CONTINUOUS
62
252
70
192
10
-1.900000
20
-6.300000
30
15.700000
0
VERTEX
8
0
6
CONTINUOUS
62
252
70
192
10
-1.900000
20
-6.300000
30
20.700000
0
VERTEX
8
0
6
CONTINUOUS
62
252
70
192
10
-1.900000
20
-1.600000
30
20.700000
0
VERTEX
8
0
6
CONTINUOUS
62
252
70
192
10
-1.900000
20
-1.600000
30
5.300000
0
VERTEX
8
0
6
CONTINUOUS
62
252
70
192
10
-1.900000
20
-6.300000
30
5.300000
0
VERTEX
8
0
6
CONTINUOUS
62
252
70
128
10
0.000000
20
0.000000
30
0.000000
71
1
72
2
73
8
0
VERTEX
8
0
6
CONTINUOUS
62
252
70
128
10
0.000000
20
0.000000
30
0.000000
71
8
72
2
73
7
0
VERTEX
8
0
6
CONTINUOUS
62
252
70
128
10
0.000000
20
0.000000
30
0.000000
71
7
72
2
73
3
0
VERTEX
8
0
6
CONTINUOUS
62
252
70
128
10
0.000000
20
0.000000
30
0.000000
71
7
72
3
73
6
0
VERTEX
8
0
6
CONTINUOUS
62
252
70
128
10
0.000000
20
0.000000
30
0.000000
71
6
72
3
73
5
0
VERTEX
8
0
6
CONTINUOUS
62
252
70
128
10
0.000000
20
0.000000
30
0.000000
71
5
72
3
73
4
0
SEQEND
0
POLYLINE
66
1
8
0
6
CONTINUOUS
62
252
70
64
75
0
10
0.000000
20
0.000000
30
0.000000
0
VERTEX
8
0
6
CONTINUOUS
62
252
70
192
10
-1.900000
20
-6.300000
30
15.700000
0
VERTEX
8
0
6
CONTINUOUS
62
252
70
192
10
4.300000
20
-6.300000
30
15.700000
0
VERTEX
8
0
6
CONTINUOUS
62
252
70
192
10
4.300000
20
-6.300000
30
20.700000
0
VERTEX
8
0
6
CONTINUOUS
62
252
70
192
10
-1.900000
20
-6.300000
30
20.700000
0
VERTEX
8
0
6
CONTINUOUS
62
252
70
128
10
0.000000
20
0.000000
30
0.000000
71
2
72
3
73
1
0
VERTEX
8
0
6
CONTINUOUS
62
252
70
128
10
0.000000
20
0.000000
30
0.000000
71
1
72
3
73
4
0
SEQEND
0
POLYLINE
66
1
8
0
6
CONTINUOUS
62
252
70
64
75
0
10
0.000000
20
0.000000
30
0.000000
0
VERTEX
8
0
6
CONTINUOUS
62
252
70
192
10
4.300000
20
-6.300000
30
20.700000
0
VERTEX
8
0
6
CONTINUOUS
62
252
70
192
10
4.300000
20
-1.600000
30
20.700000
0
VERTEX
8
0
6
CONTINUOUS
62
252
70
192
10
-1.900000
20
-1.600000
30
20.700000
0
VERTEX
8
0
6
CONTINUOUS
62
252
70
192
10
-1.900000
20
-6.300000
30
20.700000
0
VERTEX
8
0
6
CONTINUOUS
62
252
70
128
10
0.000000
20
0.000000
30
0.000000
71
2
72
3
73
1
0
VERTEX
8
0
6
CONTINUOUS
62
252
70
128
10
0.000000
20
0.000000
30
0.000000
71
1
72
3
73
4
0
SEQEND
0
POLYLINE
66
1
8
0
6
CONTINUOUS
62
252
70
64
75
0
10
0.000000
20
0.000000
30
0.000000
0
VERTEX
8
0
6
CONTINUOUS
62
252
70
192
10
4.300000
20
-1.600000
30
5.300000
0
VERTEX
8
0
6
CONTINUOUS
62
252
70
192
10
4.300000
20
-6.300000
30
5.300000
0
VERTEX
8
0
6
CONTINUOUS
62
252
70
192
10
-1.900000
20
-6.300000
30
5.300000
0
VERTEX
8
0
6
CONTINUOUS
62
252
70
192
10
-1.900000
20
-1.600000
30
5.300000
0
VERTEX
8
0
6
CONTINUOUS
62
252
70
128
10
0.000000
20
0.000000
30
0.000000
71
2
72
3
73
1
0
VERTEX
8
0
6
CONTINUOUS
62
252
70
128
10
0.000000
20
0.000000
30
0.000000
71
1
72
3
73
4
0
SEQEND
0
POLYLINE
66
1
8
0
6
CONTINUOUS
62
252
70
64
75
0
10
0.000000
20
0.000000
30
0.000000
0
VERTEX
8
0
6
CONTINUOUS
62
252
70
192
10
4.300000
20
-6.300000
30
10.300000
0
VERTEX
8
0
6
CONTINUOUS
62
252
70
192
10
-1.900000
20
-6.300000
30
10.300000
0
VERTEX
8
0
6
CONTINUOUS
62
252
70
192
10
-1.900000
20
-6.300000
30
5.300000
0
VERTEX
8
0
6
CONTINUOUS
62
252
70
192
10
4.300000
20
-6.300000
30
5.300000
0
VERTEX
8
0
6
CONTINUOUS
62
252
70
128
10
0.000000
20
0.000000
30
0.000000
71
2
72
3
73
1
0
VERTEX
8
0
6
CONTINUOUS
62
252
70
128
10
0.000000
20
0.000000
30
0.000000
71
1
72
3
73
4
0
SEQEND
0
POLYLINE
66
1
8
0
6
CONTINUOUS
62
252
70
64
75
0
10
0.000000
20
0.000000
30
0.000000
0
VERTEX
8
0
6
CONTINUOUS
62
252
70
192
10
4.300000
20
-6.300000
30
10.300000
0
VERTEX
8
0
6
CONTINUOUS
62
252
70
192
10
4.300000
20
-6.300000
30
5.300000
0
VERTEX
8
0
6
CONTINUOUS
62
252
70
192
10
4.300000
20
-1.600000
30
5.300000
0
VERTEX
8
0
6
CONTINUOUS
62
252
70
192
10
4.300000
20
-1.600000
30
20.700000
0
VERTEX
8
0
6
CONTINUOUS
62
252
70
192
10
4.300000
20
-6.300000
30
20.700000
0
VERTEX
8
0
6
CONTINUOUS
62
252
70
192
10
4.300000
20
-6.300000
30
15.700000
0
VERTEX
8
0
6
CONTINUOUS
62
252
70
192
10
4.300000
20
-12.000000
30
15.700000
0
VERTEX
8
0
6
CONTINUOUS
62
252
70
192
10
4.300000
20
-12.000000
30
10.300000
0
VERTEX
8
0
6
CONTINUOUS
62
252
70
128
10
0.000000
20
0.000000
30
0.000000
71
2
72
3
73
1
0
VERTEX
8
0
6
CONTINUOUS
62
252
70
128
10
0.000000
20
0.000000
30
0.000000
71
1
72
3
73
6
0
VERTEX
8
0
6
CONTINUOUS
62
252
70
128
10
0.000000
20
0.000000
30
0.000000
71
1
72
6
73
8
0
VERTEX
8
0
6
CONTINUOUS
62
252
70
128
10
0.000000
20
0.000000
30
0.000000
71
8
72
6
73
7
0
VERTEX
8
0
6
CONTINUOUS
62
252
70
128
10
0.000000
20
0.000000
30
0.000000
71
3
72
4
73
6
0
VERTEX
8
0
6
CONTINUOUS
62
252
70
128
10
0.000000
20
0.000000
30
0.000000
71
6
72
4
73
5
0
SEQEND
0
POLYLINE
66
1
8
0
6
CONTINUOUS
62
252
70
64
75
0
10
0.000000
20
0.000000
30
0.000000
0
VERTEX
8
0
6
CONTINUOUS
62
252
70
192
10
-8.500000
20
-11.600000
30
77.100000
0
VERTEX
8
0
6
CONTINUOUS
62
252
70
192
10
-6.000000
20
-13.000000
30
77.100000
0
VERTEX
8
0
6
CONTINUOUS
62
252
70
192
10
-6.000000
20
-13.000000
30
80.500000
0
VERTEX
8
0
6
CONTINUOUS
62
252
70
192
10
-8.500000
20
-11.600000
30
80.500000
0
VERTEX
8
0
6
CONTINUOUS
62
252
70
128
10
0.000000
20
0.000000
30
0.000000
71
2
72
3
73
1
0
VERTEX
8
0
6
CONTINUOUS
62
252
70
128
10
0.000000
20
0.000000
30
0.000000
71
1
72
3
73
4
0
SEQEND
0
POLYLINE
66
1
8
0
6
CONTINUOUS
62
252
70
64
75
0
10
0.000000
20
0.000000
30
0.000000
0
VERTEX
8
0
6
CONTINUOUS
62
252
70
192
10
-6.000000
20
-13.000000
30
77.100000
0
VERTEX
8
0
6
CONTINUOUS
62
252
70
192
10
-5.500000
20
-13.000000
30
77.100000
0
VERTEX
8
0
6
CONTINUOUS
62
252
70
192
10
-5.500000
20
-13.000000
30
80.500000
0
VERTEX
8
0
6
CONTINUOUS
62
252
70
192
10
-6.000000
20
-13.000000
30
80.500000
0
VERTEX
8
0
6
CONTINUOUS
62
252
70
128
10
0.000000
20
0.000000
30
0.000000
71
2
72
3
73
1
0
VERTEX
8
0
6
CONTINUOUS
62
252
70
128
10
0.000000
20
0.000000
30
0.000000
71
1
72
3
73
4
0
SEQEND
0
POLYLINE
66
1
8
0
6
CONTINUOUS
62
252
70
64
75
0
10
0.000000
20
0.000000
30
0.000000
0
VERTEX
8
0
6
CONTINUOUS
62
252
70
192
10
-5.500000
20
-13.000000
30
77.100000
0
VERTEX
8
0
6
CONTINUOUS
62
252
70
192
10
-5.500000
20
-11.600000
30
77.100000
0
VERTEX
8
0
6
CONTINUOUS
62
252
70
192
10
-5.500000
20
-11.600000
30
80.500000
0
VERTEX
8
0
6
CONTINUOUS
62
252
70
192
10
-5.500000
20
-13.000000
30
80.500000
0
VERTEX
8
0
6
CONTINUOUS
62
252
70
128
10
0.000000
20
0.000000
30
0.000000
71
2
72
3
73
1
0
VERTEX
8
0
6
CONTINUOUS
62
252
70
128
10
0.000000
20
0.000000
30
0.000000
71
1
72
3
73
4
0
SEQEND
0
POLYLINE
66
1
8
0
6
CONTINUOUS
62
252
70
64
75
0
10
0.000000
20
0.000000
30
0.000000
0
VERTEX
8
0
6
CONTINUOUS
62
252
70
192
10
-5.500000
20
-11.600000
30
80.500000
0
VERTEX
8
0
6
CONTINUOUS
62
252
70
192
10
-8.500000
20
-11.600000
30
80.500000
0
VERTEX
8
0
6
CONTINUOUS
62
252
70
192
10
-6.000000
20
-13.000000
30
80.500000
0
VERTEX
8
0
6
CONTINUOUS
62
252
70
192
10
-5.500000
20
-13.000000
30
80.500000
0
VERTEX
8
0
6
CONTINUOUS
62
252
70
128
10
0.000000
20
0.000000
30
0.000000
71
2
72
3
73
1
0
VERTEX
8
0
6
CONTINUOUS
62
252
70
128
10
0.000000
20
0.000000
30
0.000000
71
1
72
3
73
4
0
SEQEND
0
POLYLINE
66
1
8
0
6
CONTINUOUS
62
252
70
64
75
0
10
0.000000
20
0.000000
30
0.000000
0
VERTEX
8
0
6
CONTINUOUS
62
252
70
192
10
-6.000000
20
-13.000000
30
77.100000
0
VERTEX
8
0
6
CONTINUOUS
62
252
70
192
10
-8.500000
20
-11.600000
30
77.100000
0
VERTEX
8
0
6
CONTINUOUS
62
252
70
192
10
-5.500000
20
-11.600000
30
77.100000
0
VERTEX
8
0
6
CONTINUOUS
62
252
70
192
10
-5.500000
20
-13.000000
30
77.100000
0
VERTEX
8
0
6
CONTINUOUS
62
252
70
128
10
0.000000
20
0.000000
30
0.000000
71
2
72
3
73
1
0
VERTEX
8
0
6
CONTINUOUS
62
252
70
128
10
0.000000
20
0.000000
30
0.000000
71
1
72
3
73
4
0
SEQEND
0
POLYLINE
66
1
8
0
6
CONTINUOUS
62
252
70
64
75
0
10
0.000000
20
0.000000
30
0.000000
0
VERTEX
8
0
6
CONTINUOUS
62
252
70
192
10
4.300000
20
-2.000000
30
87.800000
0
VERTEX
8
0
6
CONTINUOUS
62
252
70
192
10
-1.900000
20
-2.000000
30
87.800000
0
VERTEX
8
0
6
CONTINUOUS
62
252
70
192
10
-1.900000
20
-1.600000
30
87.800000
0
VERTEX
8
0
6
CONTINUOUS
62
252
70
192
10
4.300000
20
-1.600000
30
87.800000
0
VERTEX
8
0
6
CONTINUOUS
62
252
70
128
10
0.000000
20
0.000000
30
0.000000
71
1
72
2
73
4
0
VERTEX
8
0
6
CONTINUOUS
62
252
70
128
10
0.000000
20
0.000000
30
0.000000
71
4
72
2
73
3
0
SEQEND
0
POLYLINE
66
1
8
0
6
CONTINUOUS
62
252
70
64
75
0
10
0.000000
20
0.000000
30
0.000000
0
VERTEX
8
0
6
CONTINUOUS
62
252
70
192
10
4.300000
20
-6.300000
30
87.800000
0
VERTEX
8
0
6
CONTINUOUS
62
252
70
192
10
4.300000
20
-6.300000
30
92.800000
0
VERTEX
8
0
6
CONTINUOUS
62
252
70
192
10
-1.900000
20
-6.300000
30
92.800000
0
VERTEX
8
0
6
CONTINUOUS
62
252
70
192
10
-1.900000
20
-6.300000
30
87.800000
0
VERTEX
8
0
6
CONTINUOUS
62
252
70
128
10
0.000000
20
0.000000
30
0.000000
71
2
72
3
73
1
0
VERTEX
8
0
6
CONTINUOUS
62
252
70
128
10
0.000000
20
0.000000
30
0.000000
71
1
72
3
73
4
0
SEQEND
0
POLYLINE
66
1
8
0
6
CONTINUOUS
62
252
70
64
75
0
10
0.000000
20
0.000000
30
0.000000
0
VERTEX
8
0
6
CONTINUOUS
62
252
70
192
10
-1.900000
20
-6.300000
30
92.800000
0
VERTEX
8
0
6
CONTINUOUS
62
252
70
192
10
-1.900000
20
-1.600000
30
92.800000
0
VERTEX
8
0
6
CONTINUOUS
62
252
70
192
10
-1.900000
20
-1.600000
30
87.800000
0
VERTEX
8
0
6
CONTINUOUS
62
252
70
192
10
-1.900000
20
-2.000000
30
87.800000
0
VERTEX
8
0
6
CONTINUOUS
62
252
70
192
10
-1.900000
20
-6.300000
30
87.800000
0
VERTEX
8
0
6
CONTINUOUS
62
252
70
128
10
0.000000
20
0.000000
30
0.000000
71
5
72
1
73
4
0
VERTEX
8
0
6
CONTINUOUS
62
252
70
128
10
0.000000
20
0.000000
30
0.000000
71
4
72
1
73
2
0
VERTEX
8
0
6
CONTINUOUS
62
252
70
128
10
0.000000
20
0.000000
30
0.000000
71
4
72
2
73
3
0
SEQEND
0
POLYLINE
66
1
8
0
6
CONTINUOUS
62
252
70
64
75
0
10
0.000000
20
0.000000
30
0.000000
0
VERTEX
8
0
6
CONTINUOUS
62
252
70
192
10
4.300000
20
-6.300000
30
92.800000
0
VERTEX
8
0
6
CONTINUOUS
62
252
70
192
10
4.300000
20
-1.600000
30
92.800000
0
VERTEX
8
0
6
CONTINUOUS
62
252
70
192
10
-1.900000
20
-1.600000
30
92.800000
0
VERTEX
8
0
6
CONTINUOUS
62
252
70
192
10
-1.900000
20
-6.300000
30
92.800000
0
VERTEX
8
0
6
CONTINUOUS
62
252
70
128
10
0.000000
20
0.000000
30
0.000000
71
1
72
2
73
4
0
VERTEX
8
0
6
CONTINUOUS
62
252
70
128
10
0.000000
20
0.000000
30
0.000000
71
4
72
2
73
3
0
SEQEND
0
POLYLINE
66
1
8
0
6
CONTINUOUS
62
252
70
64
75
0
10
0.000000
20
0.000000
30
0.000000
0
VERTEX
8
0
6
CONTINUOUS
62
252
70
192
10
4.300000
20
-6.300000
30
87.800000
0
VERTEX
8
0
6
CONTINUOUS
62
252
70
192
10
-1.900000
20
-6.300000
30
87.800000
0
VERTEX
8
0
6
CONTINUOUS
62
252
70
192
10
-1.900000
20
-2.000000
30
87.800000
0
VERTEX
8
0
6
CONTINUOUS
62
252
70
192
10
-8.500000
20
-2.000000
30
87.800000
0
VERTEX
8
0
6
CONTINUOUS
62
252
70
192
10
-8.500000
20
-11.600000
30
87.800000
0
VERTEX
8
0
6
CONTINUOUS
62
252
70
192
10
4.300000
20
-11.600000
30
87.800000
0
VERTEX
8
0
6
CONTINUOUS
62
252
70
128
10
0.000000
20
0.000000
30
0.000000
71
1
72
2
73
6
0
VERTEX
8
0
6
CONTINUOUS
62
252
70
128
10
0.000000
20
0.000000
30
0.000000
71
6
72
2
73
5
0
VERTEX
8
0
6
CONTINUOUS
62
252
70
128
10
0.000000
20
0.000000
30
0.000000
71
5
72
2
73
4
0
VERTEX
8
0
6
CONTINUOUS
62
252
70
128
10
0.000000
20
0.000000
30
0.000000
71
4
72
2
73
3
0
SEQEND
0
POLYLINE
66
1
8
0
6
CONTINUOUS
62
252
70
64
75
0
10
0.000000
20
0.000000
30
0.000000
0
VERTEX
8
0
6
CONTINUOUS
62
252
70
192
10
4.300000
20
-6.300000
30
64.800000
0
VERTEX
8
0
6
CONTINUOUS
62
252
70
192
10
4.300000
20
-6.300000
30
69.800000
0
VERTEX
8
0
6
CONTINUOUS
62
252
70
192
10
-1.900000
20
-6.300000
30
69.800000
0
VERTEX
8
0
6
CONTINUOUS
62
252
70
192
10
-1.900000
20
-6.300000
30
64.800000
0
VERTEX
8
0
6
CONTINUOUS
62
252
70
128
10
0.000000
20
0.000000
30
0.000000
71
2
72
3
73
1
0
VERTEX
8
0
6
CONTINUOUS
62
252
70
128
10
0.000000
20
0.000000
30
0.000000
71
1
72
3
73
4
0
SEQEND
0
POLYLINE
66
1
8
0
6
CONTINUOUS
62
252
70
64
75
0
10
0.000000
20
0.000000
30
0.000000
0
VERTEX
8
0
6
CONTINUOUS
62
252
70
192
10
-1.900000
20
-6.300000
30
64.800000
0
VERTEX
8
0
6
CONTINUOUS
62
252
70
192
10
-1.900000
20
-1.600000
30
64.800000
0
VERTEX
8
0
6
CONTINUOUS
62
252
70
192
10
4.300000
20
-1.600000
30
64.800000
0
VERTEX
8
0
6
CONTINUOUS
62
252
70
192
10
4.300000
20
-6.300000
30
64.800000
0
VERTEX
8
0
6
CONTINUOUS
62
252
70
128
10
0.000000
20
0.000000
30
0.000000
71
1
72
2
73
4
0
VERTEX
8
0
6
CONTINUOUS
62
252
70
128
10
0.000000
20
0.000000
30
0.000000
71
4
72
2
73
3
0
SEQEND
0
POLYLINE
66
1
8
0
6
CONTINUOUS
62
252
70
64
75
0
10
0.000000
20
0.000000
30
0.000000
0
VERTEX
8
0
6
CONTINUOUS
62
252
70
192
10
-1.900000
20
-6.300000
30
69.800000
0
VERTEX
8
0
6
CONTINUOUS
62
252
70
192
10
-1.900000
20
-2.000000
30
69.800000
0
VERTEX
8
0
6
CONTINUOUS
62
252
70
192
10
-1.900000
20
-1.600000
30
69.800000
0
VERTEX
8
0
6
CONTINUOUS
62
252
70
192
10
-1.900000
20
-1.600000
30
64.800000
0
VERTEX
8
0
6
CONTINUOUS
62
252
70
192
10
-1.900000
20
-6.300000
30
64.800000
0
VERTEX
8
0
6
CONTINUOUS
62
252
70
128
10
0.000000
20
0.000000
30
0.000000
71
1
72
2
73
5
0
VERTEX
8
0
6
CONTINUOUS
62
252
70
128
10
0.000000
20
0.000000
30
0.000000
71
5
72
2
73
4
0
VERTEX
8
0
6
CONTINUOUS
62
252
70
128
10
0.000000
20
0.000000
30
0.000000
71
4
72
2
73
3
0
SEQEND
0
POLYLINE
66
1
8
0
6
CONTINUOUS
62
252
70
64
75
0
10
0.000000
20
0.000000
30
0.000000
0
VERTEX
8
0
6
CONTINUOUS
62
252
70
192
10
-1.900000
20
-2.000000
30
69.800000
0
VERTEX
8
0
6
CONTINUOUS
62
252
70
192
10
4.300000
20
-2.000000
30
69.800000
0
VERTEX
8
0
6
CONTINUOUS
62
252
70
192
10
4.300000
20
-1.600000
30
69.800000
0
VERTEX
8
0
6
CONTINUOUS
62
252
70
192
10
-1.900000
20
-1.600000
30
69.800000
0
VERTEX
8
0
6
CONTINUOUS
62
252
70
128
10
0.000000
20
0.000000
30
0.000000
71
2
72
3
73
1
0
VERTEX
8
0
6
CONTINUOUS
62
252
70
128
10
0.000000
20
0.000000
30
0.000000
71
1
72
3
73
4
0
SEQEND
0
POLYLINE
66
1
8
0
6
CONTINUOUS
62
252
70
64
75
0
10
0.000000
20
0.000000
30
0.000000
0
VERTEX
8
0
6
CONTINUOUS
62
252
70
192
10
-1.900000
20
-2.000000
30
69.800000
0
VERTEX
8
0
6
CONTINUOUS
62
252
70
192
10
-1.900000
20
-6.300000
30
69.800000
0
VERTEX
8
0
6
CONTINUOUS
62
252
70
192
10
4.300000
20
-6.300000
30
69.800000
0
VERTEX
8
0
6
CONTINUOUS
62
252
70
192
10
4.300000
20
-11.600000
30
69.800000
0
VERTEX
8
0
6
CONTINUOUS
62
252
70
192
10
-8.500000
20
-11.600000
30
69.800000
0
VERTEX
8
0
6
CONTINUOUS
62
252
70
192
10
-8.500000
20
-2.000000
30
69.800000
0
VERTEX
8
0
6
CONTINUOUS
62
252
70
128
10
0.000000
20
0.000000
30
0.000000
71
1
72
2
73
6
0
VERTEX
8
0
6
CONTINUOUS
62
252
70
128
10
0.000000
20
0.000000
30
0.000000
71
6
72
2
73
5
0
VERTEX
8
0
6
CONTINUOUS
62
252
70
128
10
0.000000
20
0.000000
30
0.000000
71
5
72
2
73
4
0
VERTEX
8
0
6
CONTINUOUS
62
252
70
128
10
0.000000
20
0.000000
30
0.000000
71
4
72
2
73
3
0
SEQEND
0
POLYLINE
66
1
8
0
6
CONTINUOUS
62
252
70
64
75
0
10
0.000000
20
0.000000
30
0.000000
0
VERTEX
8
0
6
CONTINUOUS
62
252
70
192
10
-0.500000
20
-6.500000
30
86.900000
0
VERTEX
8
0
6
CONTINUOUS
62
252
70
192
10
-0.500000
20
-2.700000
30
86.900000
0
VERTEX
8
0
6
CONTINUOUS
62
252
70
192
10
-0.500000
20
-2.700000
30
83.300000
0
VERTEX
8
0
6
CONTINUOUS
62
252
70
192
10
-0.500000
20
-6.500000
30
83.300000
0
VERTEX
8
0
6
CONTINUOUS
62
252
70
128
10
0.000000
20
0.000000
30
0.000000
71
2
72
3
73
1
0
VERTEX
8
0
6
CONTINUOUS
62
252
70
128
10
0.000000
20
0.000000
30
0.000000
71
1
72
3
73
4
0
SEQEND
0
POLYLINE
66
1
8
0
6
CONTINUOUS
62
252
70
64
75
0
10
0.000000
20
0.000000
30
0.000000
0
VERTEX
8
0
6
CONTINUOUS
62
252
70
192
10
-0.500000
20
-6.500000
30
83.300000
0
VERTEX
8
0
6
CONTINUOUS
62
252
70
192
10
-8.500000
20
-6.500000
30
83.300000
0
VERTEX
8
0
6
CONTINUOUS
62
252
70
192
10
-8.500000
20
-6.500000
30
86.900000
0
VERTEX
8
0
6
CONTINUOUS
62
252
70
192
10
-0.500000
20
-6.500000
30
86.900000
0
VERTEX
8
0
6
CONTINUOUS
62
252
70
128
10
0.000000
20
0.000000
30
0.000000
71
1
72
2
73
4
0
VERTEX
8
0
6
CONTINUOUS
62
252
70
128
10
0.000000
20
0.000000
30
0.000000
71
4
72
2
73
3
0
SEQEND
0
POLYLINE
66
1
8
0
6
CONTINUOUS
62
252
70
64
75
0
10
0.000000
20
0.000000
30
0.000000
0
VERTEX
8
0
6
CONTINUOUS
62
252
70
192
10
-0.500000
20
-2.700000
30
83.300000
0
VERTEX
8
0
6
CONTINUOUS
62
252
70
192
10
-8.500000
20
-2.700000
30
83.300000
0
VERTEX
8
0
6
CONTINUOUS
62
252
70
192
10
-8.500000
20
-6.500000
30
83.300000
0
VERTEX
8
0
6
CONTINUOUS
62
252
70
192
10
-0.500000
20
-6.500000
30
83.300000
0
VERTEX
8
0
6
CONTINUOUS
62
252
70
128
10
0.000000
20
0.000000
30
0.000000
71
1
72
2
73
4
0
VERTEX
8
0
6
CONTINUOUS
62
252
70
128
10
0.000000
20
0.000000
30
0.000000
71
4
72
2
73
3
0
SEQEND
0
POLYLINE
66
1
8
0
6
CONTINUOUS
62
252
70
64
75
0
10
0.000000
20
0.000000
30
0.000000
0
VERTEX
8
0
6
CONTINUOUS
62
252
70
192
10
-0.500000
20
-2.700000
30
86.900000
0
VERTEX
8
0
6
CONTINUOUS
62
252
70
192
10
-8.500000
20
-2.700000
30
86.900000
0
VERTEX
8
0
6
CONTINUOUS
62
252
70
192
10
-8.500000
20
-2.700000
30
83.300000
0
VERTEX
8
0
6
CONTINUOUS
62
252
70
192
10
-0.500000
20
-2.700000
30
83.300000
0
VERTEX
8
0
6
CONTINUOUS
62
252
70
128
10
0.000000
20
0.000000
30
0.000000
71
2
72
3
73
1
0
VERTEX
8
0
6
CONTINUOUS
62
252
70
128
10
0.000000
20
0.000000
30
0.000000
71
1
72
3
73
4
0
SEQEND
0
POLYLINE
66
1
8
0
6
CONTINUOUS
62
252
70
64
75
0
10
0.000000
20
0.000000
30
0.000000
0
VERTEX
8
0
6
CONTINUOUS
62
252
70
192
10
-0.500000
20
-6.500000
30
86.900000
0
VERTEX
8
0
6
CONTINUOUS
62
252
70
192
10
-8.500000
20
-6.500000
30
86.900000
0
VERTEX
8
0
6
CONTINUOUS
62
252
70
192
10
-8.500000
20
-2.700000
30
86.900000
0
VERTEX
8
0
6
CONTINUOUS
62
252
70
192
10
-0.500000
20
-2.700000
30
86.900000
0
VERTEX
8
0
6
CONTINUOUS
62
252
70
128
10
0.000000
20
0.000000
30
0.000000
71
1
72
2
73
4
0
VERTEX
8
0
6
CONTINUOUS
62
252
70
128
10
0.000000
20
0.000000
30
0.000000
71
4
72
2
73
3
0
SEQEND
0
POLYLINE
66
1
8
0
6
CONTINUOUS
62
252
70
64
75
0
10
0.000000
20
0.000000
30
0.000000
0
VERTEX
8
0
6
CONTINUOUS
62
252
70
192
10
-0.500000
20
-10.900000
30
86.900000
0
VERTEX
8
0
6
CONTINUOUS
62
252
70
192
10
-0.500000
20
-7.100000
30
86.900000
0
VERTEX
8
0
6
CONTINUOUS
62
252
70
192
10
-0.500000
20
-7.100000
30
83.300000
0
VERTEX
8
0
6
CONTINUOUS
62
252
70
192
10
-0.500000
20
-10.900000
30
83.300000
0
VERTEX
8
0
6
CONTINUOUS
62
252
70
128
10
0.000000
20
0.000000
30
0.000000
71
2
72
3
73
1
0
VERTEX
8
0
6
CONTINUOUS
62
252
70
128
10
0.000000
20
0.000000
30
0.000000
71
1
72
3
73
4
0
SEQEND
0
POLYLINE
66
1
8
0
6
CONTINUOUS
62
252
70
64
75
0
10
0.000000
20
0.000000
30
0.000000
0
VERTEX
8
0
6
CONTINUOUS
62
252
70
192
10
-0.500000
20
-10.900000
30
83.300000
0
VERTEX
8
0
6
CONTINUOUS
62
252
70
192
10
-8.500000
20
-10.900000
30
83.300000
0
VERTEX
8
0
6
CONTINUOUS
62
252
70
192
10
-8.500000
20
-10.900000
30
86.900000
0
VERTEX
8
0
6
CONTINUOUS
62
252
70
192
10
-0.500000
20
-10.900000
30
86.900000
0
VERTEX
8
0
6
CONTINUOUS
62
252
70
128
10
0.000000
20
0.000000
30
0.000000
71
1
72
2
73
4
0
VERTEX
8
0
6
CONTINUOUS
62
252
70
128
10
0.000000
20
0.000000
30
0.000000
71
4
72
2
73
3
0
SEQEND
0
POLYLINE
66
1
8
0
6
CONTINUOUS
62
252
70
64
75
0
10
0.000000
20
0.000000
30
0.000000
0
VERTEX
8
0
6
CONTINUOUS
62
252
70
192
10
-0.500000
20
-7.100000
30
83.300000
0
VERTEX
8
0
6
CONTINUOUS
62
252
70
192
10
-8.500000
20
-7.100000
30
83.300000
0
VERTEX
8
0
6
CONTINUOUS
62
252
70
192
10
-8.500000
20
-10.900000
30
83.300000
0
VERTEX
8
0
6
CONTINUOUS
62
252
70
192
10
-0.500000
20
-10.900000
30
83.300000
0
VERTEX
8
0
6
CONTINUOUS
62
252
70
128
10
0.000000
20
0.000000
30
0.000000
71
1
72
2
73
4
0
VERTEX
8
0
6
CONTINUOUS
62
252
70
128
10
0.000000
20
0.000000
30
0.000000
71
4
72
2
73
3
0
SEQEND
0
POLYLINE
66
1
8
0
6
CONTINUOUS
62
252
70
64
75
0
10
0.000000
20
0.000000
30
0.000000
0
VERTEX
8
0
6
CONTINUOUS
62
252
70
192
10
-0.500000
20
-7.100000
30
86.900000
0
VERTEX
8
0
6
CONTINUOUS
62
252
70
192
10
-8.500000
20
-7.100000
30
86.900000
0
VERTEX
8
0
6
CONTINUOUS
62
252
70
192
10
-8.500000
20
-7.100000
30
83.300000
0
VERTEX
8
0
6
CONTINUOUS
62
252
70
192
10
-0.500000
20
-7.100000
30
83.300000
0
VERTEX
8
0
6
CONTINUOUS
62
252
70
128
10
0.000000
20
0.000000
30
0.000000
71
2
72
3
73
1
0
VERTEX
8
0
6
CONTINUOUS
62
252
70
128
10
0.000000
20
0.000000
30
0.000000
71
1
72
3
73
4
0
SEQEND
0
POLYLINE
66
1
8
0
6
CONTINUOUS
62
252
70
64
75
0
10
0.000000
20
0.000000
30
0.000000
0
VERTEX
8
0
6
CONTINUOUS
62
252
70
192
10
-0.500000
20
-10.900000
30
86.900000
0
VERTEX
8
0
6
CONTINUOUS
62
252
70
192
10
-8.500000
20
-10.900000
30
86.900000
0
VERTEX
8
0
6
CONTINUOUS
62
252
70
192
10
-8.500000
20
-7.100000
30
86.900000
0
VERTEX
8
0
6
CONTINUOUS
62
252
70
192
10
-0.500000
20
-7.100000
30
86.900000
0
VERTEX
8
0
6
CONTINUOUS
62
252
70
128
10
0.000000
20
0.000000
30
0.000000
71
1
72
2
73
4
0
VERTEX
8
0
6
CONTINUOUS
62
252
70
128
10
0.000000
20
0.000000
30
0.000000
71
4
72
2
73
3
0
SEQEND
0
POLYLINE
66
1
8
0
6
CONTINUOUS
62
252
70
64
75
0
10
0.000000
20
0.000000
30
0.000000
0
VERTEX
8
0
6
CONTINUOUS
62
252
70
192
10
-0.500000
20
-6.500000
30
82.700000
0
VERTEX
8
0
6
CONTINUOUS
62
252
70
192
10
-0.500000
20
-2.700000
30
82.700000
0
VERTEX
8
0
6
CONTINUOUS
62
252
70
192
10
-0.500000
20
-2.700000
30
79.100000
0
VERTEX
8
0
6
CONTINUOUS
62
252
70
192
10
-0.500000
20
-6.500000
30
79.100000
0
VERTEX
8
0
6
CONTINUOUS
62
252
70
128
10
0.000000
20
0.000000
30
0.000000
71
2
72
3
73
1
0
VERTEX
8
0
6
CONTINUOUS
62
252
70
128
10
0.000000
20
0.000000
30
0.000000
71
1
72
3
73
4
0
SEQEND
0
POLYLINE
66
1
8
0
6
CONTINUOUS
62
252
70
64
75
0
10
0.000000
20
0.000000
30
0.000000
0
VERTEX
8
0
6
CONTINUOUS
62
252
70
192
10
-0.500000
20
-6.500000
30
79.100000
0
VERTEX
8
0
6
CONTINUOUS
62
252
70
192
10
-8.500000
20
-6.500000
30
79.100000
0
VERTEX
8
0
6
CONTINUOUS
62
252
70
192
10
-8.500000
20
-6.500000
30
82.700000
0
VERTEX
8
0
6
CONTINUOUS
62
252
70
192
10
-0.500000
20
-6.500000
30
82.700000
0
VERTEX
8
0
6
CONTINUOUS
62
252
70
128
10
0.000000
20
0.000000
30
0.000000
71
1
72
2
73
4
0
VERTEX
8
0
6
CONTINUOUS
62
252
70
128
10
0.000000
20
0.000000
30
0.000000
71
4
72
2
73
3
0
SEQEND
0
POLYLINE
66
1
8
0
6
CONTINUOUS
62
252
70
64
75
0
10
0.000000
20
0.000000
30
0.000000
0
VERTEX
8
0
6
CONTINUOUS
62
252
70
192
10
-0.500000
20
-2.700000
30
79.100000
0
VERTEX
8
0
6
CONTINUOUS
62
252
70
192
10
-8.500000
20
-2.700000
30
79.100000
0
VERTEX
8
0
6
CONTINUOUS
62
252
70
192
10
-8.500000
20
-6.500000
30
79.100000
0
VERTEX
8
0
6
CONTINUOUS
62
252
70
192
10
-0.500000
20
-6.500000
30
79.100000
0
VERTEX
8
0
6
CONTINUOUS
62
252
70
128
10
0.000000
20
0.000000
30
0.000000
71
1
72
2
73
4
0
VERTEX
8
0
6
CONTINUOUS
62
252
70
128
10
0.000000
20
0.000000
30
0.000000
71
4
72
2
73
3
0
SEQEND
0
POLYLINE
66
1
8
0
6
CONTINUOUS
62
252
70
64
75
0
10
0.000000
20
0.000000
30
0.000000
0
VERTEX
8
0
6
CONTINUOUS
62
252
70
192
10
-0.500000
20
-2.700000
30
82.700000
0
VERTEX
8
0
6
CONTINUOUS
62
252
70
192
10
-8.500000
20
-2.700000
30
82.700000
0
VERTEX
8
0
6
CONTINUOUS
62
252
70
192
10
-8.500000
20
-2.700000
30
79.100000
0
VERTEX
8
0
6
CONTINUOUS
62
252
70
192
10
-0.500000
20
-2.700000
30
79.100000
0
VERTEX
8
0
6
CONTINUOUS
62
252
70
128
10
0.000000
20
0.000000
30
0.000000
71
2
72
3
73
1
0
VERTEX
8
0
6
CONTINUOUS
62
252
70
128
10
0.000000
20
0.000000
30
0.000000
71
1
72
3
73
4
0
SEQEND
0
POLYLINE
66
1
8
0
6
CONTINUOUS
62
252
70
64
75
0
10
0.000000
20
0.000000
30
0.000000
0
VERTEX
8
0
6
CONTINUOUS
62
252
70
192
10
-0.500000
20
-6.500000
30
82.700000
0
VERTEX
8
0
6
CONTINUOUS
62
252
70
192
10
-8.500000
20
-6.500000
30
82.700000
0
VERTEX
8
0
6
CONTINUOUS
62
252
70
192
10
-8.500000
20
-2.700000
30
82.700000
0
VERTEX
8
0
6
CONTINUOUS
62
252
70
192
10
-0.500000
20
-2.700000
30
82.700000
0
VERTEX
8
0
6
CONTINUOUS
62
252
70
128
10
0.000000
20
0.000000
30
0.000000
71
1
72
2
73
4
0
VERTEX
8
0
6
CONTINUOUS
62
252
70
128
10
0.000000
20
0.000000
30
0.000000
71
4
72
2
73
3
0
SEQEND
0
POLYLINE
66
1
8
0
6
CONTINUOUS
62
252
70
64
75
0
10
0.000000
20
0.000000
30
0.000000
0
VERTEX
8
0
6
CONTINUOUS
62
252
70
192
10
-0.500000
20
-10.900000
30
82.700000
0
VERTEX
8
0
6
CONTINUOUS
62
252
70
192
10
-0.500000
20
-7.100000
30
82.700000
0
VERTEX
8
0
6
CONTINUOUS
62
252
70
192
10
-0.500000
20
-7.100000
30
79.100000
0
VERTEX
8
0
6
CONTINUOUS
62
252
70
192
10
-0.500000
20
-10.900000
30
79.100000
0
VERTEX
8
0
6
CONTINUOUS
62
252
70
128
10
0.000000
20
0.000000
30
0.000000
71
2
72
3
73
1
0
VERTEX
8
0
6
CONTINUOUS
62
252
70
128
10
0.000000
20
0.000000
30
0.000000
71
1
72
3
73
4
0
SEQEND
0
POLYLINE
66
1
8
0
6
CONTINUOUS
62
252
70
64
75
0
10
0.000000
20
0.000000
30
0.000000
0
VERTEX
8
0
6
CONTINUOUS
62
252
70
192
10
-0.500000
20
-10.900000
30
79.100000
0
VERTEX
8
0
6
CONTINUOUS
62
252
70
192
10
-8.500000
20
-10.900000
30
79.100000
0
VERTEX
8
0
6
CONTINUOUS
62
252
70
192
10
-8.500000
20
-10.900000
30
82.700000
0
VERTEX
8
0
6
CONTINUOUS
62
252
70
192
10
-0.500000
20
-10.900000
30
82.700000
0
VERTEX
8
0
6
CONTINUOUS
62
252
70
128
10
0.000000
20
0.000000
30
0.000000
71
1
72
2
73
4
0
VERTEX
8
0
6
CONTINUOUS
62
252
70
128
10
0.000000
20
0.000000
30
0.000000
71
4
72
2
73
3
0
SEQEND
0
POLYLINE
66
1
8
0
6
CONTINUOUS
62
252
70
64
75
0
10
0.000000
20
0.000000
30
0.000000
0
VERTEX
8
0
6
CONTINUOUS
62
252
70
192
10
-0.500000
20
-7.100000
30
79.100000
0
VERTEX
8
0
6
CONTINUOUS
62
252
70
192
10
-8.500000
20
-7.100000
30
79.100000
0
VERTEX
8
0
6
CONTINUOUS
62
252
70
192
10
-8.500000
20
-10.900000
30
79.100000
0
VERTEX
8
0
6
CONTINUOUS
62
252
70
192
10
-0.500000
20
-10.900000
30
79.100000
0
VERTEX
8
0
6
CONTINUOUS
62
252
70
128
10
0.000000
20
0.000000
30
0.000000
71
1
72
2
73
4
0
VERTEX
8
0
6
CONTINUOUS
62
252
70
128
10
0.000000
20
0.000000
30
0.000000
71
4
72
2
73
3
0
SEQEND
0
POLYLINE
66
1
8
0
6
CONTINUOUS
62
252
70
64
75
0
10
0.000000
20
0.000000
30
0.000000
0
VERTEX
8
0
6
CONTINUOUS
62
252
70
192
10
-0.500000
20
-7.100000
30
82.700000
0
VERTEX
8
0
6
CONTINUOUS
62
252
70
192
10
-8.500000
20
-7.100000
30
82.700000
0
VERTEX
8
0
6
CONTINUOUS
62
252
70
192
10
-8.500000
20
-7.100000
30
79.100000
0
VERTEX
8
0
6
CONTINUOUS
62
252
70
192
10
-0.500000
20
-7.100000
30
79.100000
0
VERTEX
8
0
6
CONTINUOUS
62
252
70
128
10
0.000000
20
0.000000
30
0.000000
71
2
72
3
73
1
0
VERTEX
8
0
6
CONTINUOUS
62
252
70
128
10
0.000000
20
0.000000
30
0.000000
71
1
72
3
73
4
0
SEQEND
0
POLYLINE
66
1
8
0
6
CONTINUOUS
62
252
70
64
75
0
10
0.000000
20
0.000000
30
0.000000
0
VERTEX
8
0
6
CONTINUOUS
62
252
70
192
10
-0.500000
20
-10.900000
30
82.700000
0
VERTEX
8
0
6
CONTINUOUS
62
252
70
192
10
-8.500000
20
-10.900000
30
82.700000
0
VERTEX
8
0
6
CONTINUOUS
62
252
70
192
10
-8.500000
20
-7.100000
30
82.700000
0
VERTEX
8
0
6
CONTINUOUS
62
252
70
192
10
-0.500000
20
-7.100000
30
82.700000
0
VERTEX
8
0
6
CONTINUOUS
62
252
70
128
10
0.000000
20
0.000000
30
0.000000
71
1
72
2
73
4
0
VERTEX
8
0
6
CONTINUOUS
62
252
70
128
10
0.000000
20
0.000000
30
0.000000
71
4
72
2
73
3
0
SEQEND
0
POLYLINE
66
1
8
0
6
CONTINUOUS
62
252
70
64
75
0
10
0.000000
20
0.000000
30
0.000000
0
VERTEX
8
0
6
CONTINUOUS
62
252
70
192
10
-0.500000
20
-6.500000
30
78.500000
0
VERTEX
8
0
6
CONTINUOUS
62
252
70
192
10
-0.500000
20
-2.700000
30
78.500000
0
VERTEX
8
0
6
CONTINUOUS
62
252
70
192
10
-0.500000
20
-2.700000
30
74.900000
0
VERTEX
8
0
6
CONTINUOUS
62
252
70
192
10
-0.500000
20
-6.500000
30
74.900000
0
VERTEX
8
0
6
CONTINUOUS
62
252
70
128
10
0.000000
20
0.000000
30
0.000000
71
2
72
3
73
1
0
VERTEX
8
0
6
CONTINUOUS
62
252
70
128
10
0.000000
20
0.000000
30
0.000000
71
1
72
3
73
4
0
SEQEND
0
POLYLINE
66
1
8
0
6
CONTINUOUS
62
252
70
64
75
0
10
0.000000
20
0.000000
30
0.000000
0
VERTEX
8
0
6
CONTINUOUS
62
252
70
192
10
-0.500000
20
-6.500000
30
74.900000
0
VERTEX
8
0
6
CONTINUOUS
62
252
70
192
10
-8.500000
20
-6.500000
30
74.900000
0
VERTEX
8
0
6
CONTINUOUS
62
252
70
192
10
-8.500000
20
-6.500000
30
78.500000
0
VERTEX
8
0
6
CONTINUOUS
62
252
70
192
10
-0.500000
20
-6.500000
30
78.500000
0
VERTEX
8
0
6
CONTINUOUS
62
252
70
128
10
0.000000
20
0.000000
30
0.000000
71
1
72
2
73
4
0
VERTEX
8
0
6
CONTINUOUS
62
252
70
128
10
0.000000
20
0.000000
30
0.000000
71
4
72
2
73
3
0
SEQEND
0
POLYLINE
66
1
8
0
6
CONTINUOUS
62
252
70
64
75
0
10
0.000000
20
0.000000
30
0.000000
0
VERTEX
8
0
6
CONTINUOUS
62
252
70
192
10
-0.500000
20
-2.700000
30
74.900000
0
VERTEX
8
0
6
CONTINUOUS
62
252
70
192
10
-8.500000
20
-2.700000
30
74.900000
0
VERTEX
8
0
6
CONTINUOUS
62
252
70
192
10
-8.500000
20
-6.500000
30
74.900000
0
VERTEX
8
0
6
CONTINUOUS
62
252
70
192
10
-0.500000
20
-6.500000
30
74.900000
0
VERTEX
8
0
6
CONTINUOUS
62
252
70
128
10
0.000000
20
0.000000
30
0.000000
71
1
72
2
73
4
0
VERTEX
8
0
6
CONTINUOUS
62
252
70
128
10
0.000000
20
0.000000
30
0.000000
71
4
72
2
73
3
0
SEQEND
0
POLYLINE
66
1
8
0
6
CONTINUOUS
62
252
70
64
75
0
10
0.000000
20
0.000000
30
0.000000
0
VERTEX
8
0
6
CONTINUOUS
62
252
70
192
10
-0.500000
20
-2.700000
30
78.500000
0
VERTEX
8
0
6
CONTINUOUS
62
252
70
192
10
-8.500000
20
-2.700000
30
78.500000
0
VERTEX
8
0
6
CONTINUOUS
62
252
70
192
10
-8.500000
20
-2.700000
30
74.900000
0
VERTEX
8
0
6
CONTINUOUS
62
252
70
192
10
-0.500000
20
-2.700000
30
74.900000
0
VERTEX
8
0
6
CONTINUOUS
62
252
70
128
10
0.000000
20
0.000000
30
0.000000
71
2
72
3
73
1
0
VERTEX
8
0
6
CONTINUOUS
62
252
70
128
10
0.000000
20
0.000000
30
0.000000
71
1
72
3
73
4
0
SEQEND
0
POLYLINE
66
1
8
0
6
CONTINUOUS
62
252
70
64
75
0
10
0.000000
20
0.000000
30
0.000000
0
VERTEX
8
0
6
CONTINUOUS
62
252
70
192
10
-0.500000
20
-6.500000
30
78.500000
0
VERTEX
8
0
6
CONTINUOUS
62
252
70
192
10
-8.500000
20
-6.500000
30
78.500000
0
VERTEX
8
0
6
CONTINUOUS
62
252
70
192
10
-8.500000
20
-2.700000
30
78.500000
0
VERTEX
8
0
6
CONTINUOUS
62
252
70
192
10
-0.500000
20
-2.700000
30
78.500000
0
VERTEX
8
0
6
CONTINUOUS
62
252
70
128
10
0.000000
20
0.000000
30
0.000000
71
1
72
2
73
4
0
VERTEX
8
0
6
CONTINUOUS
62
252
70
128
10
0.000000
20
0.000000
30
0.000000
71
4
72
2
73
3
0
SEQEND
0
POLYLINE
66
1
8
0
6
CONTINUOUS
62
252
70
64
75
0
10
0.000000
20
0.000000
30
0.000000
0
VERTEX
8
0
6
CONTINUOUS
62
252
70
192
10
-0.500000
20
-10.900000
30
78.500000
0
VERTEX
8
0
6
CONTINUOUS
62
252
70
192
10
-0.500000
20
-7.100000
30
78.500000
0
VERTEX
8
0
6
CONTINUOUS
62
252
70
192
10
-0.500000
20
-7.100000
30
74.900000
0
VERTEX
8
0
6
CONTINUOUS
62
252
70
192
10
-0.500000
20
-10.900000
30
74.900000
0
VERTEX
8
0
6
CONTINUOUS
62
252
70
128
10
0.000000
20
0.000000
30
0.000000
71
2
72
3
73
1
0
VERTEX
8
0
6
CONTINUOUS
62
252
70
128
10
0.000000
20
0.000000
30
0.000000
71
1
72
3
73
4
0
SEQEND
0
POLYLINE
66
1
8
0
6
CONTINUOUS
62
252
70
64
75
0
10
0.000000
20
0.000000
30
0.000000
0
VERTEX
8
0
6
CONTINUOUS
62
252
70
192
10
-0.500000
20
-10.900000
30
74.900000
0
VERTEX
8
0
6
CONTINUOUS
62
252
70
192
10
-8.500000
20
-10.900000
30
74.900000
0
VERTEX
8
0
6
CONTINUOUS
62
252
70
192
10
-8.500000
20
-10.900000
30
78.500000
0
VERTEX
8
0
6
CONTINUOUS
62
252
70
192
10
-0.500000
20
-10.900000
30
78.500000
0
VERTEX
8
0
6
CONTINUOUS
62
252
70
128
10
0.000000
20
0.000000
30
0.000000
71
1
72
2
73
4
0
VERTEX
8
0
6
CONTINUOUS
62
252
70
128
10
0.000000
20
0.000000
30
0.000000
71
4
72
2
73
3
0
SEQEND
0
POLYLINE
66
1
8
0
6
CONTINUOUS
62
252
70
64
75
0
10
0.000000
20
0.000000
30
0.000000
0
VERTEX
8
0
6
CONTINUOUS
62
252
70
192
10
-0.500000
20
-7.100000
30
74.900000
0
VERTEX
8
0
6
CONTINUOUS
62
252
70
192
10
-8.500000
20
-7.100000
30
74.900000
0
VERTEX
8
0
6
CONTINUOUS
62
252
70
192
10
-8.500000
20
-10.900000
30
74.900000
0
VERTEX
8
0
6
CONTINUOUS
62
252
70
192
10
-0.500000
20
-10.900000
30
74.900000
0
VERTEX
8
0
6
CONTINUOUS
62
252
70
128
10
0.000000
20
0.000000
30
0.000000
71
1
72
2
73
4
0
VERTEX
8
0
6
CONTINUOUS
62
252
70
128
10
0.000000
20
0.000000
30
0.000000
71
4
72
2
73
3
0
SEQEND
0
POLYLINE
66
1
8
0
6
CONTINUOUS
62
252
70
64
75
0
10
0.000000
20
0.000000
30
0.000000
0
VERTEX
8
0
6
CONTINUOUS
62
252
70
192
10
-0.500000
20
-7.100000
30
78.500000
0
VERTEX
8
0
6
CONTINUOUS
62
252
70
192
10
-8.500000
20
-7.100000
30
78.500000
0
VERTEX
8
0
6
CONTINUOUS
62
252
70
192
10
-8.500000
20
-7.100000
30
74.900000
0
VERTEX
8
0
6
CONTINUOUS
62
252
70
192
10
-0.500000
20
-7.100000
30
74.900000
0
VERTEX
8
0
6
CONTINUOUS
62
252
70
128
10
0.000000
20
0.000000
30
0.000000
71
2
72
3
73
1
0
VERTEX
8
0
6
CONTINUOUS
62
252
70
128
10
0.000000
20
0.000000
30
0.000000
71
1
72
3
73
4
0
SEQEND
0
POLYLINE
66
1
8
0
6
CONTINUOUS
62
252
70
64
75
0
10
0.000000
20
0.000000
30
0.000000
0
VERTEX
8
0
6
CONTINUOUS
62
252
70
192
10
-0.500000
20
-10.900000
30
78.500000
0
VERTEX
8
0
6
CONTINUOUS
62
252
70
192
10
-8.500000
20
-10.900000
30
78.500000
0
VERTEX
8
0
6
CONTINUOUS
62
252
70
192
10
-8.500000
20
-7.100000
30
78.500000
0
VERTEX
8
0
6
CONTINUOUS
62
252
70
192
10
-0.500000
20
-7.100000
30
78.500000
0
VERTEX
8
0
6
CONTINUOUS
62
252
70
128
10
0.000000
20
0.000000
30
0.000000
71
1
72
2
73
4
0
VERTEX
8
0
6
CONTINUOUS
62
252
70
128
10
0.000000
20
0.000000
30
0.000000
71
4
72
2
73
3
0
SEQEND
0
POLYLINE
66
1
8
0
6
CONTINUOUS
62
252
70
64
75
0
10
0.000000
20
0.000000
30
0.000000
0
VERTEX
8
0
6
CONTINUOUS
62
252
70
192
10
-0.500000
20
-6.500000
30
74.300000
0
VERTEX
8
0
6
CONTINUOUS
62
252
70
192
10
-0.500000
20
-2.700000
30
74.300000
0
VERTEX
8
0
6
CONTINUOUS
62
252
70
192
10
-0.500000
20
-2.700000
30
70.700000
0
VERTEX
8
0
6
CONTINUOUS
62
252
70
192
10
-0.500000
20
-6.500000
30
70.700000
0
VERTEX
8
0
6
CONTINUOUS
62
252
70
128
10
0.000000
20
0.000000
30
0.000000
71
2
72
3
73
1
0
VERTEX
8
0
6
CONTINUOUS
62
252
70
128
10
0.000000
20
0.000000
30
0.000000
71
1
72
3
73
4
0
SEQEND
0
POLYLINE
66
1
8
0
6
CONTINUOUS
62
252
70
64
75
0
10
0.000000
20
0.000000
30
0.000000
0
VERTEX
8
0
6
CONTINUOUS
62
252
70
192
10
-0.500000
20
-6.500000
30
70.700000
0
VERTEX
8
0
6
CONTINUOUS
62
252
70
192
10
-8.500000
20
-6.500000
30
70.700000
0
VERTEX
8
0
6
CONTINUOUS
62
252
70
192
10
-8.500000
20
-6.500000
30
74.300000
0
VERTEX
8
0
6
CONTINUOUS
62
252
70
192
10
-0.500000
20
-6.500000
30
74.300000
0
VERTEX
8
0
6
CONTINUOUS
62
252
70
128
10
0.000000
20
0.000000
30
0.000000
71
1
72
2
73
4
0
VERTEX
8
0
6
CONTINUOUS
62
252
70
128
10
0.000000
20
0.000000
30
0.000000
71
4
72
2
73
3
0
SEQEND
0
POLYLINE
66
1
8
0
6
CONTINUOUS
62
252
70
64
75
0
10
0.000000
20
0.000000
30
0.000000
0
VERTEX
8
0
6
CONTINUOUS
62
252
70
192
10
-0.500000
20
-2.700000
30
70.700000
0
VERTEX
8
0
6
CONTINUOUS
62
252
70
192
10
-8.500000
20
-2.700000
30
70.700000
0
VERTEX
8
0
6
CONTINUOUS
62
252
70
192
10
-8.500000
20
-6.500000
30
70.700000
0
VERTEX
8
0
6
CONTINUOUS
62
252
70
192
10
-0.500000
20
-6.500000
30
70.700000
0
VERTEX
8
0
6
CONTINUOUS
62
252
70
128
10
0.000000
20
0.000000
30
0.000000
71
1
72
2
73
4
0
VERTEX
8
0
6
CONTINUOUS
62
252
70
128
10
0.000000
20
0.000000
30
0.000000
71
4
72
2
73
3
0
SEQEND
0
POLYLINE
66
1
8
0
6
CONTINUOUS
62
252
70
64
75
0
10
0.000000
20
0.000000
30
0.000000
0
VERTEX
8
0
6
CONTINUOUS
62
252
70
192
10
-0.500000
20
-2.700000
30
74.300000
0
VERTEX
8
0
6
CONTINUOUS
62
252
70
192
10
-8.500000
20
-2.700000
30
74.300000
0
VERTEX
8
0
6
CONTINUOUS
62
252
70
192
10
-8.500000
20
-2.700000
30
70.700000
0
VERTEX
8
0
6
CONTINUOUS
62
252
70
192
10
-0.500000
20
-2.700000
30
70.700000
0
VERTEX
8
0
6
CONTINUOUS
62
252
70
128
10
0.000000
20
0.000000
30
0.000000
71
2
72
3
73
1
0
VERTEX
8
0
6
CONTINUOUS
62
252
70
128
10
0.000000
20
0.000000
30
0.000000
71
1
72
3
73
4
0
SEQEND
0
POLYLINE
66
1
8
0
6
CONTINUOUS
62
252
70
64
75
0
10
0.000000
20
0.000000
30
0.000000
0
VERTEX
8
0
6
CONTINUOUS
62
252
70
192
10
-0.500000
20
-6.500000
30
74.300000
0
VERTEX
8
0
6
CONTINUOUS
62
252
70
192
10
-8.500000
20
-6.500000
30
74.300000
0
VERTEX
8
0
6
CONTINUOUS
62
252
70
192
10
-8.500000
20
-2.700000
30
74.300000
0
VERTEX
8
0
6
CONTINUOUS
62
252
70
192
10
-0.500000
20
-2.700000
30
74.300000
0
VERTEX
8
0
6
CONTINUOUS
62
252
70
128
10
0.000000
20
0.000000
30
0.000000
71
1
72
2
73
4
0
VERTEX
8
0
6
CONTINUOUS
62
252
70
128
10
0.000000
20
0.000000
30
0.000000
71
4
72
2
73
3
0
SEQEND
0
POLYLINE
66
1
8
0
6
CONTINUOUS
62
252
70
64
75
0
10
0.000000
20
0.000000
30
0.000000
0
VERTEX
8
0
6
CONTINUOUS
62
252
70
192
10
-0.500000
20
-10.900000
30
74.300000
0
VERTEX
8
0
6
CONTINUOUS
62
252
70
192
10
-0.500000
20
-7.100000
30
74.300000
0
VERTEX
8
0
6
CONTINUOUS
62
252
70
192
10
-0.500000
20
-7.100000
30
70.700000
0
VERTEX
8
0
6
CONTINUOUS
62
252
70
192
10
-0.500000
20
-10.900000
30
70.700000
0
VERTEX
8
0
6
CONTINUOUS
62
252
70
128
10
0.000000
20
0.000000
30
0.000000
71
2
72
3
73
1
0
VERTEX
8
0
6
CONTINUOUS
62
252
70
128
10
0.000000
20
0.000000
30
0.000000
71
1
72
3
73
4
0
SEQEND
0
POLYLINE
66
1
8
0
6
CONTINUOUS
62
252
70
64
75
0
10
0.000000
20
0.000000
30
0.000000
0
VERTEX
8
0
6
CONTINUOUS
62
252
70
192
10
-0.500000
20
-10.900000
30
70.700000
0
VERTEX
8
0
6
CONTINUOUS
62
252
70
192
10
-8.500000
20
-10.900000
30
70.700000
0
VERTEX
8
0
6
CONTINUOUS
62
252
70
192
10
-8.500000
20
-10.900000
30
74.300000
0
VERTEX
8
0
6
CONTINUOUS
62
252
70
192
10
-0.500000
20
-10.900000
30
74.300000
0
VERTEX
8
0
6
CONTINUOUS
62
252
70
128
10
0.000000
20
0.000000
30
0.000000
71
1
72
2
73
4
0
VERTEX
8
0
6
CONTINUOUS
62
252
70
128
10
0.000000
20
0.000000
30
0.000000
71
4
72
2
73
3
0
SEQEND
0
POLYLINE
66
1
8
0
6
CONTINUOUS
62
252
70
64
75
0
10
0.000000
20
0.000000
30
0.000000
0
VERTEX
8
0
6
CONTINUOUS
62
252
70
192
10
-0.500000
20
-7.100000
30
70.700000
0
VERTEX
8
0
6
CONTINUOUS
62
252
70
192
10
-8.500000
20
-7.100000
30
70.700000
0
VERTEX
8
0
6
CONTINUOUS
62
252
70
192
10
-8.500000
20
-10.900000
30
70.700000
0
VERTEX
8
0
6
CONTINUOUS
62
252
70
192
10
-0.500000
20
-10.900000
30
70.700000
0
VERTEX
8
0
6
CONTINUOUS
62
252
70
128
10
0.000000
20
0.000000
30
0.000000
71
1
72
2
73
4
0
VERTEX
8
0
6
CONTINUOUS
62
252
70
128
10
0.000000
20
0.000000
30
0.000000
71
4
72
2
73
3
0
SEQEND
0
POLYLINE
66
1
8
0
6
CONTINUOUS
62
252
70
64
75
0
10
0.000000
20
0.000000
30
0.000000
0
VERTEX
8
0
6
CONTINUOUS
62
252
70
192
10
-0.500000
20
-7.100000
30
74.300000
0
VERTEX
8
0
6
CONTINUOUS
62
252
70
192
10
-8.500000
20
-7.100000
30
74.300000
0
VERTEX
8
0
6
CONTINUOUS
62
252
70
192
10
-8.500000
20
-7.100000
30
70.700000
0
VERTEX
8
0
6
CONTINUOUS
62
252
70
192
10
-0.500000
20
-7.100000
30
70.700000
0
VERTEX
8
0
6
CONTINUOUS
62
252
70
128
10
0.000000
20
0.000000
30
0.000000
71
2
72
3
73
1
0
VERTEX
8
0
6
CONTINUOUS
62
252
70
128
10
0.000000
20
0.000000
30
0.000000
71
1
72
3
73
4
0
SEQEND
0
POLYLINE
66
1
8
0
6
CONTINUOUS
62
252
70
64
75
0
10
0.000000
20
0.000000
30
0.000000
0
VERTEX
8
0
6
CONTINUOUS
62
252
70
192
10
-0.500000
20
-10.900000
30
74.300000
0
VERTEX
8
0
6
CONTINUOUS
62
252
70
192
10
-8.500000
20
-10.900000
30
74.300000
0
VERTEX
8
0
6
CONTINUOUS
62
252
70
192
10
-8.500000
20
-7.100000
30
74.300000
0
VERTEX
8
0
6
CONTINUOUS
62
252
70
192
10
-0.500000
20
-7.100000
30
74.300000
0
VERTEX
8
0
6
CONTINUOUS
62
252
70
128
10
0.000000
20
0.000000
30
0.000000
71
1
72
2
73
4
0
VERTEX
8
0
6
CONTINUOUS
62
252
70
128
10
0.000000
20
0.000000
30
0.000000
71
4
72
2
73
3
0
SEQEND
0
POLYLINE
66
1
8
0
6
CONTINUOUS
62
252
70
64
75
0
10
0.000000
20
0.000000
30
0.000000
0
VERTEX
8
0
6
CONTINUOUS
62
252
70
192
10
-5.500000
20
-11.600000
30
77.100000
0
VERTEX
8
0
6
CONTINUOUS
62
252
70
192
10
-8.500000
20
-11.600000
30
77.100000
0
VERTEX
8
0
6
CONTINUOUS
62
252
70
192
10
-8.500000
20
-11.600000
30
69.800000
0
VERTEX
8
0
6
CONTINUOUS
62
252
70
192
10
4.300000
20
-11.600000
30
69.800000
0
VERTEX
8
0
6
CONTINUOUS
62
252
70
192
10
4.300000
20
-11.600000
30
87.800000
0
VERTEX
8
0
6
CONTINUOUS
62
252
70
192
10
-8.500000
20
-11.600000
30
87.800000
0
VERTEX
8
0
6
CONTINUOUS
62
252
70
192
10
-8.500000
20
-11.600000
30
80.500000
0
VERTEX
8
0
6
CONTINUOUS
62
252
70
192
10
-5.500000
20
-11.600000
30
80.500000
0
VERTEX
8
0
6
CONTINUOUS
62
252
70
128
10
0.000000
20
0.000000
30
0.000000
71
2
72
3
73
1
0
VERTEX
8
0
6
CONTINUOUS
62
252
70
128
10
0.000000
20
0.000000
30
0.000000
71
1
72
3
73
4
0
VERTEX
8
0
6
CONTINUOUS
62
252
70
128
10
0.000000
20
0.000000
30
0.000000
71
1
72
4
73
8
0
VERTEX
8
0
6
CONTINUOUS
62
252
70
128
10
0.000000
20
0.000000
30
0.000000
71
8
72
4
73
5
0
VERTEX
8
0
6
CONTINUOUS
62
252
70
128
10
0.000000
20
0.000000
30
0.000000
71
8
72
5
73
6
0
VERTEX
8
0
6
CONTINUOUS
62
252
70
128
10
0.000000
20
0.000000
30
0.000000
71
6
72
7
73
8
0
SEQEND
0
POLYLINE
66
1
8
0
6
CONTINUOUS
62
252
70
64
75
0
10
0.000000
20
0.000000
30
0.000000
0
VERTEX
8
0
6
CONTINUOUS
62
252
70
192
10
4.300000
20
-2.000000
30
87.800000
0
VERTEX
8
0
6
CONTINUOUS
62
252
70
192
10
4.300000
20
-2.000000
30
69.800000
0
VERTEX
8
0
6
CONTINUOUS
62
252
70
192
10
-1.900000
20
-2.000000
30
69.800000
0
VERTEX
8
0
6
CONTINUOUS
62
252
70
192
10
-8.500000
20
-2.000000
30
69.800000
0
VERTEX
8
0
6
CONTINUOUS
62
252
70
192
10
-8.500000
20
-2.000000
30
87.800000
0
VERTEX
8
0
6
CONTINUOUS
62
252
70
192
10
-1.900000
20
-2.000000
30
87.800000
0
VERTEX
8
0
6
CONTINUOUS
62
252
70
128
10
0.000000
20
0.000000
30
0.000000
71
2
72
3
73
1
0
VERTEX
8
0
6
CONTINUOUS
62
252
70
128
10
0.000000
20
0.000000
30
0.000000
71
1
72
3
73
6
0
VERTEX
8
0
6
CONTINUOUS
62
252
70
128
10
0.000000
20
0.000000
30
0.000000
71
6
72
3
73
4
0
VERTEX
8
0
6
CONTINUOUS
62
252
70
128
10
0.000000
20
0.000000
30
0.000000
71
6
72
4
73
5
0
SEQEND
0
POLYLINE
66
1
8
0
6
CONTINUOUS
62
252
70
64
75
0
10
0.000000
20
0.000000
30
0.000000
0
VERTEX
8
0
6
CONTINUOUS
62
252
70
192
10
-8.500000
20
-6.500000
30
86.900000
0
VERTEX
8
0
6
CONTINUOUS
62
252
70
192
10
-8.500000
20
-6.500000
30
83.300000
0
VERTEX
8
0
6
CONTINUOUS
62
252
70
192
10
-8.500000
20
-2.700000
30
83.300000
0
VERTEX
8
0
6
CONTINUOUS
62
252
70
192
10
-8.500000
20
-2.700000
30
86.900000
0
VERTEX
8
0
6
CONTINUOUS
62
252
70
192
10
-8.500000
20
-10.900000
30
86.900000
0
VERTEX
8
0
6
CONTINUOUS
62
252
70
192
10
-8.500000
20
-10.900000
30
83.300000
0
VERTEX
8
0
6
CONTINUOUS
62
252
70
192
10
-8.500000
20
-7.100000
30
83.300000
0
VERTEX
8
0
6
CONTINUOUS
62
252
70
192
10
-8.500000
20
-7.100000
30
86.900000
0
VERTEX
8
0
6
CONTINUOUS
62
252
70
192
10
-8.500000
20
-6.500000
30
82.700000
0
VERTEX
8
0
6
CONTINUOUS
62
252
70
192
10
-8.500000
20
-6.500000
30
79.100000
0
VERTEX
8
0
6
CONTINUOUS
62
252
70
192
10
-8.500000
20
-2.700000
30
79.100000
0
VERTEX
8
0
6
CONTINUOUS
62
252
70
192
10
-8.500000
20
-2.700000
30
82.700000
0
VERTEX
8
0
6
CONTINUOUS
62
252
70
192
10
-8.500000
20
-10.900000
30
82.700000
0
VERTEX
8
0
6
CONTINUOUS
62
252
70
192
10
-8.500000
20
-10.900000
30
79.100000
0
VERTEX
8
0
6
CONTINUOUS
62
252
70
192
10
-8.500000
20
-7.100000
30
79.100000
0
VERTEX
8
0
6
CONTINUOUS
62
252
70
192
10
-8.500000
20
-7.100000
30
82.700000
0
VERTEX
8
0
6
CONTINUOUS
62
252
70
192
10
-8.500000
20
-6.500000
30
78.500000
0
VERTEX
8
0
6
CONTINUOUS
62
252
70
192
10
-8.500000
20
-6.500000
30
74.900000
0
VERTEX
8
0
6
CONTINUOUS
62
252
70
192
10
-8.500000
20
-2.700000
30
74.900000
0
VERTEX
8
0
6
CONTINUOUS
62
252
70
192
10
-8.500000
20
-2.700000
30
78.500000
0
VERTEX
8
0
6
CONTINUOUS
62
252
70
192
10
-8.500000
20
-10.900000
30
78.500000
0
VERTEX
8
0
6
CONTINUOUS
62
252
70
192
10
-8.500000
20
-10.900000
30
74.900000
0
VERTEX
8
0
6
CONTINUOUS
62
252
70
192
10
-8.500000
20
-7.100000
30
74.900000
0
VERTEX
8
0
6
CONTINUOUS
62
252
70
192
10
-8.500000
20
-7.100000
30
78.500000
0
VERTEX
8
0
6
CONTINUOUS
62
252
70
192
10
-8.500000
20
-6.500000
30
74.300000
0
VERTEX
8
0
6
CONTINUOUS
62
252
70
192
10
-8.500000
20
-6.500000
30
70.700000
0
VERTEX
8
0
6
CONTINUOUS
62
252
70
192
10
-8.500000
20
-2.700000
30
70.700000
0
VERTEX
8
0
6
CONTINUOUS
62
252
70
192
10
-8.500000
20
-2.700000
30
74.300000
0
VERTEX
8
0
6
CONTINUOUS
62
252
70
192
10
-8.500000
20
-10.900000
30
74.300000
0
VERTEX
8
0
6
CONTINUOUS
62
252
70
192
10
-8.500000
20
-10.900000
30
70.700000
0
VERTEX
8
0
6
CONTINUOUS
62
252
70
192
10
-8.500000
20
-7.100000
30
70.700000
0
VERTEX
8
0
6
CONTINUOUS
62
252
70
192
10
-8.500000
20
-7.100000
30
74.300000
0
VERTEX
8
0
6
CONTINUOUS
62
252
70
192
10
-8.500000
20
-11.600000
30
87.800000
0
VERTEX
8
0
6
CONTINUOUS
62
252
70
192
10
-8.500000
20
-2.000000
30
87.800000
0
VERTEX
8
0
6
CONTINUOUS
62
252
70
192
10
-8.500000
20
-2.000000
30
69.800000
0
VERTEX
8
0
6
CONTINUOUS
62
252
70
192
10
-8.500000
20
-11.600000
30
69.800000
0
VERTEX
8
0
6
CONTINUOUS
62
252
70
192
10
-8.500000
20
-11.600000
30
77.100000
0
VERTEX
8
0
6
CONTINUOUS
62
252
70
192
10
-8.500000
20
-11.600000
30
80.500000
0
VERTEX
8
0
6
CONTINUOUS
62
252
70
128
10
0.000000
20
0.000000
30
0.000000
71
2
72
7
73
1
0
VERTEX
8
0
6
CONTINUOUS
62
252
70
128
10
0.000000
20
0.000000
30
0.000000
71
1
72
7
73
8
0
VERTEX
8
0
6
CONTINUOUS
62
252
70
128
10
0.000000
20
0.000000
30
0.000000
71
1
72
8
73
34
0
VERTEX
8
0
6
CONTINUOUS
62
252
70
128
10
0.000000
20
0.000000
30
0.000000
71
34
72
8
73
33
0
VERTEX
8
0
6
CONTINUOUS
62
252
70
128
10
0.000000
20
0.000000
30
0.000000
71
33
72
8
73
5
0
VERTEX
8
0
6
CONTINUOUS
62
252
70
128
10
0.000000
20
0.000000
30
0.000000
71
33
72
5
73
6
0
VERTEX
8
0
6
CONTINUOUS
62
252
70
128
10
0.000000
20
0.000000
30
0.000000
71
3
72
12
73
2
0
VERTEX
8
0
6
CONTINUOUS
62
252
70
128
10
0.000000
20
0.000000
30
0.000000
71
2
72
12
73
9
0
VERTEX
8
0
6
CONTINUOUS
62
252
70
128
10
0.000000
20
0.000000
30
0.000000
71
2
72
9
73
7
0
VERTEX
8
0
6
CONTINUOUS
62
252
70
128
10
0.000000
20
0.000000
30
0.000000
71
7
72
9
73
16
0
VERTEX
8
0
6
CONTINUOUS
62
252
70
128
10
0.000000
20
0.000000
30
0.000000
71
7
72
16
73
13
0
VERTEX
8
0
6
CONTINUOUS
62
252
70
128
10
0.000000
20
0.000000
30
0.000000
71
12
72
3
73
34
0
VERTEX
8
0
6
CONTINUOUS
62
252
70
128
10
0.000000
20
0.000000
30
0.000000
71
34
72
3
73
4
0
VERTEX
8
0
6
CONTINUOUS
62
252
70
128
10
0.000000
20
0.000000
30
0.000000
71
34
72
4
73
1
0
VERTEX
8
0
6
CONTINUOUS
62
252
70
128
10
0.000000
20
0.000000
30
0.000000
71
7
72
13
73
6
0
VERTEX
8
0
6
CONTINUOUS
62
252
70
128
10
0.000000
20
0.000000
30
0.000000
71
6
72
13
73
38
0
VERTEX
8
0
6
CONTINUOUS
62
252
70
128
10
0.000000
20
0.000000
30
0.000000
71
6
72
38
73
33
0
VERTEX
8
0
6
CONTINUOUS
62
252
70
128
10
0.000000
20
0.000000
30
0.000000
71
16
72
9
73
15
0
VERTEX
8
0
6
CONTINUOUS
62
252
70
128
10
0.000000
20
0.000000
30
0.000000
71
15
72
9
73
10
0
VERTEX
8
0
6
CONTINUOUS
62
252
70
128
10
0.000000
20
0.000000
30
0.000000
71
15
72
10
73
24
0
VERTEX
8
0
6
CONTINUOUS
62
252
70
128
10
0.000000
20
0.000000
30
0.000000
71
24
72
10
73
17
0
VERTEX
8
0
6
CONTINUOUS
62
252
70
128
10
0.000000
20
0.000000
30
0.000000
71
24
72
17
73
23
0
VERTEX
8
0
6
CONTINUOUS
62
252
70
128
10
0.000000
20
0.000000
30
0.000000
71
23
72
17
73
18
0
VERTEX
8
0
6
CONTINUOUS
62
252
70
128
10
0.000000
20
0.000000
30
0.000000
71
23
72
18
73
32
0
VERTEX
8
0
6
CONTINUOUS
62
252
70
128
10
0.000000
20
0.000000
30
0.000000
71
32
72
18
73
25
0
VERTEX
8
0
6
CONTINUOUS
62
252
70
128
10
0.000000
20
0.000000
30
0.000000
71
32
72
25
73
31
0
VERTEX
8
0
6
CONTINUOUS
62
252
70
128
10
0.000000
20
0.000000
30
0.000000
71
31
72
25
73
26
0
VERTEX
8
0
6
CONTINUOUS
62
252
70
128
10
0.000000
20
0.000000
30
0.000000
71
31
72
26
73
36
0
VERTEX
8
0
6
CONTINUOUS
62
252
70
128
10
0.000000
20
0.000000
30
0.000000
71
36
72
26
73
35
0
VERTEX
8
0
6
CONTINUOUS
62
252
70
128
10
0.000000
20
0.000000
30
0.000000
71
35
72
26
73
27
0
VERTEX
8
0
6
CONTINUOUS
62
252
70
128
10
0.000000
20
0.000000
30
0.000000
71
35
72
27
73
28
0
VERTEX
8
0
6
CONTINUOUS
62
252
70
128
10
0.000000
20
0.000000
30
0.000000
71
17
72
10
73
20
0
VERTEX
8
0
6
CONTINUOUS
62
252
70
128
10
0.000000
20
0.000000
30
0.000000
71
20
72
10
73
11
0
VERTEX
8
0
6
CONTINUOUS
62
252
70
128
10
0.000000
20
0.000000
30
0.000000
71
20
72
11
73
35
0
VERTEX
8
0
6
CONTINUOUS
62
252
70
128
10
0.000000
20
0.000000
30
0.000000
71
35
72
11
73
34
0
VERTEX
8
0
6
CONTINUOUS
62
252
70
128
10
0.000000
20
0.000000
30
0.000000
71
34
72
11
73
12
0
VERTEX
8
0
6
CONTINUOUS
62
252
70
128
10
0.000000
20
0.000000
30
0.000000
71
13
72
14
73
38
0
VERTEX
8
0
6
CONTINUOUS
62
252
70
128
10
0.000000
20
0.000000
30
0.000000
71
38
72
14
73
21
0
VERTEX
8
0
6
CONTINUOUS
62
252
70
128
10
0.000000
20
0.000000
30
0.000000
71
38
72
21
73
37
0
VERTEX
8
0
6
CONTINUOUS
62
252
70
128
10
0.000000
20
0.000000
30
0.000000
71
37
72
21
73
22
0
VERTEX
8
0
6
CONTINUOUS
62
252
70
128
10
0.000000
20
0.000000
30
0.000000
71
37
72
22
73
29
0
VERTEX
8
0
6
CONTINUOUS
62
252
70
128
10
0.000000
20
0.000000
30
0.000000
71
29
72
22
73
23
0
VERTEX
8
0
6
CONTINUOUS
62
252
70
128
10
0.000000
20
0.000000
30
0.000000
71
29
72
23
73
32
0
VERTEX
8
0
6
CONTINUOUS
62
252
70
128
10
0.000000
20
0.000000
30
0.000000
71
21
72
14
73
24
0
VERTEX
8
0
6
CONTINUOUS
62
252
70
128
10
0.000000
20
0.000000
30
0.000000
71
24
72
14
73
15
0
VERTEX
8
0
6
CONTINUOUS
62
252
70
128
10
0.000000
20
0.000000
30
0.000000
71
18
72
19
73
25
0
VERTEX
8
0
6
CONTINUOUS
62
252
70
128
10
0.000000
20
0.000000
30
0.000000
71
25
72
19
73
28
0
VERTEX
8
0
6
CONTINUOUS
62
252
70
128
10
0.000000
20
0.000000
30
0.000000
71
28
72
19
73
35
0
VERTEX
8
0
6
CONTINUOUS
62
252
70
128
10
0.000000
20
0.000000
30
0.000000
71
19
72
20
73
35
0
VERTEX
8
0
6
CONTINUOUS
62
252
70
128
10
0.000000
20
0.000000
30
0.000000
71
37
72
29
73
36
0
VERTEX
8
0
6
CONTINUOUS
62
252
70
128
10
0.000000
20
0.000000
30
0.000000
71
36
72
29
73
30
0
VERTEX
8
0
6
CONTINUOUS
62
252
70
128
10
0.000000
20
0.000000
30
0.000000
71
36
72
30
73
31
0
SEQEND
0
POLYLINE
66
1
8
0
6
CONTINUOUS
62
252
70
64
75
0
10
0.000000
20
0.000000
30
0.000000
0
VERTEX
8
0
6
CONTINUOUS
62
252
70
192
10
4.300000
20
-11.600000
30
69.800000
0
VERTEX
8
0
6
CONTINUOUS
62
252
70
192
10
4.300000
20
-6.300000
30
69.800000
0
VERTEX
8
0
6
CONTINUOUS
62
252
70
192
10
4.300000
20
-6.300000
30
64.800000
0
VERTEX
8
0
6
CONTINUOUS
62
252
70
192
10
4.300000
20
-1.600000
30
64.800000
0
VERTEX
8
0
6
CONTINUOUS
62
252
70
192
10
4.300000
20
-1.600000
30
69.800000
0
VERTEX
8
0
6
CONTINUOUS
62
252
70
192
10
4.300000
20
-2.000000
30
69.800000
0
VERTEX
8
0
6
CONTINUOUS
62
252
70
192
10
4.300000
20
-2.000000
30
87.800000
0
VERTEX
8
0
6
CONTINUOUS
62
252
70
192
10
4.300000
20
-1.600000
30
87.800000
0
VERTEX
8
0
6
CONTINUOUS
62
252
70
192
10
4.300000
20
-1.600000
30
92.800000
0
VERTEX
8
0
6
CONTINUOUS
62
252
70
192
10
4.300000
20
-6.300000
30
92.800000
0
VERTEX
8
0
6
CONTINUOUS
62
252
70
192
10
4.300000
20
-6.300000
30
87.800000
0
VERTEX
8
0
6
CONTINUOUS
62
252
70
192
10
4.300000
20
-11.600000
30
87.800000
0
VERTEX
8
0
6
CONTINUOUS
62
252
70
128
10
0.000000
20
0.000000
30
0.000000
71
1
72
2
73
12
0
VERTEX
8
0
6
CONTINUOUS
62
252
70
128
10
0.000000
20
0.000000
30
0.000000
71
12
72
2
73
11
0
VERTEX
8
0
6
CONTINUOUS
62
252
70
128
10
0.000000
20
0.000000
30
0.000000
71
11
72
2
73
6
0
VERTEX
8
0
6
CONTINUOUS
62
252
70
128
10
0.000000
20
0.000000
30
0.000000
71
11
72
6
73
7
0
VERTEX
8
0
6
CONTINUOUS
62
252
70
128
10
0.000000
20
0.000000
30
0.000000
71
2
72
3
73
6
0
VERTEX
8
0
6
CONTINUOUS
62
252
70
128
10
0.000000
20
0.000000
30
0.000000
71
6
72
3
73
4
0
VERTEX
8
0
6
CONTINUOUS
62
252
70
128
10
0.000000
20
0.000000
30
0.000000
71
6
72
4
73
5
0
VERTEX
8
0
6
CONTINUOUS
62
252
70
128
10
0.000000
20
0.000000
30
0.000000
71
8
72
9
73
7
0
VERTEX
8
0
6
CONTINUOUS
62
252
70
128
10
0.000000
20
0.000000
30
0.000000
71
7
72
9
73
10
0
VERTEX
8
0
6
CONTINUOUS
62
252
70
128
10
0.000000
20
0.000000
30
0.000000
71
7
72
10
73
11
0
SEQEND
0
POLYLINE
66
1
8
0
6
CONTINUOUS
62
252
70
64
75
0
10
0.000000
20
0.000000
30
0.000000
0
VERTEX
8
0
6
CONTINUOUS
62
252
70
192
10
-3.500000
20
-1.600000
30
51.150000
0
VERTEX
8
0
6
CONTINUOUS
62
252
70
192
10
-3.500000
20
-1.600000
30
23.850000
0
VERTEX
8
0
6
CONTINUOUS
62
252
70
192
10
-6.700000
20
-1.600000
30
23.850000
0
VERTEX
8
0
6
CONTINUOUS
62
252
70
192
10
-6.700000
20
-1.600000
30
51.150000
0
VERTEX
8
0
6
CONTINUOUS
62
252
70
128
10
0.000000
20
0.000000
30
0.000000
71
2
72
3
73
1
0
VERTEX
8
0
6
CONTINUOUS
62
252
70
128
10
0.000000
20
0.000000
30
0.000000
71
1
72
3
73
4
0
SEQEND
0
POLYLINE
66
1
8
0
6
CONTINUOUS
62
252
70
64
75
0
10
0.000000
20
0.000000
30
0.000000
0
VERTEX
8
0
6
CONTINUOUS
62
252
70
192
10
-2.700000
20
-3.350000
30
48.250000
0
VERTEX
8
0
6
CONTINUOUS
62
252
70
192
10
-2.700000
20
-3.350000
30
48.750000
0
VERTEX
8
0
6
CONTINUOUS
62
252
70
192
10
-6.700000
20
-3.350000
30
48.750000
0
VERTEX
8
0
6
CONTINUOUS
62
252
70
192
10
-6.700000
20
-3.350000
30
48.250000
0
VERTEX
8
0
6
CONTINUOUS
62
252
70
128
10
0.000000
20
0.000000
30
0.000000
71
2
72
3
73
1
0
VERTEX
8
0
6
CONTINUOUS
62
252
70
128
10
0.000000
20
0.000000
30
0.000000
71
1
72
3
73
4
0
SEQEND
0
POLYLINE
66
1
8
0
6
CONTINUOUS
62
252
70
64
75
0
10
0.000000
20
0.000000
30
0.000000
0
VERTEX
8
0
6
CONTINUOUS
62
252
70
192
10
-2.700000
20
-2.850000
30
48.750000
0
VERTEX
8
0
6
CONTINUOUS
62
252
70
192
10
-2.700000
20
-2.850000
30
48.250000
0
VERTEX
8
0
6
CONTINUOUS
62
252
70
192
10
-6.700000
20
-2.850000
30
48.250000
0
VERTEX
8
0
6
CONTINUOUS
62
252
70
192
10
-6.700000
20
-2.850000
30
48.750000
0
VERTEX
8
0
6
CONTINUOUS
62
252
70
128
10
0.000000
20
0.000000
30
0.000000
71
2
72
3
73
1
0
VERTEX
8
0
6
CONTINUOUS
62
252
70
128
10
0.000000
20
0.000000
30
0.000000
71
1
72
3
73
4
0
SEQEND
0
POLYLINE
66
1
8
0
6
CONTINUOUS
62
252
70
64
75
0
10
0.000000
20
0.000000
30
0.000000
0
VERTEX
8
0
6
CONTINUOUS
62
252
70
192
10
-6.700000
20
-3.350000
30
48.250000
0
VERTEX
8
0
6
CONTINUOUS
62
252
70
192
10
-6.700000
20
-2.850000
30
48.250000
0
VERTEX
8
0
6
CONTINUOUS
62
252
70
192
10
-2.700000
20
-2.850000
30
48.250000
0
VERTEX
8
0
6
CONTINUOUS
62
252
70
192
10
-2.700000
20
-3.350000
30
48.250000
0
VERTEX
8
0
6
CONTINUOUS
62
252
70
128
10
0.000000
20
0.000000
30
0.000000
71
1
72
2
73
4
0
VERTEX
8
0
6
CONTINUOUS
62
252
70
128
10
0.000000
20
0.000000
30
0.000000
71
4
72
2
73
3
0
SEQEND
0
POLYLINE
66
1
8
0
6
CONTINUOUS
62
252
70
64
75
0
10
0.000000
20
0.000000
30
0.000000
0
VERTEX
8
0
6
CONTINUOUS
62
252
70
192
10
-6.700000
20
-3.350000
30
48.750000
0
VERTEX
8
0
6
CONTINUOUS
62
252
70
192
10
-6.700000
20
-2.850000
30
48.750000
0
VERTEX
8
0
6
CONTINUOUS
62
252
70
192
10
-6.700000
20
-2.850000
30
48.250000
0
VERTEX
8
0
6
CONTINUOUS
62
252
70
192
10
-6.700000
20
-3.350000
30
48.250000
0
VERTEX
8
0
6
CONTINUOUS
62
252
70
128
10
0.000000
20
0.000000
30
0.000000
71
1
72
2
73
4
0
VERTEX
8
0
6
CONTINUOUS
62
252
70
128
10
0.000000
20
0.000000
30
0.000000
71
4
72
2
73
3
0
SEQEND
0
POLYLINE
66
1
8
0
6
CONTINUOUS
62
252
70
64
75
0
10
0.000000
20
0.000000
30
0.000000
0
VERTEX
8
0
6
CONTINUOUS
62
252
70
192
10
-2.700000
20
-3.350000
30
48.750000
0
VERTEX
8
0
6
CONTINUOUS
62
252
70
192
10
-2.700000
20
-2.850000
30
48.750000
0
VERTEX
8
0
6
CONTINUOUS
62
252
70
192
10
-6.700000
20
-2.850000
30
48.750000
0
VERTEX
8
0
6
CONTINUOUS
62
252
70
192
10
-6.700000
20
-3.350000
30
48.750000
0
VERTEX
8
0
6
CONTINUOUS
62
252
70
128
10
0.000000
20
0.000000
30
0.000000
71
1
72
2
73
4
0
VERTEX
8
0
6
CONTINUOUS
62
252
70
128
10
0.000000
20
0.000000
30
0.000000
71
4
72
2
73
3
0
SEQEND
0
POLYLINE
66
1
8
0
6
CONTINUOUS
62
252
70
64
75
0
10
0.000000
20
0.000000
30
0.000000
0
VERTEX
8
0
6
CONTINUOUS
62
252
70
192
10
-2.700000
20
-3.350000
30
46.250000
0
VERTEX
8
0
6
CONTINUOUS
62
252
70
192
10
-2.700000
20
-3.350000
30
46.750000
0
VERTEX
8
0
6
CONTINUOUS
62
252
70
192
10
-6.700000
20
-3.350000
30
46.750000
0
VERTEX
8
0
6
CONTINUOUS
62
252
70
192
10
-6.700000
20
-3.350000
30
46.250000
0
VERTEX
8
0
6
CONTINUOUS
62
252
70
128
10
0.000000
20
0.000000
30
0.000000
71
2
72
3
73
1
0
VERTEX
8
0
6
CONTINUOUS
62
252
70
128
10
0.000000
20
0.000000
30
0.000000
71
1
72
3
73
4
0
SEQEND
0
POLYLINE
66
1
8
0
6
CONTINUOUS
62
252
70
64
75
0
10
0.000000
20
0.000000
30
0.000000
0
VERTEX
8
0
6
CONTINUOUS
62
252
70
192
10
-2.700000
20
-2.850000
30
46.750000
0
VERTEX
8
0
6
CONTINUOUS
62
252
70
192
10
-2.700000
20
-2.850000
30
46.250000
0
VERTEX
8
0
6
CONTINUOUS
62
252
70
192
10
-6.700000
20
-2.850000
30
46.250000
0
VERTEX
8
0
6
CONTINUOUS
62
252
70
192
10
-6.700000
20
-2.850000
30
46.750000
0
VERTEX
8
0
6
CONTINUOUS
62
252
70
128
10
0.000000
20
0.000000
30
0.000000
71
2
72
3
73
1
0
VERTEX
8
0
6
CONTINUOUS
62
252
70
128
10
0.000000
20
0.000000
30
0.000000
71
1
72
3
73
4
0
SEQEND
0
POLYLINE
66
1
8
0
6
CONTINUOUS
62
252
70
64
75
0
10
0.000000
20
0.000000
30
0.000000
0
VERTEX
8
0
6
CONTINUOUS
62
252
70
192
10
-6.700000
20
-3.350000
30
46.250000
0
VERTEX
8
0
6
CONTINUOUS
62
252
70
192
10
-6.700000
20
-2.850000
30
46.250000
0
VERTEX
8
0
6
CONTINUOUS
62
252
70
192
10
-2.700000
20
-2.850000
30
46.250000
0
VERTEX
8
0
6
CONTINUOUS
62
252
70
192
10
-2.700000
20
-3.350000
30
46.250000
0
VERTEX
8
0
6
CONTINUOUS
62
252
70
128
10
0.000000
20
0.000000
30
0.000000
71
1
72
2
73
4
0
VERTEX
8
0
6
CONTINUOUS
62
252
70
128
10
0.000000
20
0.000000
30
0.000000
71
4
72
2
73
3
0
SEQEND
0
POLYLINE
66
1
8
0
6
CONTINUOUS
62
252
70
64
75
0
10
0.000000
20
0.000000
30
0.000000
0
VERTEX
8
0
6
CONTINUOUS
62
252
70
192
10
-6.700000
20
-3.350000
30
46.750000
0
VERTEX
8
0
6
CONTINUOUS
62
252
70
192
10
-6.700000
20
-2.850000
30
46.750000
0
VERTEX
8
0
6
CONTINUOUS
62
252
70
192
10
-6.700000
20
-2.850000
30
46.250000
0
VERTEX
8
0
6
CONTINUOUS
62
252
70
192
10
-6.700000
20
-3.350000
30
46.250000
0
VERTEX
8
0
6
CONTINUOUS
62
252
70
128
10
0.000000
20
0.000000
30
0.000000
71
1
72
2
73
4
0
VERTEX
8
0
6
CONTINUOUS
62
252
70
128
10
0.000000
20
0.000000
30
0.000000
71
4
72
2
73
3
0
SEQEND
0
POLYLINE
66
1
8
0
6
CONTINUOUS
62
252
70
64
75
0
10
0.000000
20
0.000000
30
0.000000
0
VERTEX
8
0
6
CONTINUOUS
62
252
70
192
10
-2.700000
20
-3.350000
30
46.750000
0
VERTEX
8
0
6
CONTINUOUS
62
252
70
192
10
-2.700000
20
-2.850000
30
46.750000
0
VERTEX
8
0
6
CONTINUOUS
62
252
70
192
10
-6.700000
20
-2.850000
30
46.750000
0
VERTEX
8
0
6
CONTINUOUS
62
252
70
192
10
-6.700000
20
-3.350000
30
46.750000
0
VERTEX
8
0
6
CONTINUOUS
62
252
70
128
10
0.000000
20
0.000000
30
0.000000
71
1
72
2
73
4
0
VERTEX
8
0
6
CONTINUOUS
62
252
70
128
10
0.000000
20
0.000000
30
0.000000
71
4
72
2
73
3
0
SEQEND
0
POLYLINE
66
1
8
0
6
CONTINUOUS
62
252
70
64
75
0
10
0.000000
20
0.000000
30
0.000000
0
VERTEX
8
0
6
CONTINUOUS
62
252
70
192
10
-2.700000
20
-3.350000
30
44.250000
0
VERTEX
8
0
6
CONTINUOUS
62
252
70
192
10
-2.700000
20
-3.350000
30
44.750000
0
VERTEX
8
0
6
CONTINUOUS
62
252
70
192
10
-6.700000
20
-3.350000
30
44.750000
0
VERTEX
8
0
6
CONTINUOUS
62
252
70
192
10
-6.700000
20
-3.350000
30
44.250000
0
VERTEX
8
0
6
CONTINUOUS
62
252
70
128
10
0.000000
20
0.000000
30
0.000000
71
2
72
3
73
1
0
VERTEX
8
0
6
CONTINUOUS
62
252
70
128
10
0.000000
20
0.000000
30
0.000000
71
1
72
3
73
4
0
SEQEND
0
POLYLINE
66
1
8
0
6
CONTINUOUS
62
252
70
64
75
0
10
0.000000
20
0.000000
30
0.000000
0
VERTEX
8
0
6
CONTINUOUS
62
252
70
192
10
-2.700000
20
-2.850000
30
44.750000
0
VERTEX
8
0
6
CONTINUOUS
62
252
70
192
10
-2.700000
20
-2.850000
30
44.250000
0
VERTEX
8
0
6
CONTINUOUS
62
252
70
192
10
-6.700000
20
-2.850000
30
44.250000
0
VERTEX
8
0
6
CONTINUOUS
62
252
70
192
10
-6.700000
20
-2.850000
30
44.750000
0
VERTEX
8
0
6
CONTINUOUS
62
252
70
128
10
0.000000
20
0.000000
30
0.000000
71
2
72
3
73
1
0
VERTEX
8
0
6
CONTINUOUS
62
252
70
128
10
0.000000
20
0.000000
30
0.000000
71
1
72
3
73
4
0
SEQEND
0
POLYLINE
66
1
8
0
6
CONTINUOUS
62
252
70
64
75
0
10
0.000000
20
0.000000
30
0.000000
0
VERTEX
8
0
6
CONTINUOUS
62
252
70
192
10
-6.700000
20
-3.350000
30
44.250000
0
VERTEX
8
0
6
CONTINUOUS
62
252
70
192
10
-6.700000
20
-2.850000
30
44.250000
0
VERTEX
8
0
6
CONTINUOUS
62
252
70
192
10
-2.700000
20
-2.850000
30
44.250000
0
VERTEX
8
0
6
CONTINUOUS
62
252
70
192
10
-2.700000
20
-3.350000
30
44.250000
0
VERTEX
8
0
6
CONTINUOUS
62
252
70
128
10
0.000000
20
0.000000
30
0.000000
71
1
72
2
73
4
0
VERTEX
8
0
6
CONTINUOUS
62
252
70
128
10
0.000000
20
0.000000
30
0.000000
71
4
72
2
73
3
0
SEQEND
0
POLYLINE
66
1
8
0
6
CONTINUOUS
62
252
70
64
75
0
10
0.000000
20
0.000000
30
0.000000
0
VERTEX
8
0
6
CONTINUOUS
62
252
70
192
10
-6.700000
20
-3.350000
30
44.750000
0
VERTEX
8
0
6
CONTINUOUS
62
252
70
192
10
-6.700000
20
-2.850000
30
44.750000
0
VERTEX
8
0
6
CONTINUOUS
62
252
70
192
10
-6.700000
20
-2.850000
30
44.250000
0
VERTEX
8
0
6
CONTINUOUS
62
252
70
192
10
-6.700000
20
-3.350000
30
44.250000
0
VERTEX
8
0
6
CONTINUOUS
62
252
70
128
10
0.000000
20
0.000000
30
0.000000
71
1
72
2
73
4
0
VERTEX
8
0
6
CONTINUOUS
62
252
70
128
10
0.000000
20
0.000000
30
0.000000
71
4
72
2
73
3
0
SEQEND
0
POLYLINE
66
1
8
0
6
CONTINUOUS
62
252
70
64
75
0
10
0.000000
20
0.000000
30
0.000000
0
VERTEX
8
0
6
CONTINUOUS
62
252
70
192
10
-2.700000
20
-3.350000
30
44.750000
0
VERTEX
8
0
6
CONTINUOUS
62
252
70
192
10
-2.700000
20
-2.850000
30
44.750000
0
VERTEX
8
0
6
CONTINUOUS
62
252
70
192
10
-6.700000
20
-2.850000
30
44.750000
0
VERTEX
8
0
6
CONTINUOUS
62
252
70
192
10
-6.700000
20
-3.350000
30
44.750000
0
VERTEX
8
0
6
CONTINUOUS
62
252
70
128
10
0.000000
20
0.000000
30
0.000000
71
1
72
2
73
4
0
VERTEX
8
0
6
CONTINUOUS
62
252
70
128
10
0.000000
20
0.000000
30
0.000000
71
4
72
2
73
3
0
SEQEND
0
POLYLINE
66
1
8
0
6
CONTINUOUS
62
252
70
64
75
0
10
0.000000
20
0.000000
30
0.000000
0
VERTEX
8
0
6
CONTINUOUS
62
252
70
192
10
-2.700000
20
-3.350000
30
42.250000
0
VERTEX
8
0
6
CONTINUOUS
62
252
70
192
10
-2.700000
20
-3.350000
30
42.750000
0
VERTEX
8
0
6
CONTINUOUS
62
252
70
192
10
-6.700000
20
-3.350000
30
42.750000
0
VERTEX
8
0
6
CONTINUOUS
62
252
70
192
10
-6.700000
20
-3.350000
30
42.250000
0
VERTEX
8
0
6
CONTINUOUS
62
252
70
128
10
0.000000
20
0.000000
30
0.000000
71
2
72
3
73
1
0
VERTEX
8
0
6
CONTINUOUS
62
252
70
128
10
0.000000
20
0.000000
30
0.000000
71
1
72
3
73
4
0
SEQEND
0
POLYLINE
66
1
8
0
6
CONTINUOUS
62
252
70
64
75
0
10
0.000000
20
0.000000
30
0.000000
0
VERTEX
8
0
6
CONTINUOUS
62
252
70
192
10
-2.700000
20
-2.850000
30
42.750000
0
VERTEX
8
0
6
CONTINUOUS
62
252
70
192
10
-2.700000
20
-2.850000
30
42.250000
0
VERTEX
8
0
6
CONTINUOUS
62
252
70
192
10
-6.700000
20
-2.850000
30
42.250000
0
VERTEX
8
0
6
CONTINUOUS
62
252
70
192
10
-6.700000
20
-2.850000
30
42.750000
0
VERTEX
8
0
6
CONTINUOUS
62
252
70
128
10
0.000000
20
0.000000
30
0.000000
71
2
72
3
73
1
0
VERTEX
8
0
6
CONTINUOUS
62
252
70
128
10
0.000000
20
0.000000
30
0.000000
71
1
72
3
73
4
0
SEQEND
0
POLYLINE
66
1
8
0
6
CONTINUOUS
62
252
70
64
75
0
10
0.000000
20
0.000000
30
0.000000
0
VERTEX
8
0
6
CONTINUOUS
62
252
70
192
10
-6.700000
20
-3.350000
30
42.250000
0
VERTEX
8
0
6
CONTINUOUS
62
252
70
192
10
-6.700000
20
-2.850000
30
42.250000
0
VERTEX
8
0
6
CONTINUOUS
62
252
70
192
10
-2.700000
20
-2.850000
30
42.250000
0
VERTEX
8
0
6
CONTINUOUS
62
252
70
192
10
-2.700000
20
-3.350000
30
42.250000
0
VERTEX
8
0
6
CONTINUOUS
62
252
70
128
10
0.000000
20
0.000000
30
0.000000
71
1
72
2
73
4
0
VERTEX
8
0
6
CONTINUOUS
62
252
70
128
10
0.000000
20
0.000000
30
0.000000
71
4
72
2
73
3
0
SEQEND
0
POLYLINE
66
1
8
0
6
CONTINUOUS
62
252
70
64
75
0
10
0.000000
20
0.000000
30
0.000000
0
VERTEX
8
0
6
CONTINUOUS
62
252
70
192
10
-6.700000
20
-3.350000
30
42.750000
0
VERTEX
8
0
6
CONTINUOUS
62
252
70
192
10
-6.700000
20
-2.850000
30
42.750000
0
VERTEX
8
0
6
CONTINUOUS
62
252
70
192
10
-6.700000
20
-2.850000
30
42.250000
0
VERTEX
8
0
6
CONTINUOUS
62
252
70
192
10
-6.700000
20
-3.350000
30
42.250000
0
VERTEX
8
0
6
CONTINUOUS
62
252
70
128
10
0.000000
20
0.000000
30
0.000000
71
1
72
2
73
4
0
VERTEX
8
0
6
CONTINUOUS
62
252
70
128
10
0.000000
20
0.000000
30
0.000000
71
4
72
2
73
3
0
SEQEND
0
POLYLINE
66
1
8
0
6
CONTINUOUS
62
252
70
64
75
0
10
0.000000
20
0.000000
30
0.000000
0
VERTEX
8
0
6
CONTINUOUS
62
252
70
192
10
-2.700000
20
-3.350000
30
42.750000
0
VERTEX
8
0
6
CONTINUOUS
62
252
70
192
10
-2.700000
20
-2.850000
30
42.750000
0
VERTEX
8
0
6
CONTINUOUS
62
252
70
192
10
-6.700000
20
-2.850000
30
42.750000
0
VERTEX
8
0
6
CONTINUOUS
62
252
70
192
10
-6.700000
20
-3.350000
30
42.750000
0
VERTEX
8
0
6
CONTINUOUS
62
252
70
128
10
0.000000
20
0.000000
30
0.000000
71
1
72
2
73
4
0
VERTEX
8
0
6
CONTINUOUS
62
252
70
128
10
0.000000
20
0.000000
30
0.000000
71
4
72
2
73
3
0
SEQEND
0
POLYLINE
66
1
8
0
6
CONTINUOUS
62
252
70
64
75
0
10
0.000000
20
0.000000
30
0.000000
0
VERTEX
8
0
6
CONTINUOUS
62
252
70
192
10
-2.700000
20
-3.350000
30
40.250000
0
VERTEX
8
0
6
CONTINUOUS
62
252
70
192
10
-2.700000
20
-3.350000
30
40.750000
0
VERTEX
8
0
6
CONTINUOUS
62
252
70
192
10
-6.700000
20
-3.350000
30
40.750000
0
VERTEX
8
0
6
CONTINUOUS
62
252
70
192
10
-6.700000
20
-3.350000
30
40.250000
0
VERTEX
8
0
6
CONTINUOUS
62
252
70
128
10
0.000000
20
0.000000
30
0.000000
71
2
72
3
73
1
0
VERTEX
8
0
6
CONTINUOUS
62
252
70
128
10
0.000000
20
0.000000
30
0.000000
71
1
72
3
73
4
0
SEQEND
0
POLYLINE
66
1
8
0
6
CONTINUOUS
62
252
70
64
75
0
10
0.000000
20
0.000000
30
0.000000
0
VERTEX
8
0
6
CONTINUOUS
62
252
70
192
10
-2.700000
20
-2.850000
30
40.750000
0
VERTEX
8
0
6
CONTINUOUS
62
252
70
192
10
-2.700000
20
-2.850000
30
40.250000
0
VERTEX
8
0
6
CONTINUOUS
62
252
70
192
10
-6.700000
20
-2.850000
30
40.250000
0
VERTEX
8
0
6
CONTINUOUS
62
252
70
192
10
-6.700000
20
-2.850000
30
40.750000
0
VERTEX
8
0
6
CONTINUOUS
62
252
70
128
10
0.000000
20
0.000000
30
0.000000
71
2
72
3
73
1
0
VERTEX
8
0
6
CONTINUOUS
62
252
70
128
10
0.000000
20
0.000000
30
0.000000
71
1
72
3
73
4
0
SEQEND
0
POLYLINE
66
1
8
0
6
CONTINUOUS
62
252
70
64
75
0
10
0.000000
20
0.000000
30
0.000000
0
VERTEX
8
0
6
CONTINUOUS
62
252
70
192
10
-6.700000
20
-3.350000
30
40.250000
0
VERTEX
8
0
6
CONTINUOUS
62
252
70
192
10
-6.700000
20
-2.850000
30
40.250000
0
VERTEX
8
0
6
CONTINUOUS
62
252
70
192
10
-2.700000
20
-2.850000
30
40.250000
0
VERTEX
8
0
6
CONTINUOUS
62
252
70
192
10
-2.700000
20
-3.350000
30
40.250000
0
VERTEX
8
0
6
CONTINUOUS
62
252
70
128
10
0.000000
20
0.000000
30
0.000000
71
1
72
2
73
4
0
VERTEX
8
0
6
CONTINUOUS
62
252
70
128
10
0.000000
20
0.000000
30
0.000000
71
4
72
2
73
3
0
SEQEND
0
POLYLINE
66
1
8
0
6
CONTINUOUS
62
252
70
64
75
0
10
0.000000
20
0.000000
30
0.000000
0
VERTEX
8
0
6
CONTINUOUS
62
252
70
192
10
-6.700000
20
-3.350000
30
40.750000
0
VERTEX
8
0
6
CONTINUOUS
62
252
70
192
10
-6.700000
20
-2.850000
30
40.750000
0
VERTEX
8
0
6
CONTINUOUS
62
252
70
192
10
-6.700000
20
-2.850000
30
40.250000
0
VERTEX
8
0
6
CONTINUOUS
62
252
70
192
10
-6.700000
20
-3.350000
30
40.250000
0
VERTEX
8
0
6
CONTINUOUS
62
252
70
128
10
0.000000
20
0.000000
30
0.000000
71
1
72
2
73
4
0
VERTEX
8
0
6
CONTINUOUS
62
252
70
128
10
0.000000
20
0.000000
30
0.000000
71
4
72
2
73
3
0
SEQEND
0
POLYLINE
66
1
8
0
6
CONTINUOUS
62
252
70
64
75
0
10
0.000000
20
0.000000
30
0.000000
0
VERTEX
8
0
6
CONTINUOUS
62
252
70
192
10
-2.700000
20
-3.350000
30
40.750000
0
VERTEX
8
0
6
CONTINUOUS
62
252
70
192
10
-2.700000
20
-2.850000
30
40.750000
0
VERTEX
8
0
6
CONTINUOUS
62
252
70
192
10
-6.700000
20
-2.850000
30
40.750000
0
VERTEX
8
0
6
CONTINUOUS
62
252
70
192
10
-6.700000
20
-3.350000
30
40.750000
0
VERTEX
8
0
6
CONTINUOUS
62
252
70
128
10
0.000000
20
0.000000
30
0.000000
71
1
72
2
73
4
0
VERTEX
8
0
6
CONTINUOUS
62
252
70
128
10
0.000000
20
0.000000
30
0.000000
71
4
72
2
73
3
0
SEQEND
0
POLYLINE
66
1
8
0
6
CONTINUOUS
62
252
70
64
75
0
10
0.000000
20
0.000000
30
0.000000
0
VERTEX
8
0
6
CONTINUOUS
62
252
70
192
10
-2.700000
20
-3.350000
30
38.250000
0
VERTEX
8
0
6
CONTINUOUS
62
252
70
192
10
-2.700000
20
-3.350000
30
38.750000
0
VERTEX
8
0
6
CONTINUOUS
62
252
70
192
10
-6.700000
20
-3.350000
30
38.750000
0
VERTEX
8
0
6
CONTINUOUS
62
252
70
192
10
-6.700000
20
-3.350000
30
38.250000
0
VERTEX
8
0
6
CONTINUOUS
62
252
70
128
10
0.000000
20
0.000000
30
0.000000
71
2
72
3
73
1
0
VERTEX
8
0
6
CONTINUOUS
62
252
70
128
10
0.000000
20
0.000000
30
0.000000
71
1
72
3
73
4
0
SEQEND
0
POLYLINE
66
1
8
0
6
CONTINUOUS
62
252
70
64
75
0
10
0.000000
20
0.000000
30
0.000000
0
VERTEX
8
0
6
CONTINUOUS
62
252
70
192
10
-2.700000
20
-2.850000
30
38.750000
0
VERTEX
8
0
6
CONTINUOUS
62
252
70
192
10
-2.700000
20
-2.850000
30
38.250000
0
VERTEX
8
0
6
CONTINUOUS
62
252
70
192
10
-6.700000
20
-2.850000
30
38.250000
0
VERTEX
8
0
6
CONTINUOUS
62
252
70
192
10
-6.700000
20
-2.850000
30
38.750000
0
VERTEX
8
0
6
CONTINUOUS
62
252
70
128
10
0.000000
20
0.000000
30
0.000000
71
2
72
3
73
1
0
VERTEX
8
0
6
CONTINUOUS
62
252
70
128
10
0.000000
20
0.000000
30
0.000000
71
1
72
3
73
4
0
SEQEND
0
POLYLINE
66
1
8
0
6
CONTINUOUS
62
252
70
64
75
0
10
0.000000
20
0.000000
30
0.000000
0
VERTEX
8
0
6
CONTINUOUS
62
252
70
192
10
-6.700000
20
-3.350000
30
38.250000
0
VERTEX
8
0
6
CONTINUOUS
62
252
70
192
10
-6.700000
20
-2.850000
30
38.250000
0
VERTEX
8
0
6
CONTINUOUS
62
252
70
192
10
-2.700000
20
-2.850000
30
38.250000
0
VERTEX
8
0
6
CONTINUOUS
62
252
70
192
10
-2.700000
20
-3.350000
30
38.250000
0
VERTEX
8
0
6
CONTINUOUS
62
252
70
128
10
0.000000
20
0.000000
30
0.000000
71
1
72
2
73
4
0
VERTEX
8
0
6
CONTINUOUS
62
252
70
128
10
0.000000
20
0.000000
30
0.000000
71
4
72
2
73
3
0
SEQEND
0
POLYLINE
66
1
8
0
6
CONTINUOUS
62
252
70
64
75
0
10
0.000000
20
0.000000
30
0.000000
0
VERTEX
8
0
6
CONTINUOUS
62
252
70
192
10
-6.700000
20
-3.350000
30
38.750000
0
VERTEX
8
0
6
CONTINUOUS
62
252
70
192
10
-6.700000
20
-2.850000
30
38.750000
0
VERTEX
8
0
6
CONTINUOUS
62
252
70
192
10
-6.700000
20
-2.850000
30
38.250000
0
VERTEX
8
0
6
CONTINUOUS
62
252
70
192
10
-6.700000
20
-3.350000
30
38.250000
0
VERTEX
8
0
6
CONTINUOUS
62
252
70
128
10
0.000000
20
0.000000
30
0.000000
71
1
72
2
73
4
0
VERTEX
8
0
6
CONTINUOUS
62
252
70
128
10
0.000000
20
0.000000
30
0.000000
71
4
72
2
73
3
0
SEQEND
0
POLYLINE
66
1
8
0
6
CONTINUOUS
62
252
70
64
75
0
10
0.000000
20
0.000000
30
0.000000
0
VERTEX
8
0
6
CONTINUOUS
62
252
70
192
10
-2.700000
20
-3.350000
30
38.750000
0
VERTEX
8
0
6
CONTINUOUS
62
252
70
192
10
-2.700000
20
-2.850000
30
38.750000
0
VERTEX
8
0
6
CONTINUOUS
62
252
70
192
10
-6.700000
20
-2.850000
30
38.750000
0
VERTEX
8
0
6
CONTINUOUS
62
252
70
192
10
-6.700000
20
-3.350000
30
38.750000
0
VERTEX
8
0
6
CONTINUOUS
62
252
70
128
10
0.000000
20
0.000000
30
0.000000
71
1
72
2
73
4
0
VERTEX
8
0
6
CONTINUOUS
62
252
70
128
10
0.000000
20
0.000000
30
0.000000
71
4
72
2
73
3
0
SEQEND
0
POLYLINE
66
1
8
0
6
CONTINUOUS
62
252
70
64
75
0
10
0.000000
20
0.000000
30
0.000000
0
VERTEX
8
0
6
CONTINUOUS
62
252
70
192
10
-2.700000
20
-3.350000
30
36.250000
0
VERTEX
8
0
6
CONTINUOUS
62
252
70
192
10
-2.700000
20
-3.350000
30
36.750000
0
VERTEX
8
0
6
CONTINUOUS
62
252
70
192
10
-6.700000
20
-3.350000
30
36.750000
0
VERTEX
8
0
6
CONTINUOUS
62
252
70
192
10
-6.700000
20
-3.350000
30
36.250000
0
VERTEX
8
0
6
CONTINUOUS
62
252
70
128
10
0.000000
20
0.000000
30
0.000000
71
2
72
3
73
1
0
VERTEX
8
0
6
CONTINUOUS
62
252
70
128
10
0.000000
20
0.000000
30
0.000000
71
1
72
3
73
4
0
SEQEND
0
POLYLINE
66
1
8
0
6
CONTINUOUS
62
252
70
64
75
0
10
0.000000
20
0.000000
30
0.000000
0
VERTEX
8
0
6
CONTINUOUS
62
252
70
192
10
-2.700000
20
-2.850000
30
36.750000
0
VERTEX
8
0
6
CONTINUOUS
62
252
70
192
10
-2.700000
20
-2.850000
30
36.250000
0
VERTEX
8
0
6
CONTINUOUS
62
252
70
192
10
-6.700000
20
-2.850000
30
36.250000
0
VERTEX
8
0
6
CONTINUOUS
62
252
70
192
10
-6.700000
20
-2.850000
30
36.750000
0
VERTEX
8
0
6
CONTINUOUS
62
252
70
128
10
0.000000
20
0.000000
30
0.000000
71
2
72
3
73
1
0
VERTEX
8
0
6
CONTINUOUS
62
252
70
128
10
0.000000
20
0.000000
30
0.000000
71
1
72
3
73
4
0
SEQEND
0
POLYLINE
66
1
8
0
6
CONTINUOUS
62
252
70
64
75
0
10
0.000000
20
0.000000
30
0.000000
0
VERTEX
8
0
6
CONTINUOUS
62
252
70
192
10
-6.700000
20
-3.350000
30
36.250000
0
VERTEX
8
0
6
CONTINUOUS
62
252
70
192
10
-6.700000
20
-2.850000
30
36.250000
0
VERTEX
8
0
6
CONTINUOUS
62
252
70
192
10
-2.700000
20
-2.850000
30
36.250000
0
VERTEX
8
0
6
CONTINUOUS
62
252
70
192
10
-2.700000
20
-3.350000
30
36.250000
0
VERTEX
8
0
6
CONTINUOUS
62
252
70
128
10
0.000000
20
0.000000
30
0.000000
71
1
72
2
73
4
0
VERTEX
8
0
6
CONTINUOUS
62
252
70
128
10
0.000000
20
0.000000
30
0.000000
71
4
72
2
73
3
0
SEQEND
0
POLYLINE
66
1
8
0
6
CONTINUOUS
62
252
70
64
75
0
10
0.000000
20
0.000000
30
0.000000
0
VERTEX
8
0
6
CONTINUOUS
62
252
70
192
10
-6.700000
20
-3.350000
30
36.750000
0
VERTEX
8
0
6
CONTINUOUS
62
252
70
192
10
-6.700000
20
-2.850000
30
36.750000
0
VERTEX
8
0
6
CONTINUOUS
62
252
70
192
10
-6.700000
20
-2.850000
30
36.250000
0
VERTEX
8
0
6
CONTINUOUS
62
252
70
192
10
-6.700000
20
-3.350000
30
36.250000
0
VERTEX
8
0
6
CONTINUOUS
62
252
70
128
10
0.000000
20
0.000000
30
0.000000
71
1
72
2
73
4
0
VERTEX
8
0
6
CONTINUOUS
62
252
70
128
10
0.000000
20
0.000000
30
0.000000
71
4
72
2
73
3
0
SEQEND
0
POLYLINE
66
1
8
0
6
CONTINUOUS
62
252
70
64
75
0
10
0.000000
20
0.000000
30
0.000000
0
VERTEX
8
0
6
CONTINUOUS
62
252
70
192
10
-2.700000
20
-3.350000
30
36.750000
0
VERTEX
8
0
6
CONTINUOUS
62
252
70
192
10
-2.700000
20
-2.850000
30
36.750000
0
VERTEX
8
0
6
CONTINUOUS
62
252
70
192
10
-6.700000
20
-2.850000
30
36.750000
0
VERTEX
8
0
6
CONTINUOUS
62
252
70
192
10
-6.700000
20
-3.350000
30
36.750000
0
VERTEX
8
0
6
CONTINUOUS
62
252
70
128
10
0.000000
20
0.000000
30
0.000000
71
1
72
2
73
4
0
VERTEX
8
0
6
CONTINUOUS
62
252
70
128
10
0.000000
20
0.000000
30
0.000000
71
4
72
2
73
3
0
SEQEND
0
POLYLINE
66
1
8
0
6
CONTINUOUS
62
252
70
64
75
0
10
0.000000
20
0.000000
30
0.000000
0
VERTEX
8
0
6
CONTINUOUS
62
252
70
192
10
-2.700000
20
-3.350000
30
34.250000
0
VERTEX
8
0
6
CONTINUOUS
62
252
70
192
10
-2.700000
20
-3.350000
30
34.750000
0
VERTEX
8
0
6
CONTINUOUS
62
252
70
192
10
-6.700000
20
-3.350000
30
34.750000
0
VERTEX
8
0
6
CONTINUOUS
62
252
70
192
10
-6.700000
20
-3.350000
30
34.250000
0
VERTEX
8
0
6
CONTINUOUS
62
252
70
128
10
0.000000
20
0.000000
30
0.000000
71
2
72
3
73
1
0
VERTEX
8
0
6
CONTINUOUS
62
252
70
128
10
0.000000
20
0.000000
30
0.000000
71
1
72
3
73
4
0
SEQEND
0
POLYLINE
66
1
8
0
6
CONTINUOUS
62
252
70
64
75
0
10
0.000000
20
0.000000
30
0.000000
0
VERTEX
8
0
6
CONTINUOUS
62
252
70
192
10
-2.700000
20
-2.850000
30
34.750000
0
VERTEX
8
0
6
CONTINUOUS
62
252
70
192
10
-2.700000
20
-2.850000
30
34.250000
0
VERTEX
8
0
6
CONTINUOUS
62
252
70
192
10
-6.700000
20
-2.850000
30
34.250000
0
VERTEX
8
0
6
CONTINUOUS
62
252
70
192
10
-6.700000
20
-2.850000
30
34.750000
0
VERTEX
8
0
6
CONTINUOUS
62
252
70
128
10
0.000000
20
0.000000
30
0.000000
71
2
72
3
73
1
0
VERTEX
8
0
6
CONTINUOUS
62
252
70
128
10
0.000000
20
0.000000
30
0.000000
71
1
72
3
73
4
0
SEQEND
0
POLYLINE
66
1
8
0
6
CONTINUOUS
62
252
70
64
75
0
10
0.000000
20
0.000000
30
0.000000
0
VERTEX
8
0
6
CONTINUOUS
62
252
70
192
10
-6.700000
20
-3.350000
30
34.250000
0
VERTEX
8
0
6
CONTINUOUS
62
252
70
192
10
-6.700000
20
-2.850000
30
34.250000
0
VERTEX
8
0
6
CONTINUOUS
62
252
70
192
10
-2.700000
20
-2.850000
30
34.250000
0
VERTEX
8
0
6
CONTINUOUS
62
252
70
192
10
-2.700000
20
-3.350000
30
34.250000
0
VERTEX
8
0
6
CONTINUOUS
62
252
70
128
10
0.000000
20
0.000000
30
0.000000
71
1
72
2
73
4
0
VERTEX
8
0
6
CONTINUOUS
62
252
70
128
10
0.000000
20
0.000000
30
0.000000
71
4
72
2
73
3
0
SEQEND
0
POLYLINE
66
1
8
0
6
CONTINUOUS
62
252
70
64
75
0
10
0.000000
20
0.000000
30
0.000000
0
VERTEX
8
0
6
CONTINUOUS
62
252
70
192
10
-6.700000
20
-3.350000
30
34.750000
0
VERTEX
8
0
6
CONTINUOUS
62
252
70
192
10
-6.700000
20
-2.850000
30
34.750000
0
VERTEX
8
0
6
CONTINUOUS
62
252
70
192
10
-6.700000
20
-2.850000
30
34.250000
0
VERTEX
8
0
6
CONTINUOUS
62
252
70
192
10
-6.700000
20
-3.350000
30
34.250000
0
VERTEX
8
0
6
CONTINUOUS
62
252
70
128
10
0.000000
20
0.000000
30
0.000000
71
1
72
2
73
4
0
VERTEX
8
0
6
CONTINUOUS
62
252
70
128
10
0.000000
20
0.000000
30
0.000000
71
4
72
2
73
3
0
SEQEND
0
POLYLINE
66
1
8
0
6
CONTINUOUS
62
252
70
64
75
0
10
0.000000
20
0.000000
30
0.000000
0
VERTEX
8
0
6
CONTINUOUS
62
252
70
192
10
-2.700000
20
-3.350000
30
34.750000
0
VERTEX
8
0
6
CONTINUOUS
62
252
70
192
10
-2.700000
20
-2.850000
30
34.750000
0
VERTEX
8
0
6
CONTINUOUS
62
252
70
192
10
-6.700000
20
-2.850000
30
34.750000
0
VERTEX
8
0
6
CONTINUOUS
62
252
70
192
10
-6.700000
20
-3.350000
30
34.750000
0
VERTEX
8
0
6
CONTINUOUS
62
252
70
128
10
0.000000
20
0.000000
30
0.000000
71
1
72
2
73
4
0
VERTEX
8
0
6
CONTINUOUS
62
252
70
128
10
0.000000
20
0.000000
30
0.000000
71
4
72
2
73
3
0
SEQEND
0
POLYLINE
66
1
8
0
6
CONTINUOUS
62
252
70
64
75
0
10
0.000000
20
0.000000
30
0.000000
0
VERTEX
8
0
6
CONTINUOUS
62
252
70
192
10
-2.700000
20
-3.350000
30
32.250000
0
VERTEX
8
0
6
CONTINUOUS
62
252
70
192
10
-2.700000
20
-3.350000
30
32.750000
0
VERTEX
8
0
6
CONTINUOUS
62
252
70
192
10
-6.700000
20
-3.350000
30
32.750000
0
VERTEX
8
0
6
CONTINUOUS
62
252
70
192
10
-6.700000
20
-3.350000
30
32.250000
0
VERTEX
8
0
6
CONTINUOUS
62
252
70
128
10
0.000000
20
0.000000
30
0.000000
71
2
72
3
73
1
0
VERTEX
8
0
6
CONTINUOUS
62
252
70
128
10
0.000000
20
0.000000
30
0.000000
71
1
72
3
73
4
0
SEQEND
0
POLYLINE
66
1
8
0
6
CONTINUOUS
62
252
70
64
75
0
10
0.000000
20
0.000000
30
0.000000
0
VERTEX
8
0
6
CONTINUOUS
62
252
70
192
10
-2.700000
20
-2.850000
30
32.750000
0
VERTEX
8
0
6
CONTINUOUS
62
252
70
192
10
-2.700000
20
-2.850000
30
32.250000
0
VERTEX
8
0
6
CONTINUOUS
62
252
70
192
10
-6.700000
20
-2.850000
30
32.250000
0
VERTEX
8
0
6
CONTINUOUS
62
252
70
192
10
-6.700000
20
-2.850000
30
32.750000
0
VERTEX
8
0
6
CONTINUOUS
62
252
70
128
10
0.000000
20
0.000000
30
0.000000
71
2
72
3
73
1
0
VERTEX
8
0
6
CONTINUOUS
62
252
70
128
10
0.000000
20
0.000000
30
0.000000
71
1
72
3
73
4
0
SEQEND
0
POLYLINE
66
1
8
0
6
CONTINUOUS
62
252
70
64
75
0
10
0.000000
20
0.000000
30
0.000000
0
VERTEX
8
0
6
CONTINUOUS
62
252
70
192
10
-6.700000
20
-3.350000
30
32.250000
0
VERTEX
8
0
6
CONTINUOUS
62
252
70
192
10
-6.700000
20
-2.850000
30
32.250000
0
VERTEX
8
0
6
CONTINUOUS
62
252
70
192
10
-2.700000
20
-2.850000
30
32.250000
0
VERTEX
8
0
6
CONTINUOUS
62
252
70
192
10
-2.700000
20
-3.350000
30
32.250000
0
VERTEX
8
0
6
CONTINUOUS
62
252
70
128
10
0.000000
20
0.000000
30
0.000000
71
1
72
2
73
4
0
VERTEX
8
0
6
CONTINUOUS
62
252
70
128
10
0.000000
20
0.000000
30
0.000000
71
4
72
2
73
3
0
SEQEND
0
POLYLINE
66
1
8
0
6
CONTINUOUS
62
252
70
64
75
0
10
0.000000
20
0.000000
30
0.000000
0
VERTEX
8
0
6
CONTINUOUS
62
252
70
192
10
-6.700000
20
-3.350000
30
32.750000
0
VERTEX
8
0
6
CONTINUOUS
62
252
70
192
10
-6.700000
20
-2.850000
30
32.750000
0
VERTEX
8
0
6
CONTINUOUS
62
252
70
192
10
-6.700000
20
-2.850000
30
32.250000
0
VERTEX
8
0
6
CONTINUOUS
62
252
70
192
10
-6.700000
20
-3.350000
30
32.250000
0
VERTEX
8
0
6
CONTINUOUS
62
252
70
128
10
0.000000
20
0.000000
30
0.000000
71
1
72
2
73
4
0
VERTEX
8
0
6
CONTINUOUS
62
252
70
128
10
0.000000
20
0.000000
30
0.000000
71
4
72
2
73
3
0
SEQEND
0
POLYLINE
66
1
8
0
6
CONTINUOUS
62
252
70
64
75
0
10
0.000000
20
0.000000
30
0.000000
0
VERTEX
8
0
6
CONTINUOUS
62
252
70
192
10
-2.700000
20
-3.350000
30
32.750000
0
VERTEX
8
0
6
CONTINUOUS
62
252
70
192
10
-2.700000
20
-2.850000
30
32.750000
0
VERTEX
8
0
6
CONTINUOUS
62
252
70
192
10
-6.700000
20
-2.850000
30
32.750000
0
VERTEX
8
0
6
CONTINUOUS
62
252
70
192
10
-6.700000
20
-3.350000
30
32.750000
0
VERTEX
8
0
6
CONTINUOUS
62
252
70
128
10
0.000000
20
0.000000
30
0.000000
71
1
72
2
73
4
0
VERTEX
8
0
6
CONTINUOUS
62
252
70
128
10
0.000000
20
0.000000
30
0.000000
71
4
72
2
73
3
0
SEQEND
0
POLYLINE
66
1
8
0
6
CONTINUOUS
62
252
70
64
75
0
10
0.000000
20
0.000000
30
0.000000
0
VERTEX
8
0
6
CONTINUOUS
62
252
70
192
10
-2.700000
20
-3.350000
30
30.250000
0
VERTEX
8
0
6
CONTINUOUS
62
252
70
192
10
-2.700000
20
-3.350000
30
30.750000
0
VERTEX
8
0
6
CONTINUOUS
62
252
70
192
10
-6.700000
20
-3.350000
30
30.750000
0
VERTEX
8
0
6
CONTINUOUS
62
252
70
192
10
-6.700000
20
-3.350000
30
30.250000
0
VERTEX
8
0
6
CONTINUOUS
62
252
70
128
10
0.000000
20
0.000000
30
0.000000
71
2
72
3
73
1
0
VERTEX
8
0
6
CONTINUOUS
62
252
70
128
10
0.000000
20
0.000000
30
0.000000
71
1
72
3
73
4
0
SEQEND
0
POLYLINE
66
1
8
0
6
CONTINUOUS
62
252
70
64
75
0
10
0.000000
20
0.000000
30
0.000000
0
VERTEX
8
0
6
CONTINUOUS
62
252
70
192
10
-2.700000
20
-2.850000
30
30.750000
0
VERTEX
8
0
6
CONTINUOUS
62
252
70
192
10
-2.700000
20
-2.850000
30
30.250000
0
VERTEX
8
0
6
CONTINUOUS
62
252
70
192
10
-6.700000
20
-2.850000
30
30.250000
0
VERTEX
8
0
6
CONTINUOUS
62
252
70
192
10
-6.700000
20
-2.850000
30
30.750000
0
VERTEX
8
0
6
CONTINUOUS
62
252
70
128
10
0.000000
20
0.000000
30
0.000000
71
2
72
3
73
1
0
VERTEX
8
0
6
CONTINUOUS
62
252
70
128
10
0.000000
20
0.000000
30
0.000000
71
1
72
3
73
4
0
SEQEND
0
POLYLINE
66
1
8
0
6
CONTINUOUS
62
252
70
64
75
0
10
0.000000
20
0.000000
30
0.000000
0
VERTEX
8
0
6
CONTINUOUS
62
252
70
192
10
-6.700000
20
-3.350000
30
30.250000
0
VERTEX
8
0
6
CONTINUOUS
62
252
70
192
10
-6.700000
20
-2.850000
30
30.250000
0
VERTEX
8
0
6
CONTINUOUS
62
252
70
192
10
-2.700000
20
-2.850000
30
30.250000
0
VERTEX
8
0
6
CONTINUOUS
62
252
70
192
10
-2.700000
20
-3.350000
30
30.250000
0
VERTEX
8
0
6
CONTINUOUS
62
252
70
128
10
0.000000
20
0.000000
30
0.000000
71
1
72
2
73
4
0
VERTEX
8
0
6
CONTINUOUS
62
252
70
128
10
0.000000
20
0.000000
30
0.000000
71
4
72
2
73
3
0
SEQEND
0
POLYLINE
66
1
8
0
6
CONTINUOUS
62
252
70
64
75
0
10
0.000000
20
0.000000
30
0.000000
0
VERTEX
8
0
6
CONTINUOUS
62
252
70
192
10
-6.700000
20
-3.350000
30
30.750000
0
VERTEX
8
0
6
CONTINUOUS
62
252
70
192
10
-6.700000
20
-2.850000
30
30.750000
0
VERTEX
8
0
6
CONTINUOUS
62
252
70
192
10
-6.700000
20
-2.850000
30
30.250000
0
VERTEX
8
0
6
CONTINUOUS
62
252
70
192
10
-6.700000
20
-3.350000
30
30.250000
0
VERTEX
8
0
6
CONTINUOUS
62
252
70
128
10
0.000000
20
0.000000
30
0.000000
71
1
72
2
73
4
0
VERTEX
8
0
6
CONTINUOUS
62
252
70
128
10
0.000000
20
0.000000
30
0.000000
71
4
72
2
73
3
0
SEQEND
0
POLYLINE
66
1
8
0
6
CONTINUOUS
62
252
70
64
75
0
10
0.000000
20
0.000000
30
0.000000
0
VERTEX
8
0
6
CONTINUOUS
62
252
70
192
10
-2.700000
20
-3.350000
30
30.750000
0
VERTEX
8
0
6
CONTINUOUS
62
252
70
192
10
-2.700000
20
-2.850000
30
30.750000
0
VERTEX
8
0
6
CONTINUOUS
62
252
70
192
10
-6.700000
20
-2.850000
30
30.750000
0
VERTEX
8
0
6
CONTINUOUS
62
252
70
192
10
-6.700000
20
-3.350000
30
30.750000
0
VERTEX
8
0
6
CONTINUOUS
62
252
70
128
10
0.000000
20
0.000000
30
0.000000
71
1
72
2
73
4
0
VERTEX
8
0
6
CONTINUOUS
62
252
70
128
10
0.000000
20
0.000000
30
0.000000
71
4
72
2
73
3
0
SEQEND
0
POLYLINE
66
1
8
0
6
CONTINUOUS
62
252
70
64
75
0
10
0.000000
20
0.000000
30
0.000000
0
VERTEX
8
0
6
CONTINUOUS
62
252
70
192
10
-2.700000
20
-3.350000
30
28.250000
0
VERTEX
8
0
6
CONTINUOUS
62
252
70
192
10
-2.700000
20
-3.350000
30
28.750000
0
VERTEX
8
0
6
CONTINUOUS
62
252
70
192
10
-6.700000
20
-3.350000
30
28.750000
0
VERTEX
8
0
6
CONTINUOUS
62
252
70
192
10
-6.700000
20
-3.350000
30
28.250000
0
VERTEX
8
0
6
CONTINUOUS
62
252
70
128
10
0.000000
20
0.000000
30
0.000000
71
2
72
3
73
1
0
VERTEX
8
0
6
CONTINUOUS
62
252
70
128
10
0.000000
20
0.000000
30
0.000000
71
1
72
3
73
4
0
SEQEND
0
POLYLINE
66
1
8
0
6
CONTINUOUS
62
252
70
64
75
0
10
0.000000
20
0.000000
30
0.000000
0
VERTEX
8
0
6
CONTINUOUS
62
252
70
192
10
-2.700000
20
-2.850000
30
28.750000
0
VERTEX
8
0
6
CONTINUOUS
62
252
70
192
10
-2.700000
20
-2.850000
30
28.250000
0
VERTEX
8
0
6
CONTINUOUS
62
252
70
192
10
-6.700000
20
-2.850000
30
28.250000
0
VERTEX
8
0
6
CONTINUOUS
62
252
70
192
10
-6.700000
20
-2.850000
30
28.750000
0
VERTEX
8
0
6
CONTINUOUS
62
252
70
128
10
0.000000
20
0.000000
30
0.000000
71
2
72
3
73
1
0
VERTEX
8
0
6
CONTINUOUS
62
252
70
128
10
0.000000
20
0.000000
30
0.000000
71
1
72
3
73
4
0
SEQEND
0
POLYLINE
66
1
8
0
6
CONTINUOUS
62
252
70
64
75
0
10
0.000000
20
0.000000
30
0.000000
0
VERTEX
8
0
6
CONTINUOUS
62
252
70
192
10
-6.700000
20
-3.350000
30
28.250000
0
VERTEX
8
0
6
CONTINUOUS
62
252
70
192
10
-6.700000
20
-2.850000
30
28.250000
0
VERTEX
8
0
6
CONTINUOUS
62
252
70
192
10
-2.700000
20
-2.850000
30
28.250000
0
VERTEX
8
0
6
CONTINUOUS
62
252
70
192
10
-2.700000
20
-3.350000
30
28.250000
0
VERTEX
8
0
6
CONTINUOUS
62
252
70
128
10
0.000000
20
0.000000
30
0.000000
71
1
72
2
73
4
0
VERTEX
8
0
6
CONTINUOUS
62
252
70
128
10
0.000000
20
0.000000
30
0.000000
71
4
72
2
73
3
0
SEQEND
0
POLYLINE
66
1
8
0
6
CONTINUOUS
62
252
70
64
75
0
10
0.000000
20
0.000000
30
0.000000
0
VERTEX
8
0
6
CONTINUOUS
62
252
70
192
10
-6.700000
20
-3.350000
30
28.750000
0
VERTEX
8
0
6
CONTINUOUS
62
252
70
192
10
-6.700000
20
-2.850000
30
28.750000
0
VERTEX
8
0
6
CONTINUOUS
62
252
70
192
10
-6.700000
20
-2.850000
30
28.250000
0
VERTEX
8
0
6
CONTINUOUS
62
252
70
192
10
-6.700000
20
-3.350000
30
28.250000
0
VERTEX
8
0
6
CONTINUOUS
62
252
70
128
10
0.000000
20
0.000000
30
0.000000
71
1
72
2
73
4
0
VERTEX
8
0
6
CONTINUOUS
62
252
70
128
10
0.000000
20
0.000000
30
0.000000
71
4
72
2
73
3
0
SEQEND
0
POLYLINE
66
1
8
0
6
CONTINUOUS
62
252
70
64
75
0
10
0.000000
20
0.000000
30
0.000000
0
VERTEX
8
0
6
CONTINUOUS
62
252
70
192
10
-2.700000
20
-3.350000
30
28.750000
0
VERTEX
8
0
6
CONTINUOUS
62
252
70
192
10
-2.700000
20
-2.850000
30
28.750000
0
VERTEX
8
0
6
CONTINUOUS
62
252
70
192
10
-6.700000
20
-2.850000
30
28.750000
0
VERTEX
8
0
6
CONTINUOUS
62
252
70
192
10
-6.700000
20
-3.350000
30
28.750000
0
VERTEX
8
0
6
CONTINUOUS
62
252
70
128
10
0.000000
20
0.000000
30
0.000000
71
1
72
2
73
4
0
VERTEX
8
0
6
CONTINUOUS
62
252
70
128
10
0.000000
20
0.000000
30
0.000000
71
4
72
2
73
3
0
SEQEND
0
POLYLINE
66
1
8
0
6
CONTINUOUS
62
252
70
64
75
0
10
0.000000
20
0.000000
30
0.000000
0
VERTEX
8
0
6
CONTINUOUS
62
252
70
192
10
-2.700000
20
-3.350000
30
26.250000
0
VERTEX
8
0
6
CONTINUOUS
62
252
70
192
10
-2.700000
20
-3.350000
30
26.750000
0
VERTEX
8
0
6
CONTINUOUS
62
252
70
192
10
-6.700000
20
-3.350000
30
26.750000
0
VERTEX
8
0
6
CONTINUOUS
62
252
70
192
10
-6.700000
20
-3.350000
30
26.250000
0
VERTEX
8
0
6
CONTINUOUS
62
252
70
128
10
0.000000
20
0.000000
30
0.000000
71
2
72
3
73
1
0
VERTEX
8
0
6
CONTINUOUS
62
252
70
128
10
0.000000
20
0.000000
30
0.000000
71
1
72
3
73
4
0
SEQEND
0
POLYLINE
66
1
8
0
6
CONTINUOUS
62
252
70
64
75
0
10
0.000000
20
0.000000
30
0.000000
0
VERTEX
8
0
6
CONTINUOUS
62
252
70
192
10
-2.700000
20
-2.850000
30
26.750000
0
VERTEX
8
0
6
CONTINUOUS
62
252
70
192
10
-2.700000
20
-2.850000
30
26.250000
0
VERTEX
8
0
6
CONTINUOUS
62
252
70
192
10
-6.700000
20
-2.850000
30
26.250000
0
VERTEX
8
0
6
CONTINUOUS
62
252
70
192
10
-6.700000
20
-2.850000
30
26.750000
0
VERTEX
8
0
6
CONTINUOUS
62
252
70
128
10
0.000000
20
0.000000
30
0.000000
71
2
72
3
73
1
0
VERTEX
8
0
6
CONTINUOUS
62
252
70
128
10
0.000000
20
0.000000
30
0.000000
71
1
72
3
73
4
0
SEQEND
0
POLYLINE
66
1
8
0
6
CONTINUOUS
62
252
70
64
75
0
10
0.000000
20
0.000000
30
0.000000
0
VERTEX
8
0
6
CONTINUOUS
62
252
70
192
10
-6.700000
20
-3.350000
30
26.250000
0
VERTEX
8
0
6
CONTINUOUS
62
252
70
192
10
-6.700000
20
-2.850000
30
26.250000
0
VERTEX
8
0
6
CONTINUOUS
62
252
70
192
10
-2.700000
20
-2.850000
30
26.250000
0
VERTEX
8
0
6
CONTINUOUS
62
252
70
192
10
-2.700000
20
-3.350000
30
26.250000
0
VERTEX
8
0
6
CONTINUOUS
62
252
70
128
10
0.000000
20
0.000000
30
0.000000
71
1
72
2
73
4
0
VERTEX
8
0
6
CONTINUOUS
62
252
70
128
10
0.000000
20
0.000000
30
0.000000
71
4
72
2
73
3
0
SEQEND
0
POLYLINE
66
1
8
0
6
CONTINUOUS
62
252
70
64
75
0
10
0.000000
20
0.000000
30
0.000000
0
VERTEX
8
0
6
CONTINUOUS
62
252
70
192
10
-6.700000
20
-3.350000
30
26.750000
0
VERTEX
8
0
6
CONTINUOUS
62
252
70
192
10
-6.700000
20
-2.850000
30
26.750000
0
VERTEX
8
0
6
CONTINUOUS
62
252
70
192
10
-6.700000
20
-2.850000
30
26.250000
0
VERTEX
8
0
6
CONTINUOUS
62
252
70
192
10
-6.700000
20
-3.350000
30
26.250000
0
VERTEX
8
0
6
CONTINUOUS
62
252
70
128
10
0.000000
20
0.000000
30
0.000000
71
1
72
2
73
4
0
VERTEX
8
0
6
CONTINUOUS
62
252
70
128
10
0.000000
20
0.000000
30
0.000000
71
4
72
2
73
3
0
SEQEND
0
POLYLINE
66
1
8
0
6
CONTINUOUS
62
252
70
64
75
0
10
0.000000
20
0.000000
30
0.000000
0
VERTEX
8
0
6
CONTINUOUS
62
252
70
192
10
-2.700000
20
-3.350000
30
26.750000
0
VERTEX
8
0
6
CONTINUOUS
62
252
70
192
10
-2.700000
20
-2.850000
30
26.750000
0
VERTEX
8
0
6
CONTINUOUS
62
252
70
192
10
-6.700000
20
-2.850000
30
26.750000
0
VERTEX
8
0
6
CONTINUOUS
62
252
70
192
10
-6.700000
20
-3.350000
30
26.750000
0
VERTEX
8
0
6
CONTINUOUS
62
252
70
128
10
0.000000
20
0.000000
30
0.000000
71
1
72
2
73
4
0
VERTEX
8
0
6
CONTINUOUS
62
252
70
128
10
0.000000
20
0.000000
30
0.000000
71
4
72
2
73
3
0
SEQEND
0
POLYLINE
66
1
8
0
6
CONTINUOUS
62
252
70
64
75
0
10
0.000000
20
0.000000
30
0.000000
0
VERTEX
8
0
6
CONTINUOUS
62
252
70
192
10
-2.700000
20
-5.950000
30
50.650000
0
VERTEX
8
0
6
CONTINUOUS
62
252
70
192
10
-2.700000
20
-5.950000
30
24.350000
0
VERTEX
8
0
6
CONTINUOUS
62
252
70
192
10
-6.700000
20
-5.950000
30
24.350000
0
VERTEX
8
0
6
CONTINUOUS
62
252
70
192
10
-6.700000
20
-5.950000
30
50.650000
0
VERTEX
8
0
6
CONTINUOUS
62
252
70
128
10
0.000000
20
0.000000
30
0.000000
71
2
72
3
73
1
0
VERTEX
8
0
6
CONTINUOUS
62
252
70
128
10
0.000000
20
0.000000
30
0.000000
71
1
72
3
73
4
0
SEQEND
0
POLYLINE
66
1
8
0
6
CONTINUOUS
62
252
70
64
75
0
10
0.000000
20
0.000000
30
0.000000
0
VERTEX
8
0
6
CONTINUOUS
62
252
70
192
10
-2.700000
20
-2.100000
30
24.350000
0
VERTEX
8
0
6
CONTINUOUS
62
252
70
192
10
-2.700000
20
-2.100000
30
50.650000
0
VERTEX
8
0
6
CONTINUOUS
62
252
70
192
10
-6.700000
20
-2.100000
30
50.650000
0
VERTEX
8
0
6
CONTINUOUS
62
252
70
192
10
-6.700000
20
-2.100000
30
24.350000
0
VERTEX
8
0
6
CONTINUOUS
62
252
70
128
10
0.000000
20
0.000000
30
0.000000
71
2
72
3
73
1
0
VERTEX
8
0
6
CONTINUOUS
62
252
70
128
10
0.000000
20
0.000000
30
0.000000
71
1
72
3
73
4
0
SEQEND
0
POLYLINE
66
1
8
0
6
CONTINUOUS
62
252
70
64
75
0
10
0.000000
20
0.000000
30
0.000000
0
VERTEX
8
0
6
CONTINUOUS
62
252
70
192
10
-6.700000
20
-2.100000
30
24.350000
0
VERTEX
8
0
6
CONTINUOUS
62
252
70
192
10
-6.700000
20
-5.950000
30
24.350000
0
VERTEX
8
0
6
CONTINUOUS
62
252
70
192
10
-2.700000
20
-5.950000
30
24.350000
0
VERTEX
8
0
6
CONTINUOUS
62
252
70
192
10
-2.700000
20
-2.100000
30
24.350000
0
VERTEX
8
0
6
CONTINUOUS
62
252
70
128
10
0.000000
20
0.000000
30
0.000000
71
1
72
2
73
4
0
VERTEX
8
0
6
CONTINUOUS
62
252
70
128
10
0.000000
20
0.000000
30
0.000000
71
4
72
2
73
3
0
SEQEND
0
POLYLINE
66
1
8
0
6
CONTINUOUS
62
252
70
64
75
0
10
0.000000
20
0.000000
30
0.000000
0
VERTEX
8
0
6
CONTINUOUS
62
252
70
192
10
-2.700000
20
-2.100000
30
50.650000
0
VERTEX
8
0
6
CONTINUOUS
62
252
70
192
10
-2.700000
20
-5.950000
30
50.650000
0
VERTEX
8
0
6
CONTINUOUS
62
252
70
192
10
-6.700000
20
-5.950000
30
50.650000
0
VERTEX
8
0
6
CONTINUOUS
62
252
70
192
10
-6.700000
20
-2.100000
30
50.650000
0
VERTEX
8
0
6
CONTINUOUS
62
252
70
128
10
0.000000
20
0.000000
30
0.000000
71
1
72
2
73
4
0
VERTEX
8
0
6
CONTINUOUS
62
252
70
128
10
0.000000
20
0.000000
30
0.000000
71
4
72
2
73
3
0
SEQEND
0
POLYLINE
66
1
8
0
6
CONTINUOUS
62
252
70
64
75
0
10
0.000000
20
0.000000
30
0.000000
0
VERTEX
8
0
6
CONTINUOUS
62
252
70
192
10
-2.700000
20
-2.850000
30
48.250000
0
VERTEX
8
0
6
CONTINUOUS
62
252
70
192
10
-2.700000
20
-2.850000
30
48.750000
0
VERTEX
8
0
6
CONTINUOUS
62
252
70
192
10
-2.700000
20
-3.350000
30
48.750000
0
VERTEX
8
0
6
CONTINUOUS
62
252
70
192
10
-2.700000
20
-3.350000
30
48.250000
0
VERTEX
8
0
6
CONTINUOUS
62
252
70
192
10
-2.700000
20
-2.850000
30
46.250000
0
VERTEX
8
0
6
CONTINUOUS
62
252
70
192
10
-2.700000
20
-2.850000
30
46.750000
0
VERTEX
8
0
6
CONTINUOUS
62
252
70
192
10
-2.700000
20
-3.350000
30
46.750000
0
VERTEX
8
0
6
CONTINUOUS
62
252
70
192
10
-2.700000
20
-3.350000
30
46.250000
0
VERTEX
8
0
6
CONTINUOUS
62
252
70
192
10
-2.700000
20
-2.850000
30
44.250000
0
VERTEX
8
0
6
CONTINUOUS
62
252
70
192
10
-2.700000
20
-2.850000
30
44.750000
0
VERTEX
8
0
6
CONTINUOUS
62
252
70
192
10
-2.700000
20
-3.350000
30
44.750000
0
VERTEX
8
0
6
CONTINUOUS
62
252
70
192
10
-2.700000
20
-3.350000
30
44.250000
0
VERTEX
8
0
6
CONTINUOUS
62
252
70
192
10
-2.700000
20
-2.850000
30
42.250000
0
VERTEX
8
0
6
CONTINUOUS
62
252
70
192
10
-2.700000
20
-2.850000
30
42.750000
0
VERTEX
8
0
6
CONTINUOUS
62
252
70
192
10
-2.700000
20
-3.350000
30
42.750000
0
VERTEX
8
0
6
CONTINUOUS
62
252
70
192
10
-2.700000
20
-3.350000
30
42.250000
0
VERTEX
8
0
6
CONTINUOUS
62
252
70
192
10
-2.700000
20
-2.850000
30
40.250000
0
VERTEX
8
0
6
CONTINUOUS
62
252
70
192
10
-2.700000
20
-2.850000
30
40.750000
0
VERTEX
8
0
6
CONTINUOUS
62
252
70
192
10
-2.700000
20
-3.350000
30
40.750000
0
VERTEX
8
0
6
CONTINUOUS
62
252
70
192
10
-2.700000
20
-3.350000
30
40.250000
0
VERTEX
8
0
6
CONTINUOUS
62
252
70
192
10
-2.700000
20
-2.850000
30
38.250000
0
VERTEX
8
0
6
CONTINUOUS
62
252
70
192
10
-2.700000
20
-2.850000
30
38.750000
0
VERTEX
8
0
6
CONTINUOUS
62
252
70
192
10
-2.700000
20
-3.350000
30
38.750000
0
VERTEX
8
0
6
CONTINUOUS
62
252
70
192
10
-2.700000
20
-3.350000
30
38.250000
0
VERTEX
8
0
6
CONTINUOUS
62
252
70
192
10
-2.700000
20
-2.850000
30
36.250000
0
VERTEX
8
0
6
CONTINUOUS
62
252
70
192
10
-2.700000
20
-2.850000
30
36.750000
0
VERTEX
8
0
6
CONTINUOUS
62
252
70
192
10
-2.700000
20
-3.350000
30
36.750000
0
VERTEX
8
0
6
CONTINUOUS
62
252
70
192
10
-2.700000
20
-3.350000
30
36.250000
0
VERTEX
8
0
6
CONTINUOUS
62
252
70
192
10
-2.700000
20
-2.850000
30
34.250000
0
VERTEX
8
0
6
CONTINUOUS
62
252
70
192
10
-2.700000
20
-2.850000
30
34.750000
0
VERTEX
8
0
6
CONTINUOUS
62
252
70
192
10
-2.700000
20
-3.350000
30
34.750000
0
VERTEX
8
0
6
CONTINUOUS
62
252
70
192
10
-2.700000
20
-3.350000
30
34.250000
0
VERTEX
8
0
6
CONTINUOUS
62
252
70
192
10
-2.700000
20
-2.850000
30
32.250000
0
VERTEX
8
0
6
CONTINUOUS
62
252
70
192
10
-2.700000
20
-2.850000
30
32.750000
0
VERTEX
8
0
6
CONTINUOUS
62
252
70
192
10
-2.700000
20
-3.350000
30
32.750000
0
VERTEX
8
0
6
CONTINUOUS
62
252
70
192
10
-2.700000
20
-3.350000
30
32.250000
0
VERTEX
8
0
6
CONTINUOUS
62
252
70
192
10
-2.700000
20
-2.850000
30
30.250000
0
VERTEX
8
0
6
CONTINUOUS
62
252
70
192
10
-2.700000
20
-2.850000
30
30.750000
0
VERTEX
8
0
6
CONTINUOUS
62
252
70
192
10
-2.700000
20
-3.350000
30
30.750000
0
VERTEX
8
0
6
CONTINUOUS
62
252
70
192
10
-2.700000
20
-3.350000
30
30.250000
0
VERTEX
8
0
6
CONTINUOUS
62
252
70
192
10
-2.700000
20
-2.850000
30
28.250000
0
VERTEX
8
0
6
CONTINUOUS
62
252
70
192
10
-2.700000
20
-2.850000
30
28.750000
0
VERTEX
8
0
6
CONTINUOUS
62
252
70
192
10
-2.700000
20
-3.350000
30
28.750000
0
VERTEX
8
0
6
CONTINUOUS
62
252
70
192
10
-2.700000
20
-3.350000
30
28.250000
0
VERTEX
8
0
6
CONTINUOUS
62
252
70
192
10
-2.700000
20
-2.850000
30
26.250000
0
VERTEX
8
0
6
CONTINUOUS
62
252
70
192
10
-2.700000
20
-2.850000
30
26.750000
0
VERTEX
8
0
6
CONTINUOUS
62
252
70
192
10
-2.700000
20
-3.350000
30
26.750000
0
VERTEX
8
0
6
CONTINUOUS
62
252
70
192
10
-2.700000
20
-3.350000
30
26.250000
0
VERTEX
8
0
6
CONTINUOUS
62
252
70
192
10
-2.700000
20
-2.100000
30
24.350000
0
VERTEX
8
0
6
CONTINUOUS
62
252
70
192
10
-2.700000
20
-5.950000
30
24.350000
0
VERTEX
8
0
6
CONTINUOUS
62
252
70
192
10
-2.700000
20
-5.950000
30
50.650000
0
VERTEX
8
0
6
CONTINUOUS
62
252
70
192
10
-2.700000
20
-2.100000
30
50.650000
0
VERTEX
8
0
6
CONTINUOUS
62
252
70
128
10
0.000000
20
0.000000
30
0.000000
71
2
72
52
73
1
0
VERTEX
8
0
6
CONTINUOUS
62
252
70
128
10
0.000000
20
0.000000
30
0.000000
71
1
72
52
73
6
0
VERTEX
8
0
6
CONTINUOUS
62
252
70
128
10
0.000000
20
0.000000
30
0.000000
71
1
72
6
73
7
0
VERTEX
8
0
6
CONTINUOUS
62
252
70
128
10
0.000000
20
0.000000
30
0.000000
71
2
72
3
73
52
0
VERTEX
8
0
6
CONTINUOUS
62
252
70
128
10
0.000000
20
0.000000
30
0.000000
71
52
72
3
73
51
0
VERTEX
8
0
6
CONTINUOUS
62
252
70
128
10
0.000000
20
0.000000
30
0.000000
71
51
72
3
73
4
0
VERTEX
8
0
6
CONTINUOUS
62
252
70
128
10
0.000000
20
0.000000
30
0.000000
71
51
72
4
73
7
0
VERTEX
8
0
6
CONTINUOUS
62
252
70
128
10
0.000000
20
0.000000
30
0.000000
71
7
72
4
73
1
0
VERTEX
8
0
6
CONTINUOUS
62
252
70
128
10
0.000000
20
0.000000
30
0.000000
71
6
72
52
73
5
0
VERTEX
8
0
6
CONTINUOUS
62
252
70
128
10
0.000000
20
0.000000
30
0.000000
71
5
72
52
73
10
0
VERTEX
8
0
6
CONTINUOUS
62
252
70
128
10
0.000000
20
0.000000
30
0.000000
71
5
72
10
73
11
0
VERTEX
8
0
6
CONTINUOUS
62
252
70
128
10
0.000000
20
0.000000
30
0.000000
71
7
72
8
73
51
0
VERTEX
8
0
6
CONTINUOUS
62
252
70
128
10
0.000000
20
0.000000
30
0.000000
71
51
72
8
73
11
0
VERTEX
8
0
6
CONTINUOUS
62
252
70
128
10
0.000000
20
0.000000
30
0.000000
71
51
72
11
73
12
0
VERTEX
8
0
6
CONTINUOUS
62
252
70
128
10
0.000000
20
0.000000
30
0.000000
71
8
72
5
73
11
0
VERTEX
8
0
6
CONTINUOUS
62
252
70
128
10
0.000000
20
0.000000
30
0.000000
71
10
72
52
73
9
0
VERTEX
8
0
6
CONTINUOUS
62
252
70
128
10
0.000000
20
0.000000
30
0.000000
71
9
72
52
73
14
0
VERTEX
8
0
6
CONTINUOUS
62
252
70
128
10
0.000000
20
0.000000
30
0.000000
71
9
72
14
73
15
0
VERTEX
8
0
6
CONTINUOUS
62
252
70
128
10
0.000000
20
0.000000
30
0.000000
71
51
72
12
73
15
0
VERTEX
8
0
6
CONTINUOUS
62
252
70
128
10
0.000000
20
0.000000
30
0.000000
71
15
72
12
73
9
0
VERTEX
8
0
6
CONTINUOUS
62
252
70
128
10
0.000000
20
0.000000
30
0.000000
71
14
72
52
73
13
0
VERTEX
8
0
6
CONTINUOUS
62
252
70
128
10
0.000000
20
0.000000
30
0.000000
71
13
72
52
73
18
0
VERTEX
8
0
6
CONTINUOUS
62
252
70
128
10
0.000000
20
0.000000
30
0.000000
71
13
72
18
73
19
0
VERTEX
8
0
6
CONTINUOUS
62
252
70
128
10
0.000000
20
0.000000
30
0.000000
71
15
72
16
73
51
0
VERTEX
8
0
6
CONTINUOUS
62
252
70
128
10
0.000000
20
0.000000
30
0.000000
71
51
72
16
73
19
0
VERTEX
8
0
6
CONTINUOUS
62
252
70
128
10
0.000000
20
0.000000
30
0.000000
71
51
72
19
73
20
0
VERTEX
8
0
6
CONTINUOUS
62
252
70
128
10
0.000000
20
0.000000
30
0.000000
71
16
72
13
73
19
0
VERTEX
8
0
6
CONTINUOUS
62
252
70
128
10
0.000000
20
0.000000
30
0.000000
71
18
72
52
73
17
0
VERTEX
8
0
6
CONTINUOUS
62
252
70
128
10
0.000000
20
0.000000
30
0.000000
71
17
72
52
73
22
0
VERTEX
8
0
6
CONTINUOUS
62
252
70
128
10
0.000000
20
0.000000
30
0.000000
71
17
72
22
73
20
0
VERTEX
8
0
6
CONTINUOUS
62
252
70
128
10
0.000000
20
0.000000
30
0.000000
71
20
72
22
73
23
0
VERTEX
8
0
6
CONTINUOUS
62
252
70
128
10
0.000000
20
0.000000
30
0.000000
71
20
72
23
73
51
0
VERTEX
8
0
6
CONTINUOUS
62
252
70
128
10
0.000000
20
0.000000
30
0.000000
71
51
72
23
73
24
0
VERTEX
8
0
6
CONTINUOUS
62
252
70
128
10
0.000000
20
0.000000
30
0.000000
71
51
72
24
73
27
0
VERTEX
8
0
6
CONTINUOUS
62
252
70
128
10
0.000000
20
0.000000
30
0.000000
71
27
72
24
73
26
0
VERTEX
8
0
6
CONTINUOUS
62
252
70
128
10
0.000000
20
0.000000
30
0.000000
71
26
72
24
73
21
0
VERTEX
8
0
6
CONTINUOUS
62
252
70
128
10
0.000000
20
0.000000
30
0.000000
71
26
72
21
73
49
0
VERTEX
8
0
6
CONTINUOUS
62
252
70
128
10
0.000000
20
0.000000
30
0.000000
71
49
72
21
73
52
0
VERTEX
8
0
6
CONTINUOUS
62
252
70
128
10
0.000000
20
0.000000
30
0.000000
71
52
72
21
73
22
0
VERTEX
8
0
6
CONTINUOUS
62
252
70
128
10
0.000000
20
0.000000
30
0.000000
71
26
72
49
73
25
0
VERTEX
8
0
6
CONTINUOUS
62
252
70
128
10
0.000000
20
0.000000
30
0.000000
71
25
72
49
73
30
0
VERTEX
8
0
6
CONTINUOUS
62
252
70
128
10
0.000000
20
0.000000
30
0.000000
71
25
72
30
73
31
0
VERTEX
8
0
6
CONTINUOUS
62
252
70
128
10
0.000000
20
0.000000
30
0.000000
71
51
72
27
73
50
0
VERTEX
8
0
6
CONTINUOUS
62
252
70
128
10
0.000000
20
0.000000
30
0.000000
71
50
72
27
73
28
0
VERTEX
8
0
6
CONTINUOUS
62
252
70
128
10
0.000000
20
0.000000
30
0.000000
71
50
72
28
73
31
0
VERTEX
8
0
6
CONTINUOUS
62
252
70
128
10
0.000000
20
0.000000
30
0.000000
71
31
72
28
73
25
0
VERTEX
8
0
6
CONTINUOUS
62
252
70
128
10
0.000000
20
0.000000
30
0.000000
71
30
72
49
73
29
0
VERTEX
8
0
6
CONTINUOUS
62
252
70
128
10
0.000000
20
0.000000
30
0.000000
71
29
72
49
73
34
0
VERTEX
8
0
6
CONTINUOUS
62
252
70
128
10
0.000000
20
0.000000
30
0.000000
71
29
72
34
73
35
0
VERTEX
8
0
6
CONTINUOUS
62
252
70
128
10
0.000000
20
0.000000
30
0.000000
71
31
72
32
73
50
0
VERTEX
8
0
6
CONTINUOUS
62
252
70
128
10
0.000000
20
0.000000
30
0.000000
71
50
72
32
73
35
0
VERTEX
8
0
6
CONTINUOUS
62
252
70
128
10
0.000000
20
0.000000
30
0.000000
71
50
72
35
73
36
0
VERTEX
8
0
6
CONTINUOUS
62
252
70
128
10
0.000000
20
0.000000
30
0.000000
71
32
72
29
73
35
0
VERTEX
8
0
6
CONTINUOUS
62
252
70
128
10
0.000000
20
0.000000
30
0.000000
71
34
72
49
73
33
0
VERTEX
8
0
6
CONTINUOUS
62
252
70
128
10
0.000000
20
0.000000
30
0.000000
71
33
72
49
73
38
0
VERTEX
8
0
6
CONTINUOUS
62
252
70
128
10
0.000000
20
0.000000
30
0.000000
71
33
72
38
73
39
0
VERTEX
8
0
6
CONTINUOUS
62
252
70
128
10
0.000000
20
0.000000
30
0.000000
71
50
72
36
73
39
0
VERTEX
8
0
6
CONTINUOUS
62
252
70
128
10
0.000000
20
0.000000
30
0.000000
71
39
72
36
73
33
0
VERTEX
8
0
6
CONTINUOUS
62
252
70
128
10
0.000000
20
0.000000
30
0.000000
71
38
72
49
73
37
0
VERTEX
8
0
6
CONTINUOUS
62
252
70
128
10
0.000000
20
0.000000
30
0.000000
71
37
72
49
73
42
0
VERTEX
8
0
6
CONTINUOUS
62
252
70
128
10
0.000000
20
0.000000
30
0.000000
71
37
72
42
73
43
0
VERTEX
8
0
6
CONTINUOUS
62
252
70
128
10
0.000000
20
0.000000
30
0.000000
71
39
72
40
73
50
0
VERTEX
8
0
6
CONTINUOUS
62
252
70
128
10
0.000000
20
0.000000
30
0.000000
71
50
72
40
73
43
0
VERTEX
8
0
6
CONTINUOUS
62
252
70
128
10
0.000000
20
0.000000
30
0.000000
71
50
72
43
73
44
0
VERTEX
8
0
6
CONTINUOUS
62
252
70
128
10
0.000000
20
0.000000
30
0.000000
71
40
72
37
73
43
0
VERTEX
8
0
6
CONTINUOUS
62
252
70
128
10
0.000000
20
0.000000
30
0.000000
71
42
72
49
73
41
0
VERTEX
8
0
6
CONTINUOUS
62
252
70
128
10
0.000000
20
0.000000
30
0.000000
71
41
72
49
73
46
0
VERTEX
8
0
6
CONTINUOUS
62
252
70
128
10
0.000000
20
0.000000
30
0.000000
71
41
72
46
73
47
0
VERTEX
8
0
6
CONTINUOUS
62
252
70
128
10
0.000000
20
0.000000
30
0.000000
71
50
72
44
73
47
0
VERTEX
8
0
6
CONTINUOUS
62
252
70
128
10
0.000000
20
0.000000
30
0.000000
71
47
72
44
73
41
0
VERTEX
8
0
6
CONTINUOUS
62
252
70
128
10
0.000000
20
0.000000
30
0.000000
71
48
72
45
73
49
0
VERTEX
8
0
6
CONTINUOUS
62
252
70
128
10
0.000000
20
0.000000
30
0.000000
71
49
72
45
73
46
0
VERTEX
8
0
6
CONTINUOUS
62
252
70
128
10
0.000000
20
0.000000
30
0.000000
71
47
72
48
73
50
0
VERTEX
8
0
6
CONTINUOUS
62
252
70
128
10
0.000000
20
0.000000
30
0.000000
71
50
72
48
73
49
0
SEQEND
0
POLYLINE
66
1
8
0
6
CONTINUOUS
62
252
70
64
75
0
10
0.000000
20
0.000000
30
0.000000
0
VERTEX
8
0
6
CONTINUOUS
62
252
70
192
10
-0.700000
20
-6.450000
30
23.850000
0
VERTEX
8
0
6
CONTINUOUS
62
252
70
192
10
-0.700000
20
-6.450000
30
51.150000
0
VERTEX
8
0
6
CONTINUOUS
62
252
70
192
10
-6.700000
20
-6.450000
30
51.150000
0
VERTEX
8
0
6
CONTINUOUS
62
252
70
192
10
-6.700000
20
-6.450000
30
23.850000
0
VERTEX
8
0
6
CONTINUOUS
62
252
70
128
10
0.000000
20
0.000000
30
0.000000
71
2
72
3
73
1
0
VERTEX
8
0
6
CONTINUOUS
62
252
70
128
10
0.000000
20
0.000000
30
0.000000
71
1
72
3
73
4
0
SEQEND
0
POLYLINE
66
1
8
0
6
CONTINUOUS
62
252
70
64
75
0
10
0.000000
20
0.000000
30
0.000000
0
VERTEX
8
0
6
CONTINUOUS
62
252
70
192
10
-6.700000
20
-6.450000
30
23.850000
0
VERTEX
8
0
6
CONTINUOUS
62
252
70
192
10
-6.700000
20
-1.600000
30
23.850000
0
VERTEX
8
0
6
CONTINUOUS
62
252
70
192
10
-3.500000
20
-1.600000
30
23.850000
0
VERTEX
8
0
6
CONTINUOUS
62
252
70
192
10
-0.700000
20
-1.600000
30
23.850000
0
VERTEX
8
0
6
CONTINUOUS
62
252
70
192
10
-0.700000
20
-6.450000
30
23.850000
0
VERTEX
8
0
6
CONTINUOUS
62
252
70
128
10
0.000000
20
0.000000
30
0.000000
71
2
72
3
73
1
0
VERTEX
8
0
6
CONTINUOUS
62
252
70
128
10
0.000000
20
0.000000
30
0.000000
71
1
72
3
73
5
0
VERTEX
8
0
6
CONTINUOUS
62
252
70
128
10
0.000000
20
0.000000
30
0.000000
71
5
72
3
73
4
0
SEQEND
0
POLYLINE
66
1
8
0
6
CONTINUOUS
62
252
70
64
75
0
10
0.000000
20
0.000000
30
0.000000
0
VERTEX
8
0
6
CONTINUOUS
62
252
70
192
10
-6.700000
20
-2.100000
30
24.350000
0
VERTEX
8
0
6
CONTINUOUS
62
252
70
192
10
-6.700000
20
-2.100000
30
50.650000
0
VERTEX
8
0
6
CONTINUOUS
62
252
70
192
10
-6.700000
20
-5.950000
30
50.650000
0
VERTEX
8
0
6
CONTINUOUS
62
252
70
192
10
-6.700000
20
-5.950000
30
24.350000
0
VERTEX
8
0
6
CONTINUOUS
62
252
70
192
10
-6.700000
20
-6.450000
30
51.150000
0
VERTEX
8
0
6
CONTINUOUS
62
252
70
192
10
-6.700000
20
-1.600000
30
51.150000
0
VERTEX
8
0
6
CONTINUOUS
62
252
70
192
10
-6.700000
20
-1.600000
30
23.850000
0
VERTEX
8
0
6
CONTINUOUS
62
252
70
192
10
-6.700000
20
-6.450000
30
23.850000
0
VERTEX
8
0
6
CONTINUOUS
62
252
70
128
10
0.000000
20
0.000000
30
0.000000
71
2
72
7
73
1
0
VERTEX
8
0
6
CONTINUOUS
62
252
70
128
10
0.000000
20
0.000000
30
0.000000
71
1
72
7
73
8
0
VERTEX
8
0
6
CONTINUOUS
62
252
70
128
10
0.000000
20
0.000000
30
0.000000
71
1
72
8
73
4
0
VERTEX
8
0
6
CONTINUOUS
62
252
70
128
10
0.000000
20
0.000000
30
0.000000
71
4
72
8
73
3
0
VERTEX
8
0
6
CONTINUOUS
62
252
70
128
10
0.000000
20
0.000000
30
0.000000
71
3
72
8
73
5
0
VERTEX
8
0
6
CONTINUOUS
62
252
70
128
10
0.000000
20
0.000000
30
0.000000
71
3
72
5
73
2
0
VERTEX
8
0
6
CONTINUOUS
62
252
70
128
10
0.000000
20
0.000000
30
0.000000
71
2
72
5
73
6
0
VERTEX
8
0
6
CONTINUOUS
62
252
70
128
10
0.000000
20
0.000000
30
0.000000
71
2
72
6
73
7
0
SEQEND
0
POLYLINE
66
1
8
0
6
CONTINUOUS
62
252
70
64
75
0
10
0.000000
20
0.000000
30
0.000000
0
VERTEX
8
0
6
CONTINUOUS
62
252
70
192
10
-0.700000
20
-6.450000
30
51.150000
0
VERTEX
8
0
6
CONTINUOUS
62
252
70
192
10
-0.700000
20
-1.600000
30
51.150000
0
VERTEX
8
0
6
CONTINUOUS
62
252
70
192
10
-3.500000
20
-1.600000
30
51.150000
0
VERTEX
8
0
6
CONTINUOUS
62
252
70
192
10
-6.700000
20
-1.600000
30
51.150000
0
VERTEX
8
0
6
CONTINUOUS
62
252
70
192
10
-6.700000
20
-6.450000
30
51.150000
0
VERTEX
8
0
6
CONTINUOUS
62
252
70
128
10
0.000000
20
0.000000
30
0.000000
71
2
72
3
73
1
0
VERTEX
8
0
6
CONTINUOUS
62
252
70
128
10
0.000000
20
0.000000
30
0.000000
71
1
72
3
73
5
0
VERTEX
8
0
6
CONTINUOUS
62
252
70
128
10
0.000000
20
0.000000
30
0.000000
71
5
72
3
73
4
0
SEQEND
0
POLYLINE
66
1
8
0
6
CONTINUOUS
62
252
70
64
75
0
10
0.000000
20
0.000000
30
0.000000
0
VERTEX
8
0
6
CONTINUOUS
62
252
70
192
10
-0.700000
20
-6.450000
30
23.850000
0
VERTEX
8
0
6
CONTINUOUS
62
252
70
192
10
-0.700000
20
-1.600000
30
23.850000
0
VERTEX
8
0
6
CONTINUOUS
62
252
70
192
10
-0.700000
20
-1.600000
30
51.150000
0
VERTEX
8
0
6
CONTINUOUS
62
252
70
192
10
-0.700000
20
-6.450000
30
51.150000
0
VERTEX
8
0
6
CONTINUOUS
62
252
70
128
10
0.000000
20
0.000000
30
0.000000
71
1
72
2
73
4
0
VERTEX
8
0
6
CONTINUOUS
62
252
70
128
10
0.000000
20
0.000000
30
0.000000
71
4
72
2
73
3
0
SEQEND
0
POLYLINE
66
1
8
0
6
CONTINUOUS
62
252
70
64
75
0
10
0.000000
20
0.000000
30
0.000000
0
VERTEX
8
0
6
CONTINUOUS
62
252
70
192
10
-1.900000
20
-1.600000
30
5.300000
0
VERTEX
8
0
6
CONTINUOUS
62
252
70
192
10
-1.900000
20
-1.600000
30
20.700000
0
VERTEX
8
0
6
CONTINUOUS
62
252
70
192
10
4.300000
20
-1.600000
30
20.700000
0
VERTEX
8
0
6
CONTINUOUS
62
252
70
192
10
4.300000
20
-1.600000
30
5.300000
0
VERTEX
8
0
6
CONTINUOUS
62
252
70
192
10
4.300000
20
-1.600000
30
87.800000
0
VERTEX
8
0
6
CONTINUOUS
62
252
70
192
10
-1.900000
20
-1.600000
30
87.800000
0
VERTEX
8
0
6
CONTINUOUS
62
252
70
192
10
-1.900000
20
-1.600000
30
92.800000
0
VERTEX
8
0
6
CONTINUOUS
62
252
70
192
10
4.300000
20
-1.600000
30
92.800000
0
VERTEX
8
0
6
CONTINUOUS
62
252
70
192
10
4.300000
20
-1.600000
30
64.800000
0
VERTEX
8
0
6
CONTINUOUS
62
252
70
192
10
-1.900000
20
-1.600000
30
64.800000
0
VERTEX
8
0
6
CONTINUOUS
62
252
70
192
10
-1.900000
20
-1.600000
30
69.800000
0
VERTEX
8
0
6
CONTINUOUS
62
252
70
192
10
4.300000
20
-1.600000
30
69.800000
0
VERTEX
8
0
6
CONTINUOUS
62
252
70
192
10
2.250000
20
-1.600000
30
59.600000
0
VERTEX
8
0
6
CONTINUOUS
62
252
70
192
10
2.223414
20
-1.600000
30
59.296116
0
VERTEX
8
0
6
CONTINUOUS
62
252
70
192
10
2.144462
20
-1.600000
30
59.001465
0
VERTEX
8
0
6
CONTINUOUS
62
252
70
192
10
2.015544
20
-1.600000
30
58.725000
0
VERTEX
8
0
6
CONTINUOUS
62
252
70
192
10
1.840578
20
-1.600000
30
58.475122
0
VERTEX
8
0
6
CONTINUOUS
62
252
70
192
10
1.624878
20
-1.600000
30
58.259422
0
VERTEX
8
0
6
CONTINUOUS
62
252
70
192
10
1.375000
20
-1.600000
30
58.084456
0
VERTEX
8
0
6
CONTINUOUS
62
252
70
192
10
1.098535
20
-1.600000
30
57.955538
0
VERTEX
8
0
6
CONTINUOUS
62
252
70
192
10
0.803884
20
-1.600000
30
57.876586
0
VERTEX
8
0
6
CONTINUOUS
62
252
70
192
10
0.500000
20
-1.600000
30
57.850000
0
VERTEX
8
0
6
CONTINUOUS
62
252
70
192
10
0.196116
20
-1.600000
30
57.876586
0
VERTEX
8
0
6
CONTINUOUS
62
252
70
192
10
-0.098535
20
-1.600000
30
57.955538
0
VERTEX
8
0
6
CONTINUOUS
62
252
70
192
10
-0.375000
20
-1.600000
30
58.084456
0
VERTEX
8
0
6
CONTINUOUS
62
252
70
192
10
-0.624878
20
-1.600000
30
58.259422
0
VERTEX
8
0
6
CONTINUOUS
62
252
70
192
10
-0.840578
20
-1.600000
30
58.475122
0
VERTEX
8
0
6
CONTINUOUS
62
252
70
192
10
-1.015544
20
-1.600000
30
58.725000
0
VERTEX
8
0
6
CONTINUOUS
62
252
70
192
10
-1.144462
20
-1.600000
30
59.001465
0
VERTEX
8
0
6
CONTINUOUS
62
252
70
192
10
-1.223414
20
-1.600000
30
59.296116
0
VERTEX
8
0
6
CONTINUOUS
62
252
70
192
10
-1.250000
20
-1.600000
30
59.600000
0
VERTEX
8
0
6
CONTINUOUS
62
252
70
192
10
-1.223414
20
-1.600000
30
59.903884
0
VERTEX
8
0
6
CONTINUOUS
62
252
70
192
10
-1.144462
20
-1.600000
30
60.198535
0
VERTEX
8
0
6
CONTINUOUS
62
252
70
192
10
-1.015544
20
-1.600000
30
60.475000
0
VERTEX
8
0
6
CONTINUOUS
62
252
70
192
10
-0.840578
20
-1.600000
30
60.724878
0
VERTEX
8
0
6
CONTINUOUS
62
252
70
192
10
-0.624878
20
-1.600000
30
60.940578
0
VERTEX
8
0
6
CONTINUOUS
62
252
70
192
10
-0.375000
20
-1.600000
30
61.115544
0
VERTEX
8
0
6
CONTINUOUS
62
252
70
192
10
-0.098535
20
-1.600000
30
61.244462
0
VERTEX
8
0
6
CONTINUOUS
62
252
70
192
10
0.196116
20
-1.600000
30
61.323414
0
VERTEX
8
0
6
CONTINUOUS
62
252
70
192
10
0.500000
20
-1.600000
30
61.350000
0
VERTEX
8
0
6
CONTINUOUS
62
252
70
192
10
0.803884
20
-1.600000
30
61.323414
0
VERTEX
8
0
6
CONTINUOUS
62
252
70
192
10
1.098535
20
-1.600000
30
61.244462
0
VERTEX
8
0
6
CONTINUOUS
62
252
70
192
10
1.375000
20
-1.600000
30
61.115544
0
VERTEX
8
0
6
CONTINUOUS
62
252
70
192
10
1.624878
20
-1.600000
30
60.940578
0
VERTEX
8
0
6
CONTINUOUS
62
252
70
192
10
1.840578
20
-1.600000
30
60.724878
0
VERTEX
8
0
6
CONTINUOUS
62
252
70
192
10
2.015544
20
-1.600000
30
60.475000
0
VERTEX
8
0
6
CONTINUOUS
62
252
70
192
10
2.144462
20
-1.600000
30
60.198535
0
VERTEX
8
0
6
CONTINUOUS
62
252
70
192
10
2.223414
20
-1.600000
30
59.903884
0
VERTEX
8
0
6
CONTINUOUS
62
252
70
192
10
79.750000
20
-1.600000
30
98.000000
0
VERTEX
8
0
6
CONTINUOUS
62
252
70
192
10
79.723414
20
-1.600000
30
97.696116
0
VERTEX
8
0
6
CONTINUOUS
62
252
70
192
10
79.644462
20
-1.600000
30
97.401465
0
VERTEX
8
0
6
CONTINUOUS
62
252
70
192
10
79.515544
20
-1.600000
30
97.125000
0
VERTEX
8
0
6
CONTINUOUS
62
252
70
192
10
79.340578
20
-1.600000
30
96.875122
0
VERTEX
8
0
6
CONTINUOUS
62
252
70
192
10
79.124878
20
-1.600000
30
96.659422
0
VERTEX
8
0
6
CONTINUOUS
62
252
70
192
10
78.875000
20
-1.600000
30
96.484456
0
VERTEX
8
0
6
CONTINUOUS
62
252
70
192
10
78.598535
20
-1.600000
30
96.355538
0
VERTEX
8
0
6
CONTINUOUS
62
252
70
192
10
78.303884
20
-1.600000
30
96.276586
0
VERTEX
8
0
6
CONTINUOUS
62
252
70
192
10
78.000000
20
-1.600000
30
96.250000
0
VERTEX
8
0
6
CONTINUOUS
62
252
70
192
10
77.696116
20
-1.600000
30
96.276586
0
VERTEX
8
0
6
CONTINUOUS
62
252
70
192
10
77.401465
20
-1.600000
30
96.355538
0
VERTEX
8
0
6
CONTINUOUS
62
252
70
192
10
77.125000
20
-1.600000
30
96.484456
0
VERTEX
8
0
6
CONTINUOUS
62
252
70
192
10
76.875122
20
-1.600000
30
96.659422
0
VERTEX
8
0
6
CONTINUOUS
62
252
70
192
10
76.659422
20
-1.600000
30
96.875122
0
VERTEX
8
0
6
CONTINUOUS
62
252
70
192
10
76.484456
20
-1.600000
30
97.125000
0
VERTEX
8
0
6
CONTINUOUS
62
252
70
192
10
76.355538
20
-1.600000
30
97.401465
0
VERTEX
8
0
6
CONTINUOUS
62
252
70
192
10
76.276586
20
-1.600000
30
97.696116
0
VERTEX
8
0
6
CONTINUOUS
62
252
70
192
10
76.250000
20
-1.600000
30
98.000000
0
VERTEX
8
0
6
CONTINUOUS
62
252
70
192
10
76.276586
20
-1.600000
30
98.303884
0
VERTEX
8
0
6
CONTINUOUS
62
252
70
192
10
76.355538
20
-1.600000
30
98.598535
0
VERTEX
8
0
6
CONTINUOUS
62
252
70
192
10
76.484456
20
-1.600000
30
98.875000
0
VERTEX
8
0
6
CONTINUOUS
62
252
70
192
10
76.659422
20
-1.600000
30
99.124878
0
VERTEX
8
0
6
CONTINUOUS
62
252
70
192
10
76.875122
20
-1.600000
30
99.340578
0
VERTEX
8
0
6
CONTINUOUS
62
252
70
192
10
77.125000
20
-1.600000
30
99.515544
0
VERTEX
8
0
6
CONTINUOUS
62
252
70
192
10
77.401465
20
-1.600000
30
99.644462
0
VERTEX
8
0
6
CONTINUOUS
62
252
70
192
10
77.696116
20
-1.600000
30
99.723414
0
VERTEX
8
0
6
CONTINUOUS
62
252
70
192
10
78.000000
20
-1.600000
30
99.750000
0
VERTEX
8
0
6
CONTINUOUS
62
252
70
192
10
78.303884
20
-1.600000
30
99.723414
0
VERTEX
8
0
6
CONTINUOUS
62
252
70
192
10
78.598535
20
-1.600000
30
99.644462
0
VERTEX
8
0
6
CONTINUOUS
62
252
70
192
10
78.875000
20
-1.600000
30
99.515544
0
VERTEX
8
0
6
CONTINUOUS
62
252
70
192
10
79.124878
20
-1.600000
30
99.340578
0
VERTEX
8
0
6
CONTINUOUS
62
252
70
192
10
79.340578
20
-1.600000
30
99.124878
0
VERTEX
8
0
6
CONTINUOUS
62
252
70
192
10
79.515544
20
-1.600000
30
98.875000
0
VERTEX
8
0
6
CONTINUOUS
62
252
70
192
10
79.644462
20
-1.600000
30
98.598535
0
VERTEX
8
0
6
CONTINUOUS
62
252
70
192
10
79.723414
20
-1.600000
30
98.303884
0
VERTEX
8
0
6
CONTINUOUS
62
252
70
192
10
79.750000
20
-1.600000
30
0.000000
0
VERTEX
8
0
6
CONTINUOUS
62
252
70
192
10
79.723414
20
-1.600000
30
-0.303884
0
VERTEX
8
0
6
CONTINUOUS
62
252
70
192
10
79.644462
20
-1.600000
30
-0.598535
0
VERTEX
8
0
6
CONTINUOUS
62
252
70
192
10
79.515544
20
-1.600000
30
-0.875000
0
VERTEX
8
0
6
CONTINUOUS
62
252
70
192
10
79.340578
20
-1.600000
30
-1.124878
0
VERTEX
8
0
6
CONTINUOUS
62
252
70
192
10
79.124878
20
-1.600000
30
-1.340578
0
VERTEX
8
0
6
CONTINUOUS
62
252
70
192
10
78.875000
20
-1.600000
30
-1.515544
0
VERTEX
8
0
6
CONTINUOUS
62
252
70
192
10
78.598535
20
-1.600000
30
-1.644462
0
VERTEX
8
0
6
CONTINUOUS
62
252
70
192
10
78.303884
20
-1.600000
30
-1.723414
0
VERTEX
8
0
6
CONTINUOUS
62
252
70
192
10
78.000000
20
-1.600000
30
-1.750000
0
VERTEX
8
0
6
CONTINUOUS
62
252
70
192
10
77.696116
20
-1.600000
30
-1.723414
0
VERTEX
8
0
6
CONTINUOUS
62
252
70
192
10
77.401465
20
-1.600000
30
-1.644462
0
VERTEX
8
0
6
CONTINUOUS
62
252
70
192
10
77.125000
20
-1.600000
30
-1.515544
0
VERTEX
8
0
6
CONTINUOUS
62
252
70
192
10
76.875122
20
-1.600000
30
-1.340578
0
VERTEX
8
0
6
CONTINUOUS
62
252
70
192
10
76.659422
20
-1.600000
30
-1.124878
0
VERTEX
8
0
6
CONTINUOUS
62
252
70
192
10
76.484456
20
-1.600000
30
-0.875000
0
VERTEX
8
0
6
CONTINUOUS
62
252
70
192
10
76.355538
20
-1.600000
30
-0.598535
0
VERTEX
8
0
6
CONTINUOUS
62
252
70
192
10
76.276586
20
-1.600000
30
-0.303884
0
VERTEX
8
0
6
CONTINUOUS
62
252
70
192
10
76.250000
20
-1.600000
30
-0.000000
0
VERTEX
8
0
6
CONTINUOUS
62
252
70
192
10
76.276586
20
-1.600000
30
0.303884
0
VERTEX
8
0
6
CONTINUOUS
62
252
70
192
10
76.355538
20
-1.600000
30
0.598535
0
VERTEX
8
0
6
CONTINUOUS
62
252
70
192
10
76.484456
20
-1.600000
30
0.875000
0
VERTEX
8
0
6
CONTINUOUS
62
252
70
192
10
76.659422
20
-1.600000
30
1.124878
0
VERTEX
8
0
6
CONTINUOUS
62
252
70
192
10
76.875122
20
-1.600000
30
1.340578
0
VERTEX
8
0
6
CONTINUOUS
62
252
70
192
10
77.125000
20
-1.600000
30
1.515544
0
VERTEX
8
0
6
CONTINUOUS
62
252
70
192
10
77.401465
20
-1.600000
30
1.644462
0
VERTEX
8
0
6
CONTINUOUS
62
252
70
192
10
77.696116
20
-1.600000
30
1.723414
0
VERTEX
8
0
6
CONTINUOUS
62
252
70
192
10
78.000000
20
-1.600000
30
1.750000
0
VERTEX
8
0
6
CONTINUOUS
62
252
70
192
10
78.303884
20
-1.600000
30
1.723414
0
VERTEX
8
0
6
CONTINUOUS
62
252
70
192
10
78.598535
20
-1.600000
30
1.644462
0
VERTEX
8
0
6
CONTINUOUS
62
252
70
192
10
78.875000
20
-1.600000
30
1.515544
0
VERTEX
8
0
6
CONTINUOUS
62
252
70
192
10
79.124878
20
-1.600000
30
1.340578
0
VERTEX
8
0
6
CONTINUOUS
62
252
70
192
10
79.340578
20
-1.600000
30
1.124878
0
VERTEX
8
0
6
CONTINUOUS
62
252
70
192
10
79.515544
20
-1.600000
30
0.875000
0
VERTEX
8
0
6
CONTINUOUS
62
252
70
192
10
79.644462
20
-1.600000
30
0.598535
0
VERTEX
8
0
6
CONTINUOUS
62
252
70
192
10
79.723414
20
-1.600000
30
0.303884
0
VERTEX
8
0
6
CONTINUOUS
62
252
70
192
10
59.750000
20
-1.600000
30
98.000000
0
VERTEX
8
0
6
CONTINUOUS
62
252
70
192
10
59.723414
20
-1.600000
30
97.696116
0
VERTEX
8
0
6
CONTINUOUS
62
252
70
192
10
59.644462
20
-1.600000
30
97.401465
0
VERTEX
8
0
6
CONTINUOUS
62
252
70
192
10
59.515544
20
-1.600000
30
97.125000
0
VERTEX
8
0
6
CONTINUOUS
62
252
70
192
10
59.340578
20
-1.600000
30
96.875122
0
VERTEX
8
0
6
CONTINUOUS
62
252
70
192
10
59.124878
20
-1.600000
30
96.659422
0
VERTEX
8
0
6
CONTINUOUS
62
252
70
192
10
58.875000
20
-1.600000
30
96.484456
0
VERTEX
8
0
6
CONTINUOUS
62
252
70
192
10
58.598535
20
-1.600000
30
96.355538
0
VERTEX
8
0
6
CONTINUOUS
62
252
70
192
10
58.303884
20
-1.600000
30
96.276586
0
VERTEX
8
0
6
CONTINUOUS
62
252
70
192
10
58.000000
20
-1.600000
30
96.250000
0
VERTEX
8
0
6
CONTINUOUS
62
252
70
192
10
57.696116
20
-1.600000
30
96.276586
0
VERTEX
8
0
6
CONTINUOUS
62
252
70
192
10
57.401465
20
-1.600000
30
96.355538
0
VERTEX
8
0
6
CONTINUOUS
62
252
70
192
10
57.125000
20
-1.600000
30
96.484456
0
VERTEX
8
0
6
CONTINUOUS
62
252
70
192
10
56.875122
20
-1.600000
30
96.659422
0
VERTEX
8
0
6
CONTINUOUS
62
252
70
192
10
56.659422
20
-1.600000
30
96.875122
0
VERTEX
8
0
6
CONTINUOUS
62
252
70
192
10
56.484456
20
-1.600000
30
97.125000
0
VERTEX
8
0
6
CONTINUOUS
62
252
70
192
10
56.355538
20
-1.600000
30
97.401465
0
VERTEX
8
0
6
CONTINUOUS
62
252
70
192
10
56.276586
20
-1.600000
30
97.696116
0
VERTEX
8
0
6
CONTINUOUS
62
252
70
192
10
56.250000
20
-1.600000
30
98.000000
0
VERTEX
8
0
6
CONTINUOUS
62
252
70
192
10
56.276586
20
-1.600000
30
98.303884
0
VERTEX
8
0
6
CONTINUOUS
62
252
70
192
10
56.355538
20
-1.600000
30
98.598535
0
VERTEX
8
0
6
CONTINUOUS
62
252
70
192
10
56.484456
20
-1.600000
30
98.875000
0
VERTEX
8
0
6
CONTINUOUS
62
252
70
192
10
56.659422
20
-1.600000
30
99.124878
0
VERTEX
8
0
6
CONTINUOUS
62
252
70
192
10
56.875122
20
-1.600000
30
99.340578
0
VERTEX
8
0
6
CONTINUOUS
62
252
70
192
10
57.125000
20
-1.600000
30
99.515544
0
VERTEX
8
0
6
CONTINUOUS
62
252
70
192
10
57.401465
20
-1.600000
30
99.644462
0
VERTEX
8
0
6
CONTINUOUS
62
252
70
192
10
57.696116
20
-1.600000
30
99.723414
0
VERTEX
8
0
6
CONTINUOUS
62
252
70
192
10
58.000000
20
-1.600000
30
99.750000
0
VERTEX
8
0
6
CONTINUOUS
62
252
70
192
10
58.303884
20
-1.600000
30
99.723414
0
VERTEX
8
0
6
CONTINUOUS
62
252
70
192
10
58.598535
20
-1.600000
30
99.644462
0
VERTEX
8
0
6
CONTINUOUS
62
252
70
192
10
58.875000
20
-1.600000
30
99.515544
0
VERTEX
8
0
6
CONTINUOUS
62
252
70
192
10
59.124878
20
-1.600000
30
99.340578
0
VERTEX
8
0
6
CONTINUOUS
62
252
70
192
10
59.340578
20
-1.600000
30
99.124878
0
VERTEX
8
0
6
CONTINUOUS
62
252
70
192
10
59.515544
20
-1.600000
30
98.875000
0
VERTEX
8
0
6
CONTINUOUS
62
252
70
192
10
59.644462
20
-1.600000
30
98.598535
0
VERTEX
8
0
6
CONTINUOUS
62
252
70
192
10
59.723414
20
-1.600000
30
98.303884
0
VERTEX
8
0
6
CONTINUOUS
62
252
70
192
10
59.750000
20
-1.600000
30
0.000000
0
VERTEX
8
0
6
CONTINUOUS
62
252
70
192
10
59.723414
20
-1.600000
30
-0.303884
0
VERTEX
8
0
6
CONTINUOUS
62
252
70
192
10
59.644462
20
-1.600000
30
-0.598535
0
VERTEX
8
0
6
CONTINUOUS
62
252
70
192
10
59.515544
20
-1.600000
30
-0.875000
0
VERTEX
8
0
6
CONTINUOUS
62
252
70
192
10
59.340578
20
-1.600000
30
-1.124878
0
VERTEX
8
0
6
CONTINUOUS
62
252
70
192
10
59.124878
20
-1.600000
30
-1.340578
0
VERTEX
8
0
6
CONTINUOUS
62
252
70
192
10
58.875000
20
-1.600000
30
-1.515544
0
VERTEX
8
0
6
CONTINUOUS
62
252
70
192
10
58.598535
20
-1.600000
30
-1.644462
0
VERTEX
8
0
6
CONTINUOUS
62
252
70
192
10
58.303884
20
-1.600000
30
-1.723414
0
VERTEX
8
0
6
CONTINUOUS
62
252
70
192
10
58.000000
20
-1.600000
30
-1.750000
0
VERTEX
8
0
6
CONTINUOUS
62
252
70
192
10
57.696116
20
-1.600000
30
-1.723414
0
VERTEX
8
0
6
CONTINUOUS
62
252
70
192
10
57.401465
20
-1.600000
30
-1.644462
0
VERTEX
8
0
6
CONTINUOUS
62
252
70
192
10
57.125000
20
-1.600000
30
-1.515544
0
VERTEX
8
0
6
CONTINUOUS
62
252
70
192
10
56.875122
20
-1.600000
30
-1.340578
0
VERTEX
8
0
6
CONTINUOUS
62
252
70
192
10
56.659422
20
-1.600000
30
-1.124878
0
VERTEX
8
0
6
CONTINUOUS
62
252
70
192
10
56.484456
20
-1.600000
30
-0.875000
0
VERTEX
8
0
6
CONTINUOUS
62
252
70
192
10
56.355538
20
-1.600000
30
-0.598535
0
VERTEX
8
0
6
CONTINUOUS
62
252
70
192
10
56.276586
20
-1.600000
30
-0.303884
0
VERTEX
8
0
6
CONTINUOUS
62
252
70
192
10
56.250000
20
-1.600000
30
-0.000000
0
VERTEX
8
0
6
CONTINUOUS
62
252
70
192
10
56.276586
20
-1.600000
30
0.303884
0
VERTEX
8
0
6
CONTINUOUS
62
252
70
192
10
56.355538
20
-1.600000
30
0.598535
0
VERTEX
8
0
6
CONTINUOUS
62
252
70
192
10
56.484456
20
-1.600000
30
0.875000
0
VERTEX
8
0
6
CONTINUOUS
62
252
70
192
10
56.659422
20
-1.600000
30
1.124878
0
VERTEX
8
0
6
CONTINUOUS
62
252
70
192
10
56.875122
20
-1.600000
30
1.340578
0
VERTEX
8
0
6
CONTINUOUS
62
252
70
192
10
57.125000
20
-1.600000
30
1.515544
0
VERTEX
8
0
6
CONTINUOUS
62
252
70
192
10
57.401465
20
-1.600000
30
1.644462
0
VERTEX
8
0
6
CONTINUOUS
62
252
70
192
10
57.696116
20
-1.600000
30
1.723414
0
VERTEX
8
0
6
CONTINUOUS
62
252
70
192
10
58.000000
20
-1.600000
30
1.750000
0
VERTEX
8
0
6
CONTINUOUS
62
252
70
192
10
58.303884
20
-1.600000
30
1.723414
0
VERTEX
8
0
6
CONTINUOUS
62
252
70
192
10
58.598535
20
-1.600000
30
1.644462
0
VERTEX
8
0
6
CONTINUOUS
62
252
70
192
10
58.875000
20
-1.600000
30
1.515544
0
VERTEX
8
0
6
CONTINUOUS
62
252
70
192
10
59.124878
20
-1.600000
30
1.340578
0
VERTEX
8
0
6
CONTINUOUS
62
252
70
192
10
59.340578
20
-1.600000
30
1.124878
0
VERTEX
8
0
6
CONTINUOUS
62
252
70
192
10
59.515544
20
-1.600000
30
0.875000
0
VERTEX
8
0
6
CONTINUOUS
62
252
70
192
10
59.644462
20
-1.600000
30
0.598535
0
VERTEX
8
0
6
CONTINUOUS
62
252
70
192
10
59.723414
20
-1.600000
30
0.303884
0
VERTEX
8
0
6
CONTINUOUS
62
252
70
192
10
1.750000
20
-1.600000
30
98.000000
0
VERTEX
8
0
6
CONTINUOUS
62
252
70
192
10
1.723414
20
-1.600000
30
97.696116
0
VERTEX
8
0
6
CONTINUOUS
62
252
70
192
10
1.644462
20
-1.600000
30
97.401465
0
VERTEX
8
0
6
CONTINUOUS
62
252
70
192
10
1.515544
20
-1.600000
30
97.125000
0
VERTEX
8
0
6
CONTINUOUS
62
252
70
192
10
1.340578
20
-1.600000
30
96.875122
0
VERTEX
8
0
6
CONTINUOUS
62
252
70
192
10
1.124878
20
-1.600000
30
96.659422
0
VERTEX
8
0
6
CONTINUOUS
62
252
70
192
10
0.875000
20
-1.600000
30
96.484456
0
VERTEX
8
0
6
CONTINUOUS
62
252
70
192
10
0.598535
20
-1.600000
30
96.355538
0
VERTEX
8
0
6
CONTINUOUS
62
252
70
192
10
0.303884
20
-1.600000
30
96.276586
0
VERTEX
8
0
6
CONTINUOUS
62
252
70
192
10
0.000000
20
-1.600000
30
96.250000
0
VERTEX
8
0
6
CONTINUOUS
62
252
70
192
10
-0.303884
20
-1.600000
30
96.276586
0
VERTEX
8
0
6
CONTINUOUS
62
252
70
192
10
-0.598535
20
-1.600000
30
96.355538
0
VERTEX
8
0
6
CONTINUOUS
62
252
70
192
10
-0.875000
20
-1.600000
30
96.484456
0
VERTEX
8
0
6
CONTINUOUS
62
252
70
192
10
-1.124878
20
-1.600000
30
96.659422
0
VERTEX
8
0
6
CONTINUOUS
62
252
70
192
10
-1.340578
20
-1.600000
30
96.875122
0
VERTEX
8
0
6
CONTINUOUS
62
252
70
192
10
-1.515544
20
-1.600000
30
97.125000
0
VERTEX
8
0
6
CONTINUOUS
62
252
70
192
10
-1.644462
20
-1.600000
30
97.401465
0
VERTEX
8
0
6
CONTINUOUS
62
252
70
192
10
-1.723414
20
-1.600000
30
97.696116
0
VERTEX
8
0
6
CONTINUOUS
62
252
70
192
10
-1.750000
20
-1.600000
30
98.000000
0
VERTEX
8
0
6
CONTINUOUS
62
252
70
192
10
-1.723414
20
-1.600000
30
98.303884
0
VERTEX
8
0
6
CONTINUOUS
62
252
70
192
10
-1.644462
20
-1.600000
30
98.598535
0
VERTEX
8
0
6
CONTINUOUS
62
252
70
192
10
-1.515544
20
-1.600000
30
98.875000
0
VERTEX
8
0
6
CONTINUOUS
62
252
70
192
10
-1.340578
20
-1.600000
30
99.124878
0
VERTEX
8
0
6
CONTINUOUS
62
252
70
192
10
-1.124878
20
-1.600000
30
99.340578
0
VERTEX
8
0
6
CONTINUOUS
62
252
70
192
10
-0.875000
20
-1.600000
30
99.515544
0
VERTEX
8
0
6
CONTINUOUS
62
252
70
192
10
-0.598535
20
-1.600000
30
99.644462
0
VERTEX
8
0
6
CONTINUOUS
62
252
70
192
10
-0.303884
20
-1.600000
30
99.723414
0
VERTEX
8
0
6
CONTINUOUS
62
252
70
192
10
-0.000000
20
-1.600000
30
99.750000
0
VERTEX
8
0
6
CONTINUOUS
62
252
70
192
10
0.303884
20
-1.600000
30
99.723414
0
VERTEX
8
0
6
CONTINUOUS
62
252
70
192
10
0.598535
20
-1.600000
30
99.644462
0
VERTEX
8
0
6
CONTINUOUS
62
252
70
192
10
0.875000
20
-1.600000
30
99.515544
0
VERTEX
8
0
6
CONTINUOUS
62
252
70
192
10
1.124878
20
-1.600000
30
99.340578
0
VERTEX
8
0
6
CONTINUOUS
62
252
70
192
10
1.340578
20
-1.600000
30
99.124878
0
VERTEX
8
0
6
CONTINUOUS
62
252
70
192
10
1.515544
20
-1.600000
30
98.875000
0
VERTEX
8
0
6
CONTINUOUS
62
252
70
192
10
1.644462
20
-1.600000
30
98.598535
0
VERTEX
8
0
6
CONTINUOUS
62
252
70
192
10
1.723414
20
-1.600000
30
98.303884
0
VERTEX
8
0
6
CONTINUOUS
62
252
70
192
10
1.750000
20
-1.600000
30
0.000000
0
VERTEX
8
0
6
CONTINUOUS
62
252
70
192
10
1.723414
20
-1.600000
30
-0.303884
0
VERTEX
8
0
6
CONTINUOUS
62
252
70
192
10
1.644462
20
-1.600000
30
-0.598535
0
VERTEX
8
0
6
CONTINUOUS
62
252
70
192
10
1.515544
20
-1.600000
30
-0.875000
0
VERTEX
8
0
6
CONTINUOUS
62
252
70
192
10
1.340578
20
-1.600000
30
-1.124878
0
VERTEX
8
0
6
CONTINUOUS
62
252
70
192
10
1.124878
20
-1.600000
30
-1.340578
0
VERTEX
8
0
6
CONTINUOUS
62
252
70
192
10
0.875000
20
-1.600000
30
-1.515544
0
VERTEX
8
0
6
CONTINUOUS
62
252
70
192
10
0.598535
20
-1.600000
30
-1.644462
0
VERTEX
8
0
6
CONTINUOUS
62
252
70
192
10
0.303884
20
-1.600000
30
-1.723414
0
VERTEX
8
0
6
CONTINUOUS
62
252
70
192
10
0.000000
20
-1.600000
30
-1.750000
0
VERTEX
8
0
6
CONTINUOUS
62
252
70
192
10
-0.303884
20
-1.600000
30
-1.723414
0
VERTEX
8
0
6
CONTINUOUS
62
252
70
192
10
-0.598535
20
-1.600000
30
-1.644462
0
VERTEX
8
0
6
CONTINUOUS
62
252
70
192
10
-0.875000
20
-1.600000
30
-1.515544
0
VERTEX
8
0
6
CONTINUOUS
62
252
70
192
10
-1.124878
20
-1.600000
30
-1.340578
0
VERTEX
8
0
6
CONTINUOUS
62
252
70
192
10
-1.340578
20
-1.600000
30
-1.124878
0
VERTEX
8
0
6
CONTINUOUS
62
252
70
192
10
-1.515544
20
-1.600000
30
-0.875000
0
VERTEX
8
0
6
CONTINUOUS
62
252
70
192
10
-1.644462
20
-1.600000
30
-0.598535
0
VERTEX
8
0
6
CONTINUOUS
62
252
70
192
10
-1.723414
20
-1.600000
30
-0.303884
0
VERTEX
8
0
6
CONTINUOUS
62
252
70
192
10
-1.750000
20
-1.600000
30
-0.000000
0
VERTEX
8
0
6
CONTINUOUS
62
252
70
192
10
-1.723414
20
-1.600000
30
0.303884
0
VERTEX
8
0
6
CONTINUOUS
62
252
70
192
10
-1.644462
20
-1.600000
30
0.598535
0
VERTEX
8
0
6
CONTINUOUS
62
252
70
192
10
-1.515544
20
-1.600000
30
0.875000
0
VERTEX
8
0
6
CONTINUOUS
62
252
70
192
10
-1.340578
20
-1.600000
30
1.124878
0
VERTEX
8
0
6
CONTINUOUS
62
252
70
192
10
-1.124878
20
-1.600000
30
1.340578
0
VERTEX
8
0
6
CONTINUOUS
62
252
70
192
10
-0.875000
20
-1.600000
30
1.515544
0
VERTEX
8
0
6
CONTINUOUS
62
252
70
192
10
-0.598535
20
-1.600000
30
1.644462
0
VERTEX
8
0
6
CONTINUOUS
62
252
70
192
10
-0.303884
20
-1.600000
30
1.723414
0
VERTEX
8
0
6
CONTINUOUS
62
252
70
192
10
-0.000000
20
-1.600000
30
1.750000
0
VERTEX
8
0
6
CONTINUOUS
62
252
70
192
10
0.303884
20
-1.600000
30
1.723414
0
VERTEX
8
0
6
CONTINUOUS
62
252
70
192
10
0.598535
20
-1.600000
30
1.644462
0
VERTEX
8
0
6
CONTINUOUS
62
252
70
192
10
0.875000
20
-1.600000
30
1.515544
0
VERTEX
8
0
6
CONTINUOUS
62
252
70
192
10
1.124878
20
-1.600000
30
1.340578
0
VERTEX
8
0
6
CONTINUOUS
62
252
70
192
10
1.340578
20
-1.600000
30
1.124878
0
VERTEX
8
0
6
CONTINUOUS
62
252
70
192
10
1.515544
20
-1.600000
30
0.875000
0
VERTEX
8
0
6
CONTINUOUS
62
252
70
192
10
1.644462
20
-1.600000
30
0.598535
0
VERTEX
8
0
6
CONTINUOUS
62
252
70
192
10
1.723414
20
-1.600000
30
0.303884
0
VERTEX
8
0
6
CONTINUOUS
62
252
70
192
10
-3.500000
20
-1.600000
30
51.150000
0
VERTEX
8
0
6
CONTINUOUS
62
252
70
192
10
-0.700000
20
-1.600000
30
51.150000
0
VERTEX
8
0
6
CONTINUOUS
62
252
70
192
10
-0.700000
20
-1.600000
30
23.850000
0
VERTEX
8
0
6
CONTINUOUS
62
252
70
192
10
-3.500000
20
-1.600000
30
23.850000
0
VERTEX
8
0
6
CONTINUOUS
62
252
70
192
10
-3.500000
20
-1.600000
30
-3.500000
0
VERTEX
8
0
6
CONTINUOUS
62
252
70
192
10
81.500000
20
-1.600000
30
-3.500000
0
VERTEX
8
0
6
CONTINUOUS
62
252
70
192
10
81.500000
20
-1.600000
30
101.500000
0
VERTEX
8
0
6
CONTINUOUS
62
252
70
192
10
-3.500000
20
-1.600000
30
101.500000
0
VERTEX
8
0
6
CONTINUOUS
62
252
70
128
10
0.000000
20
0.000000
30
0.000000
71
2
72
268
73
1
0
VERTEX
8
0
6
CONTINUOUS
62
252
70
128
10
0.000000
20
0.000000
30
0.000000
71
1
72
268
73
269
0
VERTEX
8
0
6
CONTINUOUS
62
252
70
128
10
0.000000
20
0.000000
30
0.000000
71
1
72
269
73
248
0
VERTEX
8
0
6
CONTINUOUS
62
252
70
128
10
0.000000
20
0.000000
30
0.000000
71
248
72
269
73
247
0
VERTEX
8
0
6
CONTINUOUS
62
252
70
128
10
0.000000
20
0.000000
30
0.000000
71
247
72
269
73
246
0
VERTEX
8
0
6
CONTINUOUS
62
252
70
128
10
0.000000
20
0.000000
30
0.000000
71
246
72
269
73
245
0
VERTEX
8
0
6
CONTINUOUS
62
252
70
128
10
0.000000
20
0.000000
30
0.000000
71
245
72
269
73
244
0
VERTEX
8
0
6
CONTINUOUS
62
252
70
128
10
0.000000
20
0.000000
30
0.000000
71
244
72
269
73
243
0
VERTEX
8
0
6
CONTINUOUS
62
252
70
128
10
0.000000
20
0.000000
30
0.000000
71
243
72
269
73
242
0
VERTEX
8
0
6
CONTINUOUS
62
252
70
128
10
0.000000
20
0.000000
30
0.000000
71
242
72
269
73
241
0
VERTEX
8
0
6
CONTINUOUS
62
252
70
128
10
0.000000
20
0.000000
30
0.000000
71
241
72
269
73
240
0
VERTEX
8
0
6
CONTINUOUS
62
252
70
128
10
0.000000
20
0.000000
30
0.000000
71
240
72
269
73
239
0
VERTEX
8
0
6
CONTINUOUS
62
252
70
128
10
0.000000
20
0.000000
30
0.000000
71
239
72
269
73
238
0
VERTEX
8
0
6
CONTINUOUS
62
252
70
128
10
0.000000
20
0.000000
30
0.000000
71
238
72
269
73
237
0
VERTEX
8
0
6
CONTINUOUS
62
252
70
128
10
0.000000
20
0.000000
30
0.000000
71
237
72
269
73
236
0
VERTEX
8
0
6
CONTINUOUS
62
252
70
128
10
0.000000
20
0.000000
30
0.000000
71
236
72
269
73
168
0
VERTEX
8
0
6
CONTINUOUS
62
252
70
128
10
0.000000
20
0.000000
30
0.000000
71
236
72
168
73
169
0
VERTEX
8
0
6
CONTINUOUS
62
252
70
128
10
0.000000
20
0.000000
30
0.000000
71
268
72
2
73
267
0
VERTEX
8
0
6
CONTINUOUS
62
252
70
128
10
0.000000
20
0.000000
30
0.000000
71
267
72
2
73
3
0
VERTEX
8
0
6
CONTINUOUS
62
252
70
128
10
0.000000
20
0.000000
30
0.000000
71
267
72
3
73
266
0
VERTEX
8
0
6
CONTINUOUS
62
252
70
128
10
0.000000
20
0.000000
30
0.000000
71
266
72
3
73
16
0
VERTEX
8
0
6
CONTINUOUS
62
252
70
128
10
0.000000
20
0.000000
30
0.000000
71
266
72
16
73
17
0
VERTEX
8
0
6
CONTINUOUS
62
252
70
128
10
0.000000
20
0.000000
30
0.000000
71
4
72
177
73
3
0
VERTEX
8
0
6
CONTINUOUS
62
252
70
128
10
0.000000
20
0.000000
30
0.000000
71
3
72
177
73
178
0
VERTEX
8
0
6
CONTINUOUS
62
252
70
128
10
0.000000
20
0.000000
30
0.000000
71
3
72
178
73
179
0
VERTEX
8
0
6
CONTINUOUS
62
252
70
128
10
0.000000
20
0.000000
30
0.000000
71
1
72
258
73
4
0
VERTEX
8
0
6
CONTINUOUS
62
252
70
128
10
0.000000
20
0.000000
30
0.000000
71
4
72
258
73
259
0
VERTEX
8
0
6
CONTINUOUS
62
252
70
128
10
0.000000
20
0.000000
30
0.000000
71
4
72
259
73
260
0
VERTEX
8
0
6
CONTINUOUS
62
252
70
128
10
0.000000
20
0.000000
30
0.000000
71
6
72
11
73
5
0
VERTEX
8
0
6
CONTINUOUS
62
252
70
128
10
0.000000
20
0.000000
30
0.000000
71
5
72
11
73
12
0
VERTEX
8
0
6
CONTINUOUS
62
252
70
128
10
0.000000
20
0.000000
30
0.000000
71
5
72
12
73
136
0
VERTEX
8
0
6
CONTINUOUS
62
252
70
128
10
0.000000
20
0.000000
30
0.000000
71
136
72
12
73
135
0
VERTEX
8
0
6
CONTINUOUS
62
252
70
128
10
0.000000
20
0.000000
30
0.000000
71
135
72
12
73
9
0
VERTEX
8
0
6
CONTINUOUS
62
252
70
128
10
0.000000
20
0.000000
30
0.000000
71
135
72
9
73
134
0
VERTEX
8
0
6
CONTINUOUS
62
252
70
128
10
0.000000
20
0.000000
30
0.000000
71
134
72
9
73
133
0
VERTEX
8
0
6
CONTINUOUS
62
252
70
128
10
0.000000
20
0.000000
30
0.000000
71
133
72
9
73
132
0
VERTEX
8
0
6
CONTINUOUS
62
252
70
128
10
0.000000
20
0.000000
30
0.000000
71
132
72
9
73
182
0
VERTEX
8
0
6
CONTINUOUS
62
252
70
128
10
0.000000
20
0.000000
30
0.000000
71
132
72
182
73
131
0
VERTEX
8
0
6
CONTINUOUS
62
252
70
128
10
0.000000
20
0.000000
30
0.000000
71
131
72
182
73
183
0
VERTEX
8
0
6
CONTINUOUS
62
252
70
128
10
0.000000
20
0.000000
30
0.000000
71
131
72
183
73
130
0
VERTEX
8
0
6
CONTINUOUS
62
252
70
128
10
0.000000
20
0.000000
30
0.000000
71
130
72
183
73
184
0
VERTEX
8
0
6
CONTINUOUS
62
252
70
128
10
0.000000
20
0.000000
30
0.000000
71
130
72
184
73
129
0
VERTEX
8
0
6
CONTINUOUS
62
252
70
128
10
0.000000
20
0.000000
30
0.000000
71
129
72
184
73
185
0
VERTEX
8
0
6
CONTINUOUS
62
252
70
128
10
0.000000
20
0.000000
30
0.000000
71
129
72
185
73
128
0
VERTEX
8
0
6
CONTINUOUS
62
252
70
128
10
0.000000
20
0.000000
30
0.000000
71
128
72
185
73
186
0
VERTEX
8
0
6
CONTINUOUS
62
252
70
128
10
0.000000
20
0.000000
30
0.000000
71
128
72
186
73
60
0
VERTEX
8
0
6
CONTINUOUS
62
252
70
128
10
0.000000
20
0.000000
30
0.000000
71
60
72
186
73
110
0
VERTEX
8
0
6
CONTINUOUS
62
252
70
128
10
0.000000
20
0.000000
30
0.000000
71
60
72
110
73
59
0
VERTEX
8
0
6
CONTINUOUS
62
252
70
128
10
0.000000
20
0.000000
30
0.000000
71
59
72
110
73
111
0
VERTEX
8
0
6
CONTINUOUS
62
252
70
128
10
0.000000
20
0.000000
30
0.000000
71
59
72
111
73
58
0
VERTEX
8
0
6
CONTINUOUS
62
252
70
128
10
0.000000
20
0.000000
30
0.000000
71
58
72
111
73
112
0
VERTEX
8
0
6
CONTINUOUS
62
252
70
128
10
0.000000
20
0.000000
30
0.000000
71
58
72
112
73
57
0
VERTEX
8
0
6
CONTINUOUS
62
252
70
128
10
0.000000
20
0.000000
30
0.000000
71
57
72
112
73
113
0
VERTEX
8
0
6
CONTINUOUS
62
252
70
128
10
0.000000
20
0.000000
30
0.000000
71
57
72
113
73
56
0
VERTEX
8
0
6
CONTINUOUS
62
252
70
128
10
0.000000
20
0.000000
30
0.000000
71
56
72
113
73
114
0
VERTEX
8
0
6
CONTINUOUS
62
252
70
128
10
0.000000
20
0.000000
30
0.000000
71
56
72
114
73
55
0
VERTEX
8
0
6
CONTINUOUS
62
252
70
128
10
0.000000
20
0.000000
30
0.000000
71
55
72
114
73
115
0
VERTEX
8
0
6
CONTINUOUS
62
252
70
128
10
0.000000
20
0.000000
30
0.000000
71
55
72
115
73
54
0
VERTEX
8
0
6
CONTINUOUS
62
252
70
128
10
0.000000
20
0.000000
30
0.000000
71
54
72
115
73
116
0
VERTEX
8
0
6
CONTINUOUS
62
252
70
128
10
0.000000
20
0.000000
30
0.000000
71
54
72
116
73
117
0
VERTEX
8
0
6
CONTINUOUS
62
252
70
128
10
0.000000
20
0.000000
30
0.000000
71
11
72
6
73
272
0
VERTEX
8
0
6
CONTINUOUS
62
252
70
128
10
0.000000
20
0.000000
30
0.000000
71
272
72
6
73
7
0
VERTEX
8
0
6
CONTINUOUS
62
252
70
128
10
0.000000
20
0.000000
30
0.000000
71
272
72
7
73
210
0
VERTEX
8
0
6
CONTINUOUS
62
252
70
128
10
0.000000
20
0.000000
30
0.000000
71
210
72
7
73
209
0
VERTEX
8
0
6
CONTINUOUS
62
252
70
128
10
0.000000
20
0.000000
30
0.000000
71
209
72
7
73
208
0
VERTEX
8
0
6
CONTINUOUS
62
252
70
128
10
0.000000
20
0.000000
30
0.000000
71
208
72
7
73
207
0
VERTEX
8
0
6
CONTINUOUS
62
252
70
128
10
0.000000
20
0.000000
30
0.000000
71
207
72
7
73
206
0
VERTEX
8
0
6
CONTINUOUS
62
252
70
128
10
0.000000
20
0.000000
30
0.000000
71
206
72
7
73
205
0
VERTEX
8
0
6
CONTINUOUS
62
252
70
128
10
0.000000
20
0.000000
30
0.000000
71
205
72
7
73
204
0
VERTEX
8
0
6
CONTINUOUS
62
252
70
128
10
0.000000
20
0.000000
30
0.000000
71
204
72
7
73
203
0
VERTEX
8
0
6
CONTINUOUS
62
252
70
128
10
0.000000
20
0.000000
30
0.000000
71
203
72
7
73
202
0
VERTEX
8
0
6
CONTINUOUS
62
252
70
128
10
0.000000
20
0.000000
30
0.000000
71
202
72
7
73
201
0
VERTEX
8
0
6
CONTINUOUS
62
252
70
128
10
0.000000
20
0.000000
30
0.000000
71
201
72
7
73
200
0
VERTEX
8
0
6
CONTINUOUS
62
252
70
128
10
0.000000
20
0.000000
30
0.000000
71
200
72
7
73
8
0
VERTEX
8
0
6
CONTINUOUS
62
252
70
128
10
0.000000
20
0.000000
30
0.000000
71
200
72
8
73
199
0
VERTEX
8
0
6
CONTINUOUS
62
252
70
128
10
0.000000
20
0.000000
30
0.000000
71
199
72
8
73
198
0
VERTEX
8
0
6
CONTINUOUS
62
252
70
128
10
0.000000
20
0.000000
30
0.000000
71
198
72
8
73
197
0
VERTEX
8
0
6
CONTINUOUS
62
252
70
128
10
0.000000
20
0.000000
30
0.000000
71
197
72
8
73
196
0
VERTEX
8
0
6
CONTINUOUS
62
252
70
128
10
0.000000
20
0.000000
30
0.000000
71
196
72
8
73
195
0
VERTEX
8
0
6
CONTINUOUS
62
252
70
128
10
0.000000
20
0.000000
30
0.000000
71
195
72
8
73
194
0
VERTEX
8
0
6
CONTINUOUS
62
252
70
128
10
0.000000
20
0.000000
30
0.000000
71
194
72
8
73
193
0
VERTEX
8
0
6
CONTINUOUS
62
252
70
128
10
0.000000
20
0.000000
30
0.000000
71
193
72
8
73
228
0
VERTEX
8
0
6
CONTINUOUS
62
252
70
128
10
0.000000
20
0.000000
30
0.000000
71
228
72
8
73
227
0
VERTEX
8
0
6
CONTINUOUS
62
252
70
128
10
0.000000
20
0.000000
30
0.000000
71
227
72
8
73
141
0
VERTEX
8
0
6
CONTINUOUS
62
252
70
128
10
0.000000
20
0.000000
30
0.000000
71
227
72
141
73
226
0
VERTEX
8
0
6
CONTINUOUS
62
252
70
128
10
0.000000
20
0.000000
30
0.000000
71
226
72
141
73
142
0
VERTEX
8
0
6
CONTINUOUS
62
252
70
128
10
0.000000
20
0.000000
30
0.000000
71
226
72
142
73
225
0
VERTEX
8
0
6
CONTINUOUS
62
252
70
128
10
0.000000
20
0.000000
30
0.000000
71
225
72
142
73
143
0
VERTEX
8
0
6
CONTINUOUS
62
252
70
128
10
0.000000
20
0.000000
30
0.000000
71
225
72
143
73
224
0
VERTEX
8
0
6
CONTINUOUS
62
252
70
128
10
0.000000
20
0.000000
30
0.000000
71
224
72
143
73
144
0
VERTEX
8
0
6
CONTINUOUS
62
252
70
128
10
0.000000
20
0.000000
30
0.000000
71
224
72
144
73
223
0
VERTEX
8
0
6
CONTINUOUS
62
252
70
128
10
0.000000
20
0.000000
30
0.000000
71
223
72
144
73
145
0
VERTEX
8
0
6
CONTINUOUS
62
252
70
128
10
0.000000
20
0.000000
30
0.000000
71
223
72
145
73
222
0
VERTEX
8
0
6
CONTINUOUS
62
252
70
128
10
0.000000
20
0.000000
30
0.000000
71
222
72
145
73
146
0
VERTEX
8
0
6
CONTINUOUS
62
252
70
128
10
0.000000
20
0.000000
30
0.000000
71
222
72
146
73
272
0
VERTEX
8
0
6
CONTINUOUS
62
252
70
128
10
0.000000
20
0.000000
30
0.000000
71
272
72
146
73
147
0
VERTEX
8
0
6
CONTINUOUS
62
252
70
128
10
0.000000
20
0.000000
30
0.000000
71
272
72
147
73
148
0
VERTEX
8
0
6
CONTINUOUS
62
252
70
128
10
0.000000
20
0.000000
30
0.000000
71
5
72
138
73
8
0
VERTEX
8
0
6
CONTINUOUS
62
252
70
128
10
0.000000
20
0.000000
30
0.000000
71
8
72
138
73
139
0
VERTEX
8
0
6
CONTINUOUS
62
252
70
128
10
0.000000
20
0.000000
30
0.000000
71
8
72
139
73
140
0
VERTEX
8
0
6
CONTINUOUS
62
252
70
128
10
0.000000
20
0.000000
30
0.000000
71
10
72
41
73
9
0
VERTEX
8
0
6
CONTINUOUS
62
252
70
128
10
0.000000
20
0.000000
30
0.000000
71
9
72
41
73
42
0
VERTEX
8
0
6
CONTINUOUS
62
252
70
128
10
0.000000
20
0.000000
30
0.000000
71
9
72
42
73
43
0
VERTEX
8
0
6
CONTINUOUS
62
252
70
128
10
0.000000
20
0.000000
30
0.000000
71
11
72
265
73
10
0
VERTEX
8
0
6
CONTINUOUS
62
252
70
128
10
0.000000
20
0.000000
30
0.000000
71
10
72
265
73
31
0
VERTEX
8
0
6
CONTINUOUS
62
252
70
128
10
0.000000
20
0.000000
30
0.000000
71
10
72
31
73
32
0
VERTEX
8
0
6
CONTINUOUS
62
252
70
128
10
0.000000
20
0.000000
30
0.000000
71
48
72
13
73
9
0
VERTEX
8
0
6
CONTINUOUS
62
252
70
128
10
0.000000
20
0.000000
30
0.000000
71
9
72
13
73
14
0
VERTEX
8
0
6
CONTINUOUS
62
252
70
128
10
0.000000
20
0.000000
30
0.000000
71
9
72
14
73
15
0
VERTEX
8
0
6
CONTINUOUS
62
252
70
128
10
0.000000
20
0.000000
30
0.000000
71
9
72
15
73
3
0
VERTEX
8
0
6
CONTINUOUS
62
252
70
128
10
0.000000
20
0.000000
30
0.000000
71
3
72
15
73
16
0
VERTEX
8
0
6
CONTINUOUS
62
252
70
128
10
0.000000
20
0.000000
30
0.000000
71
17
72
18
73
266
0
VERTEX
8
0
6
CONTINUOUS
62
252
70
128
10
0.000000
20
0.000000
30
0.000000
71
266
72
18
73
19
0
VERTEX
8
0
6
CONTINUOUS
62
252
70
128
10
0.000000
20
0.000000
30
0.000000
71
266
72
19
73
20
0
VERTEX
8
0
6
CONTINUOUS
62
252
70
128
10
0.000000
20
0.000000
30
0.000000
71
20
72
21
73
266
0
VERTEX
8
0
6
CONTINUOUS
62
252
70
128
10
0.000000
20
0.000000
30
0.000000
71
266
72
21
73
22
0
VERTEX
8
0
6
CONTINUOUS
62
252
70
128
10
0.000000
20
0.000000
30
0.000000
71
266
72
22
73
23
0
VERTEX
8
0
6
CONTINUOUS
62
252
70
128
10
0.000000
20
0.000000
30
0.000000
71
23
72
24
73
266
0
VERTEX
8
0
6
CONTINUOUS
62
252
70
128
10
0.000000
20
0.000000
30
0.000000
71
266
72
24
73
25
0
VERTEX
8
0
6
CONTINUOUS
62
252
70
128
10
0.000000
20
0.000000
30
0.000000
71
266
72
25
73
26
0
VERTEX
8
0
6
CONTINUOUS
62
252
70
128
10
0.000000
20
0.000000
30
0.000000
71
266
72
26
73
265
0
VERTEX
8
0
6
CONTINUOUS
62
252
70
128
10
0.000000
20
0.000000
30
0.000000
71
265
72
26
73
27
0
VERTEX
8
0
6
CONTINUOUS
62
252
70
128
10
0.000000
20
0.000000
30
0.000000
71
265
72
27
73
28
0
VERTEX
8
0
6
CONTINUOUS
62
252
70
128
10
0.000000
20
0.000000
30
0.000000
71
28
72
29
73
265
0
VERTEX
8
0
6
CONTINUOUS
62
252
70
128
10
0.000000
20
0.000000
30
0.000000
71
265
72
29
73
30
0
VERTEX
8
0
6
CONTINUOUS
62
252
70
128
10
0.000000
20
0.000000
30
0.000000
71
265
72
30
73
31
0
VERTEX
8
0
6
CONTINUOUS
62
252
70
128
10
0.000000
20
0.000000
30
0.000000
71
32
72
33
73
10
0
VERTEX
8
0
6
CONTINUOUS
62
252
70
128
10
0.000000
20
0.000000
30
0.000000
71
10
72
33
73
34
0
VERTEX
8
0
6
CONTINUOUS
62
252
70
128
10
0.000000
20
0.000000
30
0.000000
71
10
72
34
73
35
0
VERTEX
8
0
6
CONTINUOUS
62
252
70
128
10
0.000000
20
0.000000
30
0.000000
71
35
72
36
73
10
0
VERTEX
8
0
6
CONTINUOUS
62
252
70
128
10
0.000000
20
0.000000
30
0.000000
71
10
72
36
73
37
0
VERTEX
8
0
6
CONTINUOUS
62
252
70
128
10
0.000000
20
0.000000
30
0.000000
71
10
72
37
73
38
0
VERTEX
8
0
6
CONTINUOUS
62
252
70
128
10
0.000000
20
0.000000
30
0.000000
71
38
72
39
73
10
0
VERTEX
8
0
6
CONTINUOUS
62
252
70
128
10
0.000000
20
0.000000
30
0.000000
71
10
72
39
73
40
0
VERTEX
8
0
6
CONTINUOUS
62
252
70
128
10
0.000000
20
0.000000
30
0.000000
71
10
72
40
73
41
0
VERTEX
8
0
6
CONTINUOUS
62
252
70
128
10
0.000000
20
0.000000
30
0.000000
71
43
72
44
73
9
0
VERTEX
8
0
6
CONTINUOUS
62
252
70
128
10
0.000000
20
0.000000
30
0.000000
71
9
72
44
73
45
0
VERTEX
8
0
6
CONTINUOUS
62
252
70
128
10
0.000000
20
0.000000
30
0.000000
71
9
72
45
73
46
0
VERTEX
8
0
6
CONTINUOUS
62
252
70
128
10
0.000000
20
0.000000
30
0.000000
71
46
72
47
73
9
0
VERTEX
8
0
6
CONTINUOUS
62
252
70
128
10
0.000000
20
0.000000
30
0.000000
71
9
72
47
73
48
0
VERTEX
8
0
6
CONTINUOUS
62
252
70
128
10
0.000000
20
0.000000
30
0.000000
71
84
72
49
73
271
0
VERTEX
8
0
6
CONTINUOUS
62
252
70
128
10
0.000000
20
0.000000
30
0.000000
71
271
72
49
73
50
0
VERTEX
8
0
6
CONTINUOUS
62
252
70
128
10
0.000000
20
0.000000
30
0.000000
71
271
72
50
73
51
0
VERTEX
8
0
6
CONTINUOUS
62
252
70
128
10
0.000000
20
0.000000
30
0.000000
71
52
72
118
73
51
0
VERTEX
8
0
6
CONTINUOUS
62
252
70
128
10
0.000000
20
0.000000
30
0.000000
71
51
72
118
73
119
0
VERTEX
8
0
6
CONTINUOUS
62
252
70
128
10
0.000000
20
0.000000
30
0.000000
71
51
72
119
73
271
0
VERTEX
8
0
6
CONTINUOUS
62
252
70
128
10
0.000000
20
0.000000
30
0.000000
71
271
72
119
73
270
0
VERTEX
8
0
6
CONTINUOUS
62
252
70
128
10
0.000000
20
0.000000
30
0.000000
71
270
72
119
73
120
0
VERTEX
8
0
6
CONTINUOUS
62
252
70
128
10
0.000000
20
0.000000
30
0.000000
71
270
72
120
73
85
0
VERTEX
8
0
6
CONTINUOUS
62
252
70
128
10
0.000000
20
0.000000
30
0.000000
71
118
72
52
73
117
0
VERTEX
8
0
6
CONTINUOUS
62
252
70
128
10
0.000000
20
0.000000
30
0.000000
71
117
72
52
73
53
0
VERTEX
8
0
6
CONTINUOUS
62
252
70
128
10
0.000000
20
0.000000
30
0.000000
71
117
72
53
73
54
0
VERTEX
8
0
6
CONTINUOUS
62
252
70
128
10
0.000000
20
0.000000
30
0.000000
71
60
72
61
73
128
0
VERTEX
8
0
6
CONTINUOUS
62
252
70
128
10
0.000000
20
0.000000
30
0.000000
71
128
72
61
73
127
0
VERTEX
8
0
6
CONTINUOUS
62
252
70
128
10
0.000000
20
0.000000
30
0.000000
71
127
72
61
73
126
0
VERTEX
8
0
6
CONTINUOUS
62
252
70
128
10
0.000000
20
0.000000
30
0.000000
71
126
72
61
73
62
0
VERTEX
8
0
6
CONTINUOUS
62
252
70
128
10
0.000000
20
0.000000
30
0.000000
71
126
72
62
73
63
0
VERTEX
8
0
6
CONTINUOUS
62
252
70
128
10
0.000000
20
0.000000
30
0.000000
71
64
72
124
73
63
0
VERTEX
8
0
6
CONTINUOUS
62
252
70
128
10
0.000000
20
0.000000
30
0.000000
71
63
72
124
73
125
0
VERTEX
8
0
6
CONTINUOUS
62
252
70
128
10
0.000000
20
0.000000
30
0.000000
71
63
72
125
73
126
0
VERTEX
8
0
6
CONTINUOUS
62
252
70
128
10
0.000000
20
0.000000
30
0.000000
71
64
72
65
73
124
0
VERTEX
8
0
6
CONTINUOUS
62
252
70
128
10
0.000000
20
0.000000
30
0.000000
71
124
72
65
73
123
0
VERTEX
8
0
6
CONTINUOUS
62
252
70
128
10
0.000000
20
0.000000
30
0.000000
71
123
72
65
73
122
0
VERTEX
8
0
6
CONTINUOUS
62
252
70
128
10
0.000000
20
0.000000
30
0.000000
71
122
72
65
73
66
0
VERTEX
8
0
6
CONTINUOUS
62
252
70
128
10
0.000000
20
0.000000
30
0.000000
71
122
72
66
73
67
0
VERTEX
8
0
6
CONTINUOUS
62
252
70
128
10
0.000000
20
0.000000
30
0.000000
71
68
72
156
73
67
0
VERTEX
8
0
6
CONTINUOUS
62
252
70
128
10
0.000000
20
0.000000
30
0.000000
71
67
72
156
73
121
0
VERTEX
8
0
6
CONTINUOUS
62
252
70
128
10
0.000000
20
0.000000
30
0.000000
71
67
72
121
73
122
0
VERTEX
8
0
6
CONTINUOUS
62
252
70
128
10
0.000000
20
0.000000
30
0.000000
71
68
72
69
73
156
0
VERTEX
8
0
6
CONTINUOUS
62
252
70
128
10
0.000000
20
0.000000
30
0.000000
71
156
72
69
73
155
0
VERTEX
8
0
6
CONTINUOUS
62
252
70
128
10
0.000000
20
0.000000
30
0.000000
71
155
72
69
73
154
0
VERTEX
8
0
6
CONTINUOUS
62
252
70
128
10
0.000000
20
0.000000
30
0.000000
71
154
72
69
73
70
0
VERTEX
8
0
6
CONTINUOUS
62
252
70
128
10
0.000000
20
0.000000
30
0.000000
71
154
72
70
73
71
0
VERTEX
8
0
6
CONTINUOUS
62
252
70
128
10
0.000000
20
0.000000
30
0.000000
71
72
72
152
73
71
0
VERTEX
8
0
6
CONTINUOUS
62
252
70
128
10
0.000000
20
0.000000
30
0.000000
71
71
72
152
73
153
0
VERTEX
8
0
6
CONTINUOUS
62
252
70
128
10
0.000000
20
0.000000
30
0.000000
71
71
72
153
73
154
0
VERTEX
8
0
6
CONTINUOUS
62
252
70
128
10
0.000000
20
0.000000
30
0.000000
71
72
72
73
73
152
0
VERTEX
8
0
6
CONTINUOUS
62
252
70
128
10
0.000000
20
0.000000
30
0.000000
71
152
72
73
73
151
0
VERTEX
8
0
6
CONTINUOUS
62
252
70
128
10
0.000000
20
0.000000
30
0.000000
71
151
72
73
73
150
0
VERTEX
8
0
6
CONTINUOUS
62
252
70
128
10
0.000000
20
0.000000
30
0.000000
71
150
72
73
73
74
0
VERTEX
8
0
6
CONTINUOUS
62
252
70
128
10
0.000000
20
0.000000
30
0.000000
71
150
72
74
73
271
0
VERTEX
8
0
6
CONTINUOUS
62
252
70
128
10
0.000000
20
0.000000
30
0.000000
71
271
72
74
73
75
0
VERTEX
8
0
6
CONTINUOUS
62
252
70
128
10
0.000000
20
0.000000
30
0.000000
71
271
72
75
73
76
0
VERTEX
8
0
6
CONTINUOUS
62
252
70
128
10
0.000000
20
0.000000
30
0.000000
71
76
72
77
73
271
0
VERTEX
8
0
6
CONTINUOUS
62
252
70
128
10
0.000000
20
0.000000
30
0.000000
71
271
72
77
73
78
0
VERTEX
8
0
6
CONTINUOUS
62
252
70
128
10
0.000000
20
0.000000
30
0.000000
71
271
72
78
73
79
0
VERTEX
8
0
6
CONTINUOUS
62
252
70
128
10
0.000000
20
0.000000
30
0.000000
71
79
72
80
73
271
0
VERTEX
8
0
6
CONTINUOUS
62
252
70
128
10
0.000000
20
0.000000
30
0.000000
71
271
72
80
73
81
0
VERTEX
8
0
6
CONTINUOUS
62
252
70
128
10
0.000000
20
0.000000
30
0.000000
71
271
72
81
73
82
0
VERTEX
8
0
6
CONTINUOUS
62
252
70
128
10
0.000000
20
0.000000
30
0.000000
71
82
72
83
73
271
0
VERTEX
8
0
6
CONTINUOUS
62
252
70
128
10
0.000000
20
0.000000
30
0.000000
71
271
72
83
73
84
0
VERTEX
8
0
6
CONTINUOUS
62
252
70
128
10
0.000000
20
0.000000
30
0.000000
71
85
72
86
73
270
0
VERTEX
8
0
6
CONTINUOUS
62
252
70
128
10
0.000000
20
0.000000
30
0.000000
71
270
72
86
73
87
0
VERTEX
8
0
6
CONTINUOUS
62
252
70
128
10
0.000000
20
0.000000
30
0.000000
71
270
72
87
73
88
0
VERTEX
8
0
6
CONTINUOUS
62
252
70
128
10
0.000000
20
0.000000
30
0.000000
71
88
72
89
73
270
0
VERTEX
8
0
6
CONTINUOUS
62
252
70
128
10
0.000000
20
0.000000
30
0.000000
71
270
72
89
73
90
0
VERTEX
8
0
6
CONTINUOUS
62
252
70
128
10
0.000000
20
0.000000
30
0.000000
71
270
72
90
73
91
0
VERTEX
8
0
6
CONTINUOUS
62
252
70
128
10
0.000000
20
0.000000
30
0.000000
71
91
72
92
73
270
0
VERTEX
8
0
6
CONTINUOUS
62
252
70
128
10
0.000000
20
0.000000
30
0.000000
71
270
72
92
73
93
0
VERTEX
8
0
6
CONTINUOUS
62
252
70
128
10
0.000000
20
0.000000
30
0.000000
71
270
72
93
73
94
0
VERTEX
8
0
6
CONTINUOUS
62
252
70
128
10
0.000000
20
0.000000
30
0.000000
71
94
72
95
73
270
0
VERTEX
8
0
6
CONTINUOUS
62
252
70
128
10
0.000000
20
0.000000
30
0.000000
71
270
72
95
73
96
0
VERTEX
8
0
6
CONTINUOUS
62
252
70
128
10
0.000000
20
0.000000
30
0.000000
71
270
72
96
73
164
0
VERTEX
8
0
6
CONTINUOUS
62
252
70
128
10
0.000000
20
0.000000
30
0.000000
71
164
72
96
73
97
0
VERTEX
8
0
6
CONTINUOUS
62
252
70
128
10
0.000000
20
0.000000
30
0.000000
71
164
72
97
73
163
0
VERTEX
8
0
6
CONTINUOUS
62
252
70
128
10
0.000000
20
0.000000
30
0.000000
71
163
72
97
73
162
0
VERTEX
8
0
6
CONTINUOUS
62
252
70
128
10
0.000000
20
0.000000
30
0.000000
71
162
72
97
73
98
0
VERTEX
8
0
6
CONTINUOUS
62
252
70
128
10
0.000000
20
0.000000
30
0.000000
71
162
72
98
73
99
0
VERTEX
8
0
6
CONTINUOUS
62
252
70
128
10
0.000000
20
0.000000
30
0.000000
71
100
72
160
73
99
0
VERTEX
8
0
6
CONTINUOUS
62
252
70
128
10
0.000000
20
0.000000
30
0.000000
71
99
72
160
73
161
0
VERTEX
8
0
6
CONTINUOUS
62
252
70
128
10
0.000000
20
0.000000
30
0.000000
71
99
72
161
73
162
0
VERTEX
8
0
6
CONTINUOUS
62
252
70
128
10
0.000000
20
0.000000
30
0.000000
71
100
72
101
73
160
0
VERTEX
8
0
6
CONTINUOUS
62
252
70
128
10
0.000000
20
0.000000
30
0.000000
71
160
72
101
73
159
0
VERTEX
8
0
6
CONTINUOUS
62
252
70
128
10
0.000000
20
0.000000
30
0.000000
71
159
72
101
73
158
0
VERTEX
8
0
6
CONTINUOUS
62
252
70
128
10
0.000000
20
0.000000
30
0.000000
71
158
72
101
73
102
0
VERTEX
8
0
6
CONTINUOUS
62
252
70
128
10
0.000000
20
0.000000
30
0.000000
71
158
72
102
73
103
0
VERTEX
8
0
6
CONTINUOUS
62
252
70
128
10
0.000000
20
0.000000
30
0.000000
71
104
72
192
73
103
0
VERTEX
8
0
6
CONTINUOUS
62
252
70
128
10
0.000000
20
0.000000
30
0.000000
71
103
72
192
73
157
0
VERTEX
8
0
6
CONTINUOUS
62
252
70
128
10
0.000000
20
0.000000
30
0.000000
71
103
72
157
73
158
0
VERTEX
8
0
6
CONTINUOUS
62
252
70
128
10
0.000000
20
0.000000
30
0.000000
71
104
72
105
73
192
0
VERTEX
8
0
6
CONTINUOUS
62
252
70
128
10
0.000000
20
0.000000
30
0.000000
71
192
72
105
73
191
0
VERTEX
8
0
6
CONTINUOUS
62
252
70
128
10
0.000000
20
0.000000
30
0.000000
71
191
72
105
73
190
0
VERTEX
8
0
6
CONTINUOUS
62
252
70
128
10
0.000000
20
0.000000
30
0.000000
71
190
72
105
73
106
0
VERTEX
8
0
6
CONTINUOUS
62
252
70
128
10
0.000000
20
0.000000
30
0.000000
71
190
72
106
73
107
0
VERTEX
8
0
6
CONTINUOUS
62
252
70
128
10
0.000000
20
0.000000
30
0.000000
71
108
72
188
73
107
0
VERTEX
8
0
6
CONTINUOUS
62
252
70
128
10
0.000000
20
0.000000
30
0.000000
71
107
72
188
73
189
0
VERTEX
8
0
6
CONTINUOUS
62
252
70
128
10
0.000000
20
0.000000
30
0.000000
71
107
72
189
73
190
0
VERTEX
8
0
6
CONTINUOUS
62
252
70
128
10
0.000000
20
0.000000
30
0.000000
71
108
72
109
73
188
0
VERTEX
8
0
6
CONTINUOUS
62
252
70
128
10
0.000000
20
0.000000
30
0.000000
71
188
72
109
73
187
0
VERTEX
8
0
6
CONTINUOUS
62
252
70
128
10
0.000000
20
0.000000
30
0.000000
71
187
72
109
73
110
0
VERTEX
8
0
6
CONTINUOUS
62
252
70
128
10
0.000000
20
0.000000
30
0.000000
71
187
72
110
73
186
0
VERTEX
8
0
6
CONTINUOUS
62
252
70
128
10
0.000000
20
0.000000
30
0.000000
71
136
72
137
73
5
0
VERTEX
8
0
6
CONTINUOUS
62
252
70
128
10
0.000000
20
0.000000
30
0.000000
71
5
72
137
73
138
0
VERTEX
8
0
6
CONTINUOUS
62
252
70
128
10
0.000000
20
0.000000
30
0.000000
71
140
72
141
73
8
0
VERTEX
8
0
6
CONTINUOUS
62
252
70
128
10
0.000000
20
0.000000
30
0.000000
71
272
72
148
73
271
0
VERTEX
8
0
6
CONTINUOUS
62
252
70
128
10
0.000000
20
0.000000
30
0.000000
71
271
72
148
73
149
0
VERTEX
8
0
6
CONTINUOUS
62
252
70
128
10
0.000000
20
0.000000
30
0.000000
71
271
72
149
73
150
0
VERTEX
8
0
6
CONTINUOUS
62
252
70
128
10
0.000000
20
0.000000
30
0.000000
71
164
72
165
73
270
0
VERTEX
8
0
6
CONTINUOUS
62
252
70
128
10
0.000000
20
0.000000
30
0.000000
71
270
72
165
73
166
0
VERTEX
8
0
6
CONTINUOUS
62
252
70
128
10
0.000000
20
0.000000
30
0.000000
71
270
72
166
73
269
0
VERTEX
8
0
6
CONTINUOUS
62
252
70
128
10
0.000000
20
0.000000
30
0.000000
71
269
72
166
73
167
0
VERTEX
8
0
6
CONTINUOUS
62
252
70
128
10
0.000000
20
0.000000
30
0.000000
71
269
72
167
73
168
0
VERTEX
8
0
6
CONTINUOUS
62
252
70
128
10
0.000000
20
0.000000
30
0.000000
71
236
72
169
73
235
0
VERTEX
8
0
6
CONTINUOUS
62
252
70
128
10
0.000000
20
0.000000
30
0.000000
71
235
72
169
73
170
0
VERTEX
8
0
6
CONTINUOUS
62
252
70
128
10
0.000000
20
0.000000
30
0.000000
71
235
72
170
73
234
0
VERTEX
8
0
6
CONTINUOUS
62
252
70
128
10
0.000000
20
0.000000
30
0.000000
71
234
72
170
73
171
0
VERTEX
8
0
6
CONTINUOUS
62
252
70
128
10
0.000000
20
0.000000
30
0.000000
71
234
72
171
73
233
0
VERTEX
8
0
6
CONTINUOUS
62
252
70
128
10
0.000000
20
0.000000
30
0.000000
71
233
72
171
73
172
0
VERTEX
8
0
6
CONTINUOUS
62
252
70
128
10
0.000000
20
0.000000
30
0.000000
71
233
72
172
73
232
0
VERTEX
8
0
6
CONTINUOUS
62
252
70
128
10
0.000000
20
0.000000
30
0.000000
71
232
72
172
73
173
0
VERTEX
8
0
6
CONTINUOUS
62
252
70
128
10
0.000000
20
0.000000
30
0.000000
71
232
72
173
73
231
0
VERTEX
8
0
6
CONTINUOUS
62
252
70
128
10
0.000000
20
0.000000
30
0.000000
71
231
72
173
73
4
0
VERTEX
8
0
6
CONTINUOUS
62
252
70
128
10
0.000000
20
0.000000
30
0.000000
71
231
72
4
73
230
0
VERTEX
8
0
6
CONTINUOUS
62
252
70
128
10
0.000000
20
0.000000
30
0.000000
71
230
72
4
73
229
0
VERTEX
8
0
6
CONTINUOUS
62
252
70
128
10
0.000000
20
0.000000
30
0.000000
71
229
72
4
73
264
0
VERTEX
8
0
6
CONTINUOUS
62
252
70
128
10
0.000000
20
0.000000
30
0.000000
71
264
72
4
73
263
0
VERTEX
8
0
6
CONTINUOUS
62
252
70
128
10
0.000000
20
0.000000
30
0.000000
71
263
72
4
73
262
0
VERTEX
8
0
6
CONTINUOUS
62
252
70
128
10
0.000000
20
0.000000
30
0.000000
71
262
72
4
73
261
0
VERTEX
8
0
6
CONTINUOUS
62
252
70
128
10
0.000000
20
0.000000
30
0.000000
71
261
72
4
73
260
0
VERTEX
8
0
6
CONTINUOUS
62
252
70
128
10
0.000000
20
0.000000
30
0.000000
71
173
72
174
73
4
0
VERTEX
8
0
6
CONTINUOUS
62
252
70
128
10
0.000000
20
0.000000
30
0.000000
71
4
72
174
73
175
0
VERTEX
8
0
6
CONTINUOUS
62
252
70
128
10
0.000000
20
0.000000
30
0.000000
71
4
72
175
73
176
0
VERTEX
8
0
6
CONTINUOUS
62
252
70
128
10
0.000000
20
0.000000
30
0.000000
71
176
72
177
73
4
0
VERTEX
8
0
6
CONTINUOUS
62
252
70
128
10
0.000000
20
0.000000
30
0.000000
71
179
72
180
73
3
0
VERTEX
8
0
6
CONTINUOUS
62
252
70
128
10
0.000000
20
0.000000
30
0.000000
71
3
72
180
73
181
0
VERTEX
8
0
6
CONTINUOUS
62
252
70
128
10
0.000000
20
0.000000
30
0.000000
71
3
72
181
73
9
0
VERTEX
8
0
6
CONTINUOUS
62
252
70
128
10
0.000000
20
0.000000
30
0.000000
71
9
72
181
73
182
0
VERTEX
8
0
6
CONTINUOUS
62
252
70
128
10
0.000000
20
0.000000
30
0.000000
71
210
72
211
73
272
0
VERTEX
8
0
6
CONTINUOUS
62
252
70
128
10
0.000000
20
0.000000
30
0.000000
71
272
72
211
73
212
0
VERTEX
8
0
6
CONTINUOUS
62
252
70
128
10
0.000000
20
0.000000
30
0.000000
71
272
72
212
73
213
0
VERTEX
8
0
6
CONTINUOUS
62
252
70
128
10
0.000000
20
0.000000
30
0.000000
71
213
72
214
73
272
0
VERTEX
8
0
6
CONTINUOUS
62
252
70
128
10
0.000000
20
0.000000
30
0.000000
71
272
72
214
73
215
0
VERTEX
8
0
6
CONTINUOUS
62
252
70
128
10
0.000000
20
0.000000
30
0.000000
71
272
72
215
73
216
0
VERTEX
8
0
6
CONTINUOUS
62
252
70
128
10
0.000000
20
0.000000
30
0.000000
71
216
72
217
73
272
0
VERTEX
8
0
6
CONTINUOUS
62
252
70
128
10
0.000000
20
0.000000
30
0.000000
71
272
72
217
73
218
0
VERTEX
8
0
6
CONTINUOUS
62
252
70
128
10
0.000000
20
0.000000
30
0.000000
71
272
72
218
73
219
0
VERTEX
8
0
6
CONTINUOUS
62
252
70
128
10
0.000000
20
0.000000
30
0.000000
71
219
72
220
73
272
0
VERTEX
8
0
6
CONTINUOUS
62
252
70
128
10
0.000000
20
0.000000
30
0.000000
71
272
72
220
73
221
0
VERTEX
8
0
6
CONTINUOUS
62
252
70
128
10
0.000000
20
0.000000
30
0.000000
71
272
72
221
73
222
0
VERTEX
8
0
6
CONTINUOUS
62
252
70
128
10
0.000000
20
0.000000
30
0.000000
71
248
72
249
73
1
0
VERTEX
8
0
6
CONTINUOUS
62
252
70
128
10
0.000000
20
0.000000
30
0.000000
71
1
72
249
73
250
0
VERTEX
8
0
6
CONTINUOUS
62
252
70
128
10
0.000000
20
0.000000
30
0.000000
71
1
72
250
73
251
0
VERTEX
8
0
6
CONTINUOUS
62
252
70
128
10
0.000000
20
0.000000
30
0.000000
71
251
72
252
73
1
0
VERTEX
8
0
6
CONTINUOUS
62
252
70
128
10
0.000000
20
0.000000
30
0.000000
71
1
72
252
73
253
0
VERTEX
8
0
6
CONTINUOUS
62
252
70
128
10
0.000000
20
0.000000
30
0.000000
71
1
72
253
73
254
0
VERTEX
8
0
6
CONTINUOUS
62
252
70
128
10
0.000000
20
0.000000
30
0.000000
71
254
72
255
73
1
0
VERTEX
8
0
6
CONTINUOUS
62
252
70
128
10
0.000000
20
0.000000
30
0.000000
71
1
72
255
73
256
0
VERTEX
8
0
6
CONTINUOUS
62
252
70
128
10
0.000000
20
0.000000
30
0.000000
71
1
72
256
73
257
0
VERTEX
8
0
6
CONTINUOUS
62
252
70
128
10
0.000000
20
0.000000
30
0.000000
71
257
72
258
73
1
0
VERTEX
8
0
6
CONTINUOUS
62
252
70
128
10
0.000000
20
0.000000
30
0.000000
71
272
72
265
73
11
0
SEQEND
0
POLYLINE
66
1
8
0
6
CONTINUOUS
62
252
70
64
75
0
10
0.000000
20
0.000000
30
0.000000
0
VERTEX
8
0
6
CONTINUOUS
62
252
70
192
10
2.250000
20
0.000000
30
59.600000
0
VERTEX
8
0
6
CONTINUOUS
62
252
70
192
10
2.223414
20
0.000000
30
59.296116
0
VERTEX
8
0
6
CONTINUOUS
62
252
70
192
10
2.144462
20
0.000000
30
59.001465
0
VERTEX
8
0
6
CONTINUOUS
62
252
70
192
10
2.015544
20
0.000000
30
58.725000
0
VERTEX
8
0
6
CONTINUOUS
62
252
70
192
10
1.840578
20
0.000000
30
58.475122
0
VERTEX
8
0
6
CONTINUOUS
62
252
70
192
10
1.624878
20
0.000000
30
58.259422
0
VERTEX
8
0
6
CONTINUOUS
62
252
70
192
10
1.375000
20
0.000000
30
58.084456
0
VERTEX
8
0
6
CONTINUOUS
62
252
70
192
10
1.098535
20
0.000000
30
57.955538
0
VERTEX
8
0
6
CONTINUOUS
62
252
70
192
10
0.803884
20
0.000000
30
57.876586
0
VERTEX
8
0
6
CONTINUOUS
62
252
70
192
10
0.500000
20
0.000000
30
57.850000
0
VERTEX
8
0
6
CONTINUOUS
62
252
70
192
10
0.196116
20
0.000000
30
57.876586
0
VERTEX
8
0
6
CONTINUOUS
62
252
70
192
10
-0.098535
20
0.000000
30
57.955538
0
VERTEX
8
0
6
CONTINUOUS
62
252
70
192
10
-0.375000
20
0.000000
30
58.084456
0
VERTEX
8
0
6
CONTINUOUS
62
252
70
192
10
-0.624878
20
0.000000
30
58.259422
0
VERTEX
8
0
6
CONTINUOUS
62
252
70
192
10
-0.840578
20
0.000000
30
58.475122
0
VERTEX
8
0
6
CONTINUOUS
62
252
70
192
10
-1.015544
20
0.000000
30
58.725000
0
VERTEX
8
0
6
CONTINUOUS
62
252
70
192
10
-1.144462
20
0.000000
30
59.001465
0
VERTEX
8
0
6
CONTINUOUS
62
252
70
192
10
-1.223414
20
0.000000
30
59.296116
0
VERTEX
8
0
6
CONTINUOUS
62
252
70
192
10
-1.250000
20
0.000000
30
59.600000
0
VERTEX
8
0
6
CONTINUOUS
62
252
70
192
10
-1.223414
20
0.000000
30
59.903884
0
VERTEX
8
0
6
CONTINUOUS
62
252
70
192
10
-1.144462
20
0.000000
30
60.198535
0
VERTEX
8
0
6
CONTINUOUS
62
252
70
192
10
-1.015544
20
0.000000
30
60.475000
0
VERTEX
8
0
6
CONTINUOUS
62
252
70
192
10
-0.840578
20
0.000000
30
60.724878
0
VERTEX
8
0
6
CONTINUOUS
62
252
70
192
10
-0.624878
20
0.000000
30
60.940578
0
VERTEX
8
0
6
CONTINUOUS
62
252
70
192
10
-0.375000
20
0.000000
30
61.115544
0
VERTEX
8
0
6
CONTINUOUS
62
252
70
192
10
-0.098535
20
0.000000
30
61.244462
0
VERTEX
8
0
6
CONTINUOUS
62
252
70
192
10
0.196116
20
0.000000
30
61.323414
0
VERTEX
8
0
6
CONTINUOUS
62
252
70
192
10
0.500000
20
0.000000
30
61.350000
0
VERTEX
8
0
6
CONTINUOUS
62
252
70
192
10
0.803884
20
0.000000
30
61.323414
0
VERTEX
8
0
6
CONTINUOUS
62
252
70
192
10
1.098535
20
0.000000
30
61.244462
0
VERTEX
8
0
6
CONTINUOUS
62
252
70
192
10
1.375000
20
0.000000
30
61.115544
0
VERTEX
8
0
6
CONTINUOUS
62
252
70
192
10
1.624878
20
0.000000
30
60.940578
0
VERTEX
8
0
6
CONTINUOUS
62
252
70
192
10
1.840578
20
0.000000
30
60.724878
0
VERTEX
8
0
6
CONTINUOUS
62
252
70
192
10
2.015544
20
0.000000
30
60.475000
0
VERTEX
8
0
6
CONTINUOUS
62
252
70
192
10
2.144462
20
0.000000
30
60.198535
0
VERTEX
8
0
6
CONTINUOUS
62
252
70
192
10
2.223414
20
0.000000
30
59.903884
0
VERTEX
8
0
6
CONTINUOUS
62
252
70
192
10
2.250000
20
-1.600000
30
59.600000
0
VERTEX
8
0
6
CONTINUOUS
62
252
70
192
10
2.223414
20
-1.600000
30
59.903884
0
VERTEX
8
0
6
CONTINUOUS
62
252
70
192
10
2.144462
20
-1.600000
30
60.198535
0
VERTEX
8
0
6
CONTINUOUS
62
252
70
192
10
2.015544
20
-1.600000
30
60.475000
0
VERTEX
8
0
6
CONTINUOUS
62
252
70
192
10
1.840578
20
-1.600000
30
60.724878
0
VERTEX
8
0
6
CONTINUOUS
62
252
70
192
10
1.624878
20
-1.600000
30
60.940578
0
VERTEX
8
0
6
CONTINUOUS
62
252
70
192
10
1.375000
20
-1.600000
30
61.115544
0
VERTEX
8
0
6
CONTINUOUS
62
252
70
192
10
1.098535
20
-1.600000
30
61.244462
0
VERTEX
8
0
6
CONTINUOUS
62
252
70
192
10
0.803884
20
-1.600000
30
61.323414
0
VERTEX
8
0
6
CONTINUOUS
62
252
70
192
10
0.500000
20
-1.600000
30
61.350000
0
VERTEX
8
0
6
CONTINUOUS
62
252
70
192
10
0.196116
20
-1.600000
30
61.323414
0
VERTEX
8
0
6
CONTINUOUS
62
252
70
192
10
-0.098535
20
-1.600000
30
61.244462
0
VERTEX
8
0
6
CONTINUOUS
62
252
70
192
10
-0.375000
20
-1.600000
30
61.115544
0
VERTEX
8
0
6
CONTINUOUS
62
252
70
192
10
-0.624878
20
-1.600000
30
60.940578
0
VERTEX
8
0
6
CONTINUOUS
62
252
70
192
10
-0.840578
20
-1.600000
30
60.724878
0
VERTEX
8
0
6
CONTINUOUS
62
252
70
192
10
-1.015544
20
-1.600000
30
60.475000
0
VERTEX
8
0
6
CONTINUOUS
62
252
70
192
10
-1.144462
20
-1.600000
30
60.198535
0
VERTEX
8
0
6
CONTINUOUS
62
252
70
192
10
-1.223414
20
-1.600000
30
59.903884
0
VERTEX
8
0
6
CONTINUOUS
62
252
70
192
10
-1.250000
20
-1.600000
30
59.600000
0
VERTEX
8
0
6
CONTINUOUS
62
252
70
192
10
-1.223414
20
-1.600000
30
59.296116
0
VERTEX
8
0
6
CONTINUOUS
62
252
70
192
10
-1.144462
20
-1.600000
30
59.001465
0
VERTEX
8
0
6
CONTINUOUS
62
252
70
192
10
-1.015544
20
-1.600000
30
58.725000
0
VERTEX
8
0
6
CONTINUOUS
62
252
70
192
10
-0.840578
20
-1.600000
30
58.475122
0
VERTEX
8
0
6
CONTINUOUS
62
252
70
192
10
-0.624878
20
-1.600000
30
58.259422
0
VERTEX
8
0
6
CONTINUOUS
62
252
70
192
10
-0.375000
20
-1.600000
30
58.084456
0
VERTEX
8
0
6
CONTINUOUS
62
252
70
192
10
-0.098535
20
-1.600000
30
57.955538
0
VERTEX
8
0
6
CONTINUOUS
62
252
70
192
10
0.196116
20
-1.600000
30
57.876586
0
VERTEX
8
0
6
CONTINUOUS
62
252
70
192
10
0.500000
20
-1.600000
30
57.850000
0
VERTEX
8
0
6
CONTINUOUS
62
252
70
192
10
0.803884
20
-1.600000
30
57.876586
0
VERTEX
8
0
6
CONTINUOUS
62
252
70
192
10
1.098535
20
-1.600000
30
57.955538
0
VERTEX
8
0
6
CONTINUOUS
62
252
70
192
10
1.375000
20
-1.600000
30
58.084456
0
VERTEX
8
0
6
CONTINUOUS
62
252
70
192
10
1.624878
20
-1.600000
30
58.259422
0
VERTEX
8
0
6
CONTINUOUS
62
252
70
192
10
1.840578
20
-1.600000
30
58.475122
0
VERTEX
8
0
6
CONTINUOUS
62
252
70
192
10
2.015544
20
-1.600000
30
58.725000
0
VERTEX
8
0
6
CONTINUOUS
62
252
70
192
10
2.144462
20
-1.600000
30
59.001465
0
VERTEX
8
0
6
CONTINUOUS
62
252
70
192
10
2.223414
20
-1.600000
30
59.296116
0
VERTEX
8
0
6
CONTINUOUS
62
252
70
128
10
0.000000
20
0.000000
30
0.000000
71
2
72
37
73
1
0
VERTEX
8
0
6
CONTINUOUS
62
252
70
128
10
0.000000
20
0.000000
30
0.000000
71
1
72
37
73
38
0
VERTEX
8
0
6
CONTINUOUS
62
252
70
128
10
0.000000
20
0.000000
30
0.000000
71
1
72
38
73
36
0
VERTEX
8
0
6
CONTINUOUS
62
252
70
128
10
0.000000
20
0.000000
30
0.000000
71
36
72
38
73
39
0
VERTEX
8
0
6
CONTINUOUS
62
252
70
128
10
0.000000
20
0.000000
30
0.000000
71
36
72
39
73
35
0
VERTEX
8
0
6
CONTINUOUS
62
252
70
128
10
0.000000
20
0.000000
30
0.000000
71
35
72
39
73
34
0
VERTEX
8
0
6
CONTINUOUS
62
252
70
128
10
0.000000
20
0.000000
30
0.000000
71
34
72
39
73
40
0
VERTEX
8
0
6
CONTINUOUS
62
252
70
128
10
0.000000
20
0.000000
30
0.000000
71
34
72
40
73
33
0
VERTEX
8
0
6
CONTINUOUS
62
252
70
128
10
0.000000
20
0.000000
30
0.000000
71
33
72
40
73
41
0
VERTEX
8
0
6
CONTINUOUS
62
252
70
128
10
0.000000
20
0.000000
30
0.000000
71
33
72
41
73
32
0
VERTEX
8
0
6
CONTINUOUS
62
252
70
128
10
0.000000
20
0.000000
30
0.000000
71
32
72
41
73
42
0
VERTEX
8
0
6
CONTINUOUS
62
252
70
128
10
0.000000
20
0.000000
30
0.000000
71
32
72
42
73
31
0
VERTEX
8
0
6
CONTINUOUS
62
252
70
128
10
0.000000
20
0.000000
30
0.000000
71
31
72
42
73
43
0
VERTEX
8
0
6
CONTINUOUS
62
252
70
128
10
0.000000
20
0.000000
30
0.000000
71
31
72
43
73
30
0
VERTEX
8
0
6
CONTINUOUS
62
252
70
128
10
0.000000
20
0.000000
30
0.000000
71
30
72
43
73
44
0
VERTEX
8
0
6
CONTINUOUS
62
252
70
128
10
0.000000
20
0.000000
30
0.000000
71
30
72
44
73
29
0
VERTEX
8
0
6
CONTINUOUS
62
252
70
128
10
0.000000
20
0.000000
30
0.000000
71
29
72
44
73
45
0
VERTEX
8
0
6
CONTINUOUS
62
252
70
128
10
0.000000
20
0.000000
30
0.000000
71
29
72
45
73
28
0
VERTEX
8
0
6
CONTINUOUS
62
252
70
128
10
0.000000
20
0.000000
30
0.000000
71
28
72
45
73
46
0
VERTEX
8
0
6
CONTINUOUS
62
252
70
128
10
0.000000
20
0.000000
30
0.000000
71
28
72
46
73
27
0
VERTEX
8
0
6
CONTINUOUS
62
252
70
128
10
0.000000
20
0.000000
30
0.000000
71
27
72
46
73
47
0
VERTEX
8
0
6
CONTINUOUS
62
252
70
128
10
0.000000
20
0.000000
30
0.000000
71
27
72
47
73
26
0
VERTEX
8
0
6
CONTINUOUS
62
252
70
128
10
0.000000
20
0.000000
30
0.000000
71
26
72
47
73
48
0
VERTEX
8
0
6
CONTINUOUS
62
252
70
128
10
0.000000
20
0.000000
30
0.000000
71
26
72
48
73
25
0
VERTEX
8
0
6
CONTINUOUS
62
252
70
128
10
0.000000
20
0.000000
30
0.000000
71
25
72
48
73
49
0
VERTEX
8
0
6
CONTINUOUS
62
252
70
128
10
0.000000
20
0.000000
30
0.000000
71
25
72
49
73
24
0
VERTEX
8
0
6
CONTINUOUS
62
252
70
128
10
0.000000
20
0.000000
30
0.000000
71
24
72
49
73
50
0
VERTEX
8
0
6
CONTINUOUS
62
252
70
128
10
0.000000
20
0.000000
30
0.000000
71
24
72
50
73
23
0
VERTEX
8
0
6
CONTINUOUS
62
252
70
128
10
0.000000
20
0.000000
30
0.000000
71
23
72
50
73
51
0
VERTEX
8
0
6
CONTINUOUS
62
252
70
128
10
0.000000
20
0.000000
30
0.000000
71
23
72
51
73
52
0
VERTEX
8
0
6
CONTINUOUS
62
252
70
128
10
0.000000
20
0.000000
30
0.000000
71
37
72
2
73
72
0
VERTEX
8
0
6
CONTINUOUS
62
252
70
128
10
0.000000
20
0.000000
30
0.000000
71
72
72
2
73
3
0
VERTEX
8
0
6
CONTINUOUS
62
252
70
128
10
0.000000
20
0.000000
30
0.000000
71
72
72
3
73
71
0
VERTEX
8
0
6
CONTINUOUS
62
252
70
128
10
0.000000
20
0.000000
30
0.000000
71
71
72
3
73
70
0
VERTEX
8
0
6
CONTINUOUS
62
252
70
128
10
0.000000
20
0.000000
30
0.000000
71
70
72
3
73
4
0
VERTEX
8
0
6
CONTINUOUS
62
252
70
128
10
0.000000
20
0.000000
30
0.000000
71
70
72
4
73
69
0
VERTEX
8
0
6
CONTINUOUS
62
252
70
128
10
0.000000
20
0.000000
30
0.000000
71
69
72
4
73
5
0
VERTEX
8
0
6
CONTINUOUS
62
252
70
128
10
0.000000
20
0.000000
30
0.000000
71
69
72
5
73
68
0
VERTEX
8
0
6
CONTINUOUS
62
252
70
128
10
0.000000
20
0.000000
30
0.000000
71
68
72
5
73
6
0
VERTEX
8
0
6
CONTINUOUS
62
252
70
128
10
0.000000
20
0.000000
30
0.000000
71
68
72
6
73
67
0
VERTEX
8
0
6
CONTINUOUS
62
252
70
128
10
0.000000
20
0.000000
30
0.000000
71
67
72
6
73
7
0
VERTEX
8
0
6
CONTINUOUS
62
252
70
128
10
0.000000
20
0.000000
30
0.000000
71
67
72
7
73
66
0
VERTEX
8
0
6
CONTINUOUS
62
252
70
128
10
0.000000
20
0.000000
30
0.000000
71
66
72
7
73
8
0
VERTEX
8
0
6
CONTINUOUS
62
252
70
128
10
0.000000
20
0.000000
30
0.000000
71
66
72
8
73
65
0
VERTEX
8
0
6
CONTINUOUS
62
252
70
128
10
0.000000
20
0.000000
30
0.000000
71
65
72
8
73
9
0
VERTEX
8
0
6
CONTINUOUS
62
252
70
128
10
0.000000
20
0.000000
30
0.000000
71
65
72
9
73
64
0
VERTEX
8
0
6
CONTINUOUS
62
252
70
128
10
0.000000
20
0.000000
30
0.000000
71
64
72
9
73
10
0
VERTEX
8
0
6
CONTINUOUS
62
252
70
128
10
0.000000
20
0.000000
30
0.000000
71
64
72
10
73
63
0
VERTEX
8
0
6
CONTINUOUS
62
252
70
128
10
0.000000
20
0.000000
30
0.000000
71
63
72
10
73
11
0
VERTEX
8
0
6
CONTINUOUS
62
252
70
128
10
0.000000
20
0.000000
30
0.000000
71
63
72
11
73
62
0
VERTEX
8
0
6
CONTINUOUS
62
252
70
128
10
0.000000
20
0.000000
30
0.000000
71
62
72
11
73
12
0
VERTEX
8
0
6
CONTINUOUS
62
252
70
128
10
0.000000
20
0.000000
30
0.000000
71
62
72
12
73
61
0
VERTEX
8
0
6
CONTINUOUS
62
252
70
128
10
0.000000
20
0.000000
30
0.000000
71
61
72
12
73
13
0
VERTEX
8
0
6
CONTINUOUS
62
252
70
128
10
0.000000
20
0.000000
30
0.000000
71
61
72
13
73
60
0
VERTEX
8
0
6
CONTINUOUS
62
252
70
128
10
0.000000
20
0.000000
30
0.000000
71
60
72
13
73
14
0
VERTEX
8
0
6
CONTINUOUS
62
252
70
128
10
0.000000
20
0.000000
30
0.000000
71
60
72
14
73
59
0
VERTEX
8
0
6
CONTINUOUS
62
252
70
128
10
0.000000
20
0.000000
30
0.000000
71
59
72
14
73
15
0
VERTEX
8
0
6
CONTINUOUS
62
252
70
128
10
0.000000
20
0.000000
30
0.000000
71
59
72
15
73
16
0
VERTEX
8
0
6
CONTINUOUS
62
252
70
128
10
0.000000
20
0.000000
30
0.000000
71
17
72
57
73
16
0
VERTEX
8
0
6
CONTINUOUS
62
252
70
128
10
0.000000
20
0.000000
30
0.000000
71
16
72
57
73
58
0
VERTEX
8
0
6
CONTINUOUS
62
252
70
128
10
0.000000
20
0.000000
30
0.000000
71
16
72
58
73
59
0
VERTEX
8
0
6
CONTINUOUS
62
252
70
128
10
0.000000
20
0.000000
30
0.000000
71
57
72
17
73
56
0
VERTEX
8
0
6
CONTINUOUS
62
252
70
128
10
0.000000
20
0.000000
30
0.000000
71
56
72
17
73
18
0
VERTEX
8
0
6
CONTINUOUS
62
252
70
128
10
0.000000
20
0.000000
30
0.000000
71
56
72
18
73
55
0
VERTEX
8
0
6
CONTINUOUS
62
252
70
128
10
0.000000
20
0.000000
30
0.000000
71
55
72
18
73
19
0
VERTEX
8
0
6
CONTINUOUS
62
252
70
128
10
0.000000
20
0.000000
30
0.000000
71
55
72
19
73
54
0
VERTEX
8
0
6
CONTINUOUS
62
252
70
128
10
0.000000
20
0.000000
30
0.000000
71
54
72
19
73
20
0
VERTEX
8
0
6
CONTINUOUS
62
252
70
128
10
0.000000
20
0.000000
30
0.000000
71
54
72
20
73
53
0
VERTEX
8
0
6
CONTINUOUS
62
252
70
128
10
0.000000
20
0.000000
30
0.000000
71
53
72
20
73
21
0
VERTEX
8
0
6
CONTINUOUS
62
252
70
128
10
0.000000
20
0.000000
30
0.000000
71
53
72
21
73
52
0
VERTEX
8
0
6
CONTINUOUS
62
252
70
128
10
0.000000
20
0.000000
30
0.000000
71
52
72
21
73
22
0
VERTEX
8
0
6
CONTINUOUS
62
252
70
128
10
0.000000
20
0.000000
30
0.000000
71
52
72
22
73
23
0
SEQEND
0
POLYLINE
66
1
8
0
6
CONTINUOUS
62
252
70
64
75
0
10
0.000000
20
0.000000
30
0.000000
0
VERTEX
8
0
6
CONTINUOUS
62
252
70
192
10
79.750000
20
0.000000
30
98.000000
0
VERTEX
8
0
6
CONTINUOUS
62
252
70
192
10
79.723414
20
0.000000
30
97.696116
0
VERTEX
8
0
6
CONTINUOUS
62
252
70
192
10
79.644462
20
0.000000
30
97.401465
0
VERTEX
8
0
6
CONTINUOUS
62
252
70
192
10
79.515544
20
0.000000
30
97.125000
0
VERTEX
8
0
6
CONTINUOUS
62
252
70
192
10
79.340578
20
0.000000
30
96.875122
0
VERTEX
8
0
6
CONTINUOUS
62
252
70
192
10
79.124878
20
0.000000
30
96.659422
0
VERTEX
8
0
6
CONTINUOUS
62
252
70
192
10
78.875000
20
0.000000
30
96.484456
0
VERTEX
8
0
6
CONTINUOUS
62
252
70
192
10
78.598535
20
0.000000
30
96.355538
0
VERTEX
8
0
6
CONTINUOUS
62
252
70
192
10
78.303884
20
0.000000
30
96.276586
0
VERTEX
8
0
6
CONTINUOUS
62
252
70
192
10
78.000000
20
0.000000
30
96.250000
0
VERTEX
8
0
6
CONTINUOUS
62
252
70
192
10
77.696116
20
0.000000
30
96.276586
0
VERTEX
8
0
6
CONTINUOUS
62
252
70
192
10
77.401465
20
0.000000
30
96.355538
0
VERTEX
8
0
6
CONTINUOUS
62
252
70
192
10
77.125000
20
0.000000
30
96.484456
0
VERTEX
8
0
6
CONTINUOUS
62
252
70
192
10
76.875122
20
0.000000
30
96.659422
0
VERTEX
8
0
6
CONTINUOUS
62
252
70
192
10
76.659422
20
0.000000
30
96.875122
0
VERTEX
8
0
6
CONTINUOUS
62
252
70
192
10
76.484456
20
0.000000
30
97.125000
0
VERTEX
8
0
6
CONTINUOUS
62
252
70
192
10
76.355538
20
0.000000
30
97.401465
0
VERTEX
8
0
6
CONTINUOUS
62
252
70
192
10
76.276586
20
0.000000
30
97.696116
0
VERTEX
8
0
6
CONTINUOUS
62
252
70
192
10
76.250000
20
0.000000
30
98.000000
0
VERTEX
8
0
6
CONTINUOUS
62
252
70
192
10
76.276586
20
0.000000
30
98.303884
0
VERTEX
8
0
6
CONTINUOUS
62
252
70
192
10
76.355538
20
0.000000
30
98.598535
0
VERTEX
8
0
6
CONTINUOUS
62
252
70
192
10
76.484456
20
0.000000
30
98.875000
0
VERTEX
8
0
6
CONTINUOUS
62
252
70
192
10
76.659422
20
0.000000
30
99.124878
0
VERTEX
8
0
6
CONTINUOUS
62
252
70
192
10
76.875122
20
0.000000
30
99.340578
0
VERTEX
8
0
6
CONTINUOUS
62
252
70
192
10
77.125000
20
0.000000
30
99.515544
0
VERTEX
8
0
6
CONTINUOUS
62
252
70
192
10
77.401465
20
0.000000
30
99.644462
0
VERTEX
8
0
6
CONTINUOUS
62
252
70
192
10
77.696116
20
0.000000
30
99.723414
0
VERTEX
8
0
6
CONTINUOUS
62
252
70
192
10
78.000000
20
0.000000
30
99.750000
0
VERTEX
8
0
6
CONTINUOUS
62
252
70
192
10
78.303884
20
0.000000
30
99.723414
0
VERTEX
8
0
6
CONTINUOUS
62
252
70
192
10
78.598535
20
0.000000
30
99.644462
0
VERTEX
8
0
6
CONTINUOUS
62
252
70
192
10
78.875000
20
0.000000
30
99.515544
0
VERTEX
8
0
6
CONTINUOUS
62
252
70
192
10
79.124878
20
0.000000
30
99.340578
0
VERTEX
8
0
6
CONTINUOUS
62
252
70
192
10
79.340578
20
0.000000
30
99.124878
0
VERTEX
8
0
6
CONTINUOUS
62
252
70
192
10
79.515544
20
0.000000
30
98.875000
0
VERTEX
8
0
6
CONTINUOUS
62
252
70
192
10
79.644462
20
0.000000
30
98.598535
0
VERTEX
8
0
6
CONTINUOUS
62
252
70
192
10
79.723414
20
0.000000
30
98.303884
0
VERTEX
8
0
6
CONTINUOUS
62
252
70
192
10
79.750000
20
-1.600000
30
98.000000
0
VERTEX
8
0
6
CONTINUOUS
62
252
70
192
10
79.723414
20
-1.600000
30
98.303884
0
VERTEX
8
0
6
CONTINUOUS
62
252
70
192
10
79.644462
20
-1.600000
30
98.598535
0
VERTEX
8
0
6
CONTINUOUS
62
252
70
192
10
79.515544
20
-1.600000
30
98.875000
0
VERTEX
8
0
6
CONTINUOUS
62
252
70
192
10
79.340578
20
-1.600000
30
99.124878
0
VERTEX
8
0
6
CONTINUOUS
62
252
70
192
10
79.124878
20
-1.600000
30
99.340578
0
VERTEX
8
0
6
CONTINUOUS
62
252
70
192
10
78.875000
20
-1.600000
30
99.515544
0
VERTEX
8
0
6
CONTINUOUS
62
252
70
192
10
78.598535
20
-1.600000
30
99.644462
0
VERTEX
8
0
6
CONTINUOUS
62
252
70
192
10
78.303884
20
-1.600000
30
99.723414
0
VERTEX
8
0
6
CONTINUOUS
62
252
70
192
10
78.000000
20
-1.600000
30
99.750000
0
VERTEX
8
0
6
CONTINUOUS
62
252
70
192
10
77.696116
20
-1.600000
30
99.723414
0
VERTEX
8
0
6
CONTINUOUS
62
252
70
192
10
77.401465
20
-1.600000
30
99.644462
0
VERTEX
8
0
6
CONTINUOUS
62
252
70
192
10
77.125000
20
-1.600000
30
99.515544
0
VERTEX
8
0
6
CONTINUOUS
62
252
70
192
10
76.875122
20
-1.600000
30
99.340578
0
VERTEX
8
0
6
CONTINUOUS
62
252
70
192
10
76.659422
20
-1.600000
30
99.124878
0
VERTEX
8
0
6
CONTINUOUS
62
252
70
192
10
76.484456
20
-1.600000
30
98.875000
0
VERTEX
8
0
6
CONTINUOUS
62
252
70
192
10
76.355538
20
-1.600000
30
98.598535
0
VERTEX
8
0
6
CONTINUOUS
62
252
70
192
10
76.276586
20
-1.600000
30
98.303884
0
VERTEX
8
0
6
CONTINUOUS
62
252
70
192
10
76.250000
20
-1.600000
30
98.000000
0
VERTEX
8
0
6
CONTINUOUS
62
252
70
192
10
76.276586
20
-1.600000
30
97.696116
0
VERTEX
8
0
6
CONTINUOUS
62
252
70
192
10
76.355538
20
-1.600000
30
97.401465
0
VERTEX
8
0
6
CONTINUOUS
62
252
70
192
10
76.484456
20
-1.600000
30
97.125000
0
VERTEX
8
0
6
CONTINUOUS
62
252
70
192
10
76.659422
20
-1.600000
30
96.875122
0
VERTEX
8
0
6
CONTINUOUS
62
252
70
192
10
76.875122
20
-1.600000
30
96.659422
0
VERTEX
8
0
6
CONTINUOUS
62
252
70
192
10
77.125000
20
-1.600000
30
96.484456
0
VERTEX
8
0
6
CONTINUOUS
62
252
70
192
10
77.401465
20
-1.600000
30
96.355538
0
VERTEX
8
0
6
CONTINUOUS
62
252
70
192
10
77.696116
20
-1.600000
30
96.276586
0
VERTEX
8
0
6
CONTINUOUS
62
252
70
192
10
78.000000
20
-1.600000
30
96.250000
0
VERTEX
8
0
6
CONTINUOUS
62
252
70
192
10
78.303884
20
-1.600000
30
96.276586
0
VERTEX
8
0
6
CONTINUOUS
62
252
70
192
10
78.598535
20
-1.600000
30
96.355538
0
VERTEX
8
0
6
CONTINUOUS
62
252
70
192
10
78.875000
20
-1.600000
30
96.484456
0
VERTEX
8
0
6
CONTINUOUS
62
252
70
192
10
79.124878
20
-1.600000
30
96.659422
0
VERTEX
8
0
6
CONTINUOUS
62
252
70
192
10
79.340578
20
-1.600000
30
96.875122
0
VERTEX
8
0
6
CONTINUOUS
62
252
70
192
10
79.515544
20
-1.600000
30
97.125000
0
VERTEX
8
0
6
CONTINUOUS
62
252
70
192
10
79.644462
20
-1.600000
30
97.401465
0
VERTEX
8
0
6
CONTINUOUS
62
252
70
192
10
79.723414
20
-1.600000
30
97.696116
0
VERTEX
8
0
6
CONTINUOUS
62
252
70
128
10
0.000000
20
0.000000
30
0.000000
71
36
72
1
73
37
0
VERTEX
8
0
6
CONTINUOUS
62
252
70
128
10
0.000000
20
0.000000
30
0.000000
71
37
72
1
73
2
0
VERTEX
8
0
6
CONTINUOUS
62
252
70
128
10
0.000000
20
0.000000
30
0.000000
71
37
72
2
73
72
0
VERTEX
8
0
6
CONTINUOUS
62
252
70
128
10
0.000000
20
0.000000
30
0.000000
71
72
72
2
73
3
0
VERTEX
8
0
6
CONTINUOUS
62
252
70
128
10
0.000000
20
0.000000
30
0.000000
71
72
72
3
73
71
0
VERTEX
8
0
6
CONTINUOUS
62
252
70
128
10
0.000000
20
0.000000
30
0.000000
71
71
72
3
73
70
0
VERTEX
8
0
6
CONTINUOUS
62
252
70
128
10
0.000000
20
0.000000
30
0.000000
71
70
72
3
73
4
0
VERTEX
8
0
6
CONTINUOUS
62
252
70
128
10
0.000000
20
0.000000
30
0.000000
71
70
72
4
73
5
0
VERTEX
8
0
6
CONTINUOUS
62
252
70
128
10
0.000000
20
0.000000
30
0.000000
71
6
72
68
73
5
0
VERTEX
8
0
6
CONTINUOUS
62
252
70
128
10
0.000000
20
0.000000
30
0.000000
71
5
72
68
73
69
0
VERTEX
8
0
6
CONTINUOUS
62
252
70
128
10
0.000000
20
0.000000
30
0.000000
71
5
72
69
73
70
0
VERTEX
8
0
6
CONTINUOUS
62
252
70
128
10
0.000000
20
0.000000
30
0.000000
71
68
72
6
73
67
0
VERTEX
8
0
6
CONTINUOUS
62
252
70
128
10
0.000000
20
0.000000
30
0.000000
71
67
72
6
73
7
0
VERTEX
8
0
6
CONTINUOUS
62
252
70
128
10
0.000000
20
0.000000
30
0.000000
71
67
72
7
73
66
0
VERTEX
8
0
6
CONTINUOUS
62
252
70
128
10
0.000000
20
0.000000
30
0.000000
71
66
72
7
73
8
0
VERTEX
8
0
6
CONTINUOUS
62
252
70
128
10
0.000000
20
0.000000
30
0.000000
71
66
72
8
73
65
0
VERTEX
8
0
6
CONTINUOUS
62
252
70
128
10
0.000000
20
0.000000
30
0.000000
71
65
72
8
73
9
0
VERTEX
8
0
6
CONTINUOUS
62
252
70
128
10
0.000000
20
0.000000
30
0.000000
71
65
72
9
73
64
0
VERTEX
8
0
6
CONTINUOUS
62
252
70
128
10
0.000000
20
0.000000
30
0.000000
71
64
72
9
73
10
0
VERTEX
8
0
6
CONTINUOUS
62
252
70
128
10
0.000000
20
0.000000
30
0.000000
71
64
72
10
73
63
0
VERTEX
8
0
6
CONTINUOUS
62
252
70
128
10
0.000000
20
0.000000
30
0.000000
71
63
72
10
73
11
0
VERTEX
8
0
6
CONTINUOUS
62
252
70
128
10
0.000000
20
0.000000
30
0.000000
71
63
72
11
73
62
0
VERTEX
8
0
6
CONTINUOUS
62
252
70
128
10
0.000000
20
0.000000
30
0.000000
71
62
72
11
73
12
0
VERTEX
8
0
6
CONTINUOUS
62
252
70
128
10
0.000000
20
0.000000
30
0.000000
71
62
72
12
73
61
0
VERTEX
8
0
6
CONTINUOUS
62
252
70
128
10
0.000000
20
0.000000
30
0.000000
71
61
72
12
73
13
0
VERTEX
8
0
6
CONTINUOUS
62
252
70
128
10
0.000000
20
0.000000
30
0.000000
71
61
72
13
73
60
0
VERTEX
8
0
6
CONTINUOUS
62
252
70
128
10
0.000000
20
0.000000
30
0.000000
71
60
72
13
73
14
0
VERTEX
8
0
6
CONTINUOUS
62
252
70
128
10
0.000000
20
0.000000
30
0.000000
71
60
72
14
73
59
0
VERTEX
8
0
6
CONTINUOUS
62
252
70
128
10
0.000000
20
0.000000
30
0.000000
71
59
72
14
73
15
0
VERTEX
8
0
6
CONTINUOUS
62
252
70
128
10
0.000000
20
0.000000
30
0.000000
71
59
72
15
73
58
0
VERTEX
8
0
6
CONTINUOUS
62
252
70
128
10
0.000000
20
0.000000
30
0.000000
71
58
72
15
73
16
0
VERTEX
8
0
6
CONTINUOUS
62
252
70
128
10
0.000000
20
0.000000
30
0.000000
71
58
72
16
73
57
0
VERTEX
8
0
6
CONTINUOUS
62
252
70
128
10
0.000000
20
0.000000
30
0.000000
71
57
72
16
73
17
0
VERTEX
8
0
6
CONTINUOUS
62
252
70
128
10
0.000000
20
0.000000
30
0.000000
71
57
72
17
73
56
0
VERTEX
8
0
6
CONTINUOUS
62
252
70
128
10
0.000000
20
0.000000
30
0.000000
71
56
72
17
73
18
0
VERTEX
8
0
6
CONTINUOUS
62
252
70
128
10
0.000000
20
0.000000
30
0.000000
71
56
72
18
73
55
0
VERTEX
8
0
6
CONTINUOUS
62
252
70
128
10
0.000000
20
0.000000
30
0.000000
71
55
72
18
73
19
0
VERTEX
8
0
6
CONTINUOUS
62
252
70
128
10
0.000000
20
0.000000
30
0.000000
71
55
72
19
73
54
0
VERTEX
8
0
6
CONTINUOUS
62
252
70
128
10
0.000000
20
0.000000
30
0.000000
71
54
72
19
73
20
0
VERTEX
8
0
6
CONTINUOUS
62
252
70
128
10
0.000000
20
0.000000
30
0.000000
71
54
72
20
73
53
0
VERTEX
8
0
6
CONTINUOUS
62
252
70
128
10
0.000000
20
0.000000
30
0.000000
71
53
72
20
73
21
0
VERTEX
8
0
6
CONTINUOUS
62
252
70
128
10
0.000000
20
0.000000
30
0.000000
71
53
72
21
73
52
0
VERTEX
8
0
6
CONTINUOUS
62
252
70
128
10
0.000000
20
0.000000
30
0.000000
71
52
72
21
73
22
0
VERTEX
8
0
6
CONTINUOUS
62
252
70
128
10
0.000000
20
0.000000
30
0.000000
71
52
72
22
73
51
0
VERTEX
8
0
6
CONTINUOUS
62
252
70
128
10
0.000000
20
0.000000
30
0.000000
71
51
72
22
73
23
0
VERTEX
8
0
6
CONTINUOUS
62
252
70
128
10
0.000000
20
0.000000
30
0.000000
71
51
72
23
73
50
0
VERTEX
8
0
6
CONTINUOUS
62
252
70
128
10
0.000000
20
0.000000
30
0.000000
71
50
72
23
73
24
0
VERTEX
8
0
6
CONTINUOUS
62
252
70
128
10
0.000000
20
0.000000
30
0.000000
71
50
72
24
73
49
0
VERTEX
8
0
6
CONTINUOUS
62
252
70
128
10
0.000000
20
0.000000
30
0.000000
71
49
72
24
73
25
0
VERTEX
8
0
6
CONTINUOUS
62
252
70
128
10
0.000000
20
0.000000
30
0.000000
71
49
72
25
73
48
0
VERTEX
8
0
6
CONTINUOUS
62
252
70
128
10
0.000000
20
0.000000
30
0.000000
71
48
72
25
73
26
0
VERTEX
8
0
6
CONTINUOUS
62
252
70
128
10
0.000000
20
0.000000
30
0.000000
71
48
72
26
73
47
0
VERTEX
8
0
6
CONTINUOUS
62
252
70
128
10
0.000000
20
0.000000
30
0.000000
71
47
72
26
73
27
0
VERTEX
8
0
6
CONTINUOUS
62
252
70
128
10
0.000000
20
0.000000
30
0.000000
71
47
72
27
73
46
0
VERTEX
8
0
6
CONTINUOUS
62
252
70
128
10
0.000000
20
0.000000
30
0.000000
71
46
72
27
73
28
0
VERTEX
8
0
6
CONTINUOUS
62
252
70
128
10
0.000000
20
0.000000
30
0.000000
71
46
72
28
73
45
0
VERTEX
8
0
6
CONTINUOUS
62
252
70
128
10
0.000000
20
0.000000
30
0.000000
71
45
72
28
73
29
0
VERTEX
8
0
6
CONTINUOUS
62
252
70
128
10
0.000000
20
0.000000
30
0.000000
71
45
72
29
73
44
0
VERTEX
8
0
6
CONTINUOUS
62
252
70
128
10
0.000000
20
0.000000
30
0.000000
71
44
72
29
73
30
0
VERTEX
8
0
6
CONTINUOUS
62
252
70
128
10
0.000000
20
0.000000
30
0.000000
71
44
72
30
73
43
0
VERTEX
8
0
6
CONTINUOUS
62
252
70
128
10
0.000000
20
0.000000
30
0.000000
71
43
72
30
73
31
0
VERTEX
8
0
6
CONTINUOUS
62
252
70
128
10
0.000000
20
0.000000
30
0.000000
71
43
72
31
73
42
0
VERTEX
8
0
6
CONTINUOUS
62
252
70
128
10
0.000000
20
0.000000
30
0.000000
71
42
72
31
73
32
0
VERTEX
8
0
6
CONTINUOUS
62
252
70
128
10
0.000000
20
0.000000
30
0.000000
71
42
72
32
73
41
0
VERTEX
8
0
6
CONTINUOUS
62
252
70
128
10
0.000000
20
0.000000
30
0.000000
71
41
72
32
73
33
0
VERTEX
8
0
6
CONTINUOUS
62
252
70
128
10
0.000000
20
0.000000
30
0.000000
71
41
72
33
73
34
0
VERTEX
8
0
6
CONTINUOUS
62
252
70
128
10
0.000000
20
0.000000
30
0.000000
71
35
72
39
73
34
0
VERTEX
8
0
6
CONTINUOUS
62
252
70
128
10
0.000000
20
0.000000
30
0.000000
71
34
72
39
73
40
0
VERTEX
8
0
6
CONTINUOUS
62
252
70
128
10
0.000000
20
0.000000
30
0.000000
71
34
72
40
73
41
0
VERTEX
8
0
6
CONTINUOUS
62
252
70
128
10
0.000000
20
0.000000
30
0.000000
71
35
72
36
73
39
0
VERTEX
8
0
6
CONTINUOUS
62
252
70
128
10
0.000000
20
0.000000
30
0.000000
71
39
72
36
73
38
0
VERTEX
8
0
6
CONTINUOUS
62
252
70
128
10
0.000000
20
0.000000
30
0.000000
71
38
72
36
73
37
0
SEQEND
0
POLYLINE
66
1
8
0
6
CONTINUOUS
62
252
70
64
75
0
10
0.000000
20
0.000000
30
0.000000
0
VERTEX
8
0
6
CONTINUOUS
62
252
70
192
10
79.750000
20
0.000000
30
0.000000
0
VERTEX
8
0
6
CONTINUOUS
62
252
70
192
10
79.723414
20
-0.000000
30
-0.303884
0
VERTEX
8
0
6
CONTINUOUS
62
252
70
192
10
79.644462
20
-0.000000
30
-0.598535
0
VERTEX
8
0
6
CONTINUOUS
62
252
70
192
10
79.515544
20
-0.000000
30
-0.875000
0
VERTEX
8
0
6
CONTINUOUS
62
252
70
192
10
79.340578
20
-0.000000
30
-1.124878
0
VERTEX
8
0
6
CONTINUOUS
62
252
70
192
10
79.124878
20
-0.000000
30
-1.340578
0
VERTEX
8
0
6
CONTINUOUS
62
252
70
192
10
78.875000
20
-0.000000
30
-1.515544
0
VERTEX
8
0
6
CONTINUOUS
62
252
70
192
10
78.598535
20
-0.000000
30
-1.644462
0
VERTEX
8
0
6
CONTINUOUS
62
252
70
192
10
78.303884
20
-0.000000
30
-1.723414
0
VERTEX
8
0
6
CONTINUOUS
62
252
70
192
10
78.000000
20
-0.000000
30
-1.750000
0
VERTEX
8
0
6
CONTINUOUS
62
252
70
192
10
77.696116
20
-0.000000
30
-1.723414
0
VERTEX
8
0
6
CONTINUOUS
62
252
70
192
10
77.401465
20
-0.000000
30
-1.644462
0
VERTEX
8
0
6
CONTINUOUS
62
252
70
192
10
77.125000
20
-0.000000
30
-1.515544
0
VERTEX
8
0
6
CONTINUOUS
62
252
70
192
10
76.875122
20
-0.000000
30
-1.340578
0
VERTEX
8
0
6
CONTINUOUS
62
252
70
192
10
76.659422
20
-0.000000
30
-1.124878
0
VERTEX
8
0
6
CONTINUOUS
62
252
70
192
10
76.484456
20
-0.000000
30
-0.875000
0
VERTEX
8
0
6
CONTINUOUS
62
252
70
192
10
76.355538
20
-0.000000
30
-0.598535
0
VERTEX
8
0
6
CONTINUOUS
62
252
70
192
10
76.276586
20
-0.000000
30
-0.303884
0
VERTEX
8
0
6
CONTINUOUS
62
252
70
192
10
76.250000
20
-0.000000
30
0.000000
0
VERTEX
8
0
6
CONTINUOUS
62
252
70
192
10
76.276586
20
-0.000000
30
0.303884
0
VERTEX
8
0
6
CONTINUOUS
62
252
70
192
10
76.355538
20
-0.000000
30
0.598535
0
VERTEX
8
0
6
CONTINUOUS
62
252
70
192
10
76.484456
20
-0.000000
30
0.875000
0
VERTEX
8
0
6
CONTINUOUS
62
252
70
192
10
76.659422
20
-0.000000
30
1.124878
0
VERTEX
8
0
6
CONTINUOUS
62
252
70
192
10
76.875122
20
-0.000000
30
1.340578
0
VERTEX
8
0
6
CONTINUOUS
62
252
70
192
10
77.125000
20
-0.000000
30
1.515544
0
VERTEX
8
0
6
CONTINUOUS
62
252
70
192
10
77.401465
20
-0.000000
30
1.644462
0
VERTEX
8
0
6
CONTINUOUS
62
252
70
192
10
77.696116
20
-0.000000
30
1.723414
0
VERTEX
8
0
6
CONTINUOUS
62
252
70
192
10
78.000000
20
-0.000000
30
1.750000
0
VERTEX
8
0
6
CONTINUOUS
62
252
70
192
10
78.303884
20
-0.000000
30
1.723414
0
VERTEX
8
0
6
CONTINUOUS
62
252
70
192
10
78.598535
20
-0.000000
30
1.644462
0
VERTEX
8
0
6
CONTINUOUS
62
252
70
192
10
78.875000
20
-0.000000
30
1.515544
0
VERTEX
8
0
6
CONTINUOUS
62
252
70
192
10
79.124878
20
-0.000000
30
1.340578
0
VERTEX
8
0
6
CONTINUOUS
62
252
70
192
10
79.340578
20
-0.000000
30
1.124878
0
VERTEX
8
0
6
CONTINUOUS
62
252
70
192
10
79.515544
20
-0.000000
30
0.875000
0
VERTEX
8
0
6
CONTINUOUS
62
252
70
192
10
79.644462
20
-0.000000
30
0.598535
0
VERTEX
8
0
6
CONTINUOUS
62
252
70
192
10
79.723414
20
-0.000000
30
0.303884
0
VERTEX
8
0
6
CONTINUOUS
62
252
70
192
10
79.750000
20
-1.600000
30
0.000000
0
VERTEX
8
0
6
CONTINUOUS
62
252
70
192
10
79.723414
20
-1.600000
30
0.303884
0
VERTEX
8
0
6
CONTINUOUS
62
252
70
192
10
79.644462
20
-1.600000
30
0.598535
0
VERTEX
8
0
6
CONTINUOUS
62
252
70
192
10
79.515544
20
-1.600000
30
0.875000
0
VERTEX
8
0
6
CONTINUOUS
62
252
70
192
10
79.340578
20
-1.600000
30
1.124878
0
VERTEX
8
0
6
CONTINUOUS
62
252
70
192
10
79.124878
20
-1.600000
30
1.340578
0
VERTEX
8
0
6
CONTINUOUS
62
252
70
192
10
78.875000
20
-1.600000
30
1.515544
0
VERTEX
8
0
6
CONTINUOUS
62
252
70
192
10
78.598535
20
-1.600000
30
1.644462
0
VERTEX
8
0
6
CONTINUOUS
62
252
70
192
10
78.303884
20
-1.600000
30
1.723414
0
VERTEX
8
0
6
CONTINUOUS
62
252
70
192
10
78.000000
20
-1.600000
30
1.750000
0
VERTEX
8
0
6
CONTINUOUS
62
252
70
192
10
77.696116
20
-1.600000
30
1.723414
0
VERTEX
8
0
6
CONTINUOUS
62
252
70
192
10
77.401465
20
-1.600000
30
1.644462
0
VERTEX
8
0
6
CONTINUOUS
62
252
70
192
10
77.125000
20
-1.600000
30
1.515544
0
VERTEX
8
0
6
CONTINUOUS
62
252
70
192
10
76.875122
20
-1.600000
30
1.340578
0
VERTEX
8
0
6
CONTINUOUS
62
252
70
192
10
76.659422
20
-1.600000
30
1.124878
0
VERTEX
8
0
6
CONTINUOUS
62
252
70
192
10
76.484456
20
-1.600000
30
0.875000
0
VERTEX
8
0
6
CONTINUOUS
62
252
70
192
10
76.355538
20
-1.600000
30
0.598535
0
VERTEX
8
0
6
CONTINUOUS
62
252
70
192
10
76.276586
20
-1.600000
30
0.303884
0
VERTEX
8
0
6
CONTINUOUS
62
252
70
192
10
76.250000
20
-1.600000
30
-0.000000
0
VERTEX
8
0
6
CONTINUOUS
62
252
70
192
10
76.276586
20
-1.600000
30
-0.303884
0
VERTEX
8
0
6
CONTINUOUS
62
252
70
192
10
76.355538
20
-1.600000
30
-0.598535
0
VERTEX
8
0
6
CONTINUOUS
62
252
70
192
10
76.484456
20
-1.600000
30
-0.875000
0
VERTEX
8
0
6
CONTINUOUS
62
252
70
192
10
76.659422
20
-1.600000
30
-1.124878
0
VERTEX
8
0
6
CONTINUOUS
62
252
70
192
10
76.875122
20
-1.600000
30
-1.340578
0
VERTEX
8
0
6
CONTINUOUS
62
252
70
192
10
77.125000
20
-1.600000
30
-1.515544
0
VERTEX
8
0
6
CONTINUOUS
62
252
70
192
10
77.401465
20
-1.600000
30
-1.644462
0
VERTEX
8
0
6
CONTINUOUS
62
252
70
192
10
77.696116
20
-1.600000
30
-1.723414
0
VERTEX
8
0
6
CONTINUOUS
62
252
70
192
10
78.000000
20
-1.600000
30
-1.750000
0
VERTEX
8
0
6
CONTINUOUS
62
252
70
192
10
78.303884
20
-1.600000
30
-1.723414
0
VERTEX
8
0
6
CONTINUOUS
62
252
70
192
10
78.598535
20
-1.600000
30
-1.644462
0
VERTEX
8
0
6
CONTINUOUS
62
252
70
192
10
78.875000
20
-1.600000
30
-1.515544
0
VERTEX
8
0
6
CONTINUOUS
62
252
70
192
10
79.124878
20
-1.600000
30
-1.340578
0
VERTEX
8
0
6
CONTINUOUS
62
252
70
192
10
79.340578
20
-1.600000
30
-1.124878
0
VERTEX
8
0
6
CONTINUOUS
62
252
70
192
10
79.515544
20
-1.600000
30
-0.875000
0
VERTEX
8
0
6
CONTINUOUS
62
252
70
192
10
79.644462
20
-1.600000
30
-0.598535
0
VERTEX
8
0
6
CONTINUOUS
62
252
70
192
10
79.723414
20
-1.600000
30
-0.303884
0
VERTEX
8
0
6
CONTINUOUS
62
252
70
128
10
0.000000
20
0.000000
30
0.000000
71
36
72
1
73
37
0
VERTEX
8
0
6
CONTINUOUS
62
252
70
128
10
0.000000
20
0.000000
30
0.000000
71
37
72
1
73
2
0
VERTEX
8
0
6
CONTINUOUS
62
252
70
128
10
0.000000
20
0.000000
30
0.000000
71
37
72
2
73
72
0
VERTEX
8
0
6
CONTINUOUS
62
252
70
128
10
0.000000
20
0.000000
30
0.000000
71
72
72
2
73
71
0
VERTEX
8
0
6
CONTINUOUS
62
252
70
128
10
0.000000
20
0.000000
30
0.000000
71
71
72
2
73
3
0
VERTEX
8
0
6
CONTINUOUS
62
252
70
128
10
0.000000
20
0.000000
30
0.000000
71
71
72
3
73
70
0
VERTEX
8
0
6
CONTINUOUS
62
252
70
128
10
0.000000
20
0.000000
30
0.000000
71
70
72
3
73
4
0
VERTEX
8
0
6
CONTINUOUS
62
252
70
128
10
0.000000
20
0.000000
30
0.000000
71
70
72
4
73
69
0
VERTEX
8
0
6
CONTINUOUS
62
252
70
128
10
0.000000
20
0.000000
30
0.000000
71
69
72
4
73
5
0
VERTEX
8
0
6
CONTINUOUS
62
252
70
128
10
0.000000
20
0.000000
30
0.000000
71
69
72
5
73
68
0
VERTEX
8
0
6
CONTINUOUS
62
252
70
128
10
0.000000
20
0.000000
30
0.000000
71
68
72
5
73
6
0
VERTEX
8
0
6
CONTINUOUS
62
252
70
128
10
0.000000
20
0.000000
30
0.000000
71
68
72
6
73
67
0
VERTEX
8
0
6
CONTINUOUS
62
252
70
128
10
0.000000
20
0.000000
30
0.000000
71
67
72
6
73
7
0
VERTEX
8
0
6
CONTINUOUS
62
252
70
128
10
0.000000
20
0.000000
30
0.000000
71
67
72
7
73
66
0
VERTEX
8
0
6
CONTINUOUS
62
252
70
128
10
0.000000
20
0.000000
30
0.000000
71
66
72
7
73
8
0
VERTEX
8
0
6
CONTINUOUS
62
252
70
128
10
0.000000
20
0.000000
30
0.000000
71
66
72
8
73
65
0
VERTEX
8
0
6
CONTINUOUS
62
252
70
128
10
0.000000
20
0.000000
30
0.000000
71
65
72
8
73
9
0
VERTEX
8
0
6
CONTINUOUS
62
252
70
128
10
0.000000
20
0.000000
30
0.000000
71
65
72
9
73
64
0
VERTEX
8
0
6
CONTINUOUS
62
252
70
128
10
0.000000
20
0.000000
30
0.000000
71
64
72
9
73
10
0
VERTEX
8
0
6
CONTINUOUS
62
252
70
128
10
0.000000
20
0.000000
30
0.000000
71
64
72
10
73
63
0
VERTEX
8
0
6
CONTINUOUS
62
252
70
128
10
0.000000
20
0.000000
30
0.000000
71
63
72
10
73
11
0
VERTEX
8
0
6
CONTINUOUS
62
252
70
128
10
0.000000
20
0.000000
30
0.000000
71
63
72
11
73
62
0
VERTEX
8
0
6
CONTINUOUS
62
252
70
128
10
0.000000
20
0.000000
30
0.000000
71
62
72
11
73
12
0
VERTEX
8
0
6
CONTINUOUS
62
252
70
128
10
0.000000
20
0.000000
30
0.000000
71
62
72
12
73
61
0
VERTEX
8
0
6
CONTINUOUS
62
252
70
128
10
0.000000
20
0.000000
30
0.000000
71
61
72
12
73
13
0
VERTEX
8
0
6
CONTINUOUS
62
252
70
128
10
0.000000
20
0.000000
30
0.000000
71
61
72
13
73
60
0
VERTEX
8
0
6
CONTINUOUS
62
252
70
128
10
0.000000
20
0.000000
30
0.000000
71
60
72
13
73
14
0
VERTEX
8
0
6
CONTINUOUS
62
252
70
128
10
0.000000
20
0.000000
30
0.000000
71
60
72
14
73
59
0
VERTEX
8
0
6
CONTINUOUS
62
252
70
128
10
0.000000
20
0.000000
30
0.000000
71
59
72
14
73
15
0
VERTEX
8
0
6
CONTINUOUS
62
252
70
128
10
0.000000
20
0.000000
30
0.000000
71
59
72
15
73
58
0
VERTEX
8
0
6
CONTINUOUS
62
252
70
128
10
0.000000
20
0.000000
30
0.000000
71
58
72
15
73
16
0
VERTEX
8
0
6
CONTINUOUS
62
252
70
128
10
0.000000
20
0.000000
30
0.000000
71
58
72
16
73
57
0
VERTEX
8
0
6
CONTINUOUS
62
252
70
128
10
0.000000
20
0.000000
30
0.000000
71
57
72
16
73
17
0
VERTEX
8
0
6
CONTINUOUS
62
252
70
128
10
0.000000
20
0.000000
30
0.000000
71
57
72
17
73
56
0
VERTEX
8
0
6
CONTINUOUS
62
252
70
128
10
0.000000
20
0.000000
30
0.000000
71
56
72
17
73
18
0
VERTEX
8
0
6
CONTINUOUS
62
252
70
128
10
0.000000
20
0.000000
30
0.000000
71
56
72
18
73
55
0
VERTEX
8
0
6
CONTINUOUS
62
252
70
128
10
0.000000
20
0.000000
30
0.000000
71
55
72
18
73
19
0
VERTEX
8
0
6
CONTINUOUS
62
252
70
128
10
0.000000
20
0.000000
30
0.000000
71
55
72
19
73
54
0
VERTEX
8
0
6
CONTINUOUS
62
252
70
128
10
0.000000
20
0.000000
30
0.000000
71
54
72
19
73
20
0
VERTEX
8
0
6
CONTINUOUS
62
252
70
128
10
0.000000
20
0.000000
30
0.000000
71
54
72
20
73
53
0
VERTEX
8
0
6
CONTINUOUS
62
252
70
128
10
0.000000
20
0.000000
30
0.000000
71
53
72
20
73
21
0
VERTEX
8
0
6
CONTINUOUS
62
252
70
128
10
0.000000
20
0.000000
30
0.000000
71
53
72
21
73
52
0
VERTEX
8
0
6
CONTINUOUS
62
252
70
128
10
0.000000
20
0.000000
30
0.000000
71
52
72
21
73
22
0
VERTEX
8
0
6
CONTINUOUS
62
252
70
128
10
0.000000
20
0.000000
30
0.000000
71
52
72
22
73
51
0
VERTEX
8
0
6
CONTINUOUS
62
252
70
128
10
0.000000
20
0.000000
30
0.000000
71
51
72
22
73
23
0
VERTEX
8
0
6
CONTINUOUS
62
252
70
128
10
0.000000
20
0.000000
30
0.000000
71
51
72
23
73
50
0
VERTEX
8
0
6
CONTINUOUS
62
252
70
128
10
0.000000
20
0.000000
30
0.000000
71
50
72
23
73
24
0
VERTEX
8
0
6
CONTINUOUS
62
252
70
128
10
0.000000
20
0.000000
30
0.000000
71
50
72
24
73
49
0
VERTEX
8
0
6
CONTINUOUS
62
252
70
128
10
0.000000
20
0.000000
30
0.000000
71
49
72
24
73
25
0
VERTEX
8
0
6
CONTINUOUS
62
252
70
128
10
0.000000
20
0.000000
30
0.000000
71
49
72
25
73
48
0
VERTEX
8
0
6
CONTINUOUS
62
252
70
128
10
0.000000
20
0.000000
30
0.000000
71
48
72
25
73
26
0
VERTEX
8
0
6
CONTINUOUS
62
252
70
128
10
0.000000
20
0.000000
30
0.000000
71
48
72
26
73
47
0
VERTEX
8
0
6
CONTINUOUS
62
252
70
128
10
0.000000
20
0.000000
30
0.000000
71
47
72
26
73
27
0
VERTEX
8
0
6
CONTINUOUS
62
252
70
128
10
0.000000
20
0.000000
30
0.000000
71
47
72
27
73
46
0
VERTEX
8
0
6
CONTINUOUS
62
252
70
128
10
0.000000
20
0.000000
30
0.000000
71
46
72
27
73
28
0
VERTEX
8
0
6
CONTINUOUS
62
252
70
128
10
0.000000
20
0.000000
30
0.000000
71
46
72
28
73
45
0
VERTEX
8
0
6
CONTINUOUS
62
252
70
128
10
0.000000
20
0.000000
30
0.000000
71
45
72
28
73
29
0
VERTEX
8
0
6
CONTINUOUS
62
252
70
128
10
0.000000
20
0.000000
30
0.000000
71
45
72
29
73
44
0
VERTEX
8
0
6
CONTINUOUS
62
252
70
128
10
0.000000
20
0.000000
30
0.000000
71
44
72
29
73
30
0
VERTEX
8
0
6
CONTINUOUS
62
252
70
128
10
0.000000
20
0.000000
30
0.000000
71
44
72
30
73
43
0
VERTEX
8
0
6
CONTINUOUS
62
252
70
128
10
0.000000
20
0.000000
30
0.000000
71
43
72
30
73
31
0
VERTEX
8
0
6
CONTINUOUS
62
252
70
128
10
0.000000
20
0.000000
30
0.000000
71
43
72
31
73
42
0
VERTEX
8
0
6
CONTINUOUS
62
252
70
128
10
0.000000
20
0.000000
30
0.000000
71
42
72
31
73
32
0
VERTEX
8
0
6
CONTINUOUS
62
252
70
128
10
0.000000
20
0.000000
30
0.000000
71
42
72
32
73
41
0
VERTEX
8
0
6
CONTINUOUS
62
252
70
128
10
0.000000
20
0.000000
30
0.000000
71
41
72
32
73
33
0
VERTEX
8
0
6
CONTINUOUS
62
252
70
128
10
0.000000
20
0.000000
30
0.000000
71
41
72
33
73
40
0
VERTEX
8
0
6
CONTINUOUS
62
252
70
128
10
0.000000
20
0.000000
30
0.000000
71
40
72
33
73
34
0
VERTEX
8
0
6
CONTINUOUS
62
252
70
128
10
0.000000
20
0.000000
30
0.000000
71
40
72
34
73
39
0
VERTEX
8
0
6
CONTINUOUS
62
252
70
128
10
0.000000
20
0.000000
30
0.000000
71
39
72
34
73
35
0
VERTEX
8
0
6
CONTINUOUS
62
252
70
128
10
0.000000
20
0.000000
30
0.000000
71
39
72
35
73
38
0
VERTEX
8
0
6
CONTINUOUS
62
252
70
128
10
0.000000
20
0.000000
30
0.000000
71
38
72
35
73
36
0
VERTEX
8
0
6
CONTINUOUS
62
252
70
128
10
0.000000
20
0.000000
30
0.000000
71
38
72
36
73
37
0
SEQEND
0
POLYLINE
66
1
8
0
6
CONTINUOUS
62
252
70
64
75
0
10
0.000000
20
0.000000
30
0.000000
0
VERTEX
8
0
6
CONTINUOUS
62
252
70
192
10
59.750000
20
0.000000
30
98.000000
0
VERTEX
8
0
6
CONTINUOUS
62
252
70
192
10
59.723414
20
0.000000
30
97.696116
0
VERTEX
8
0
6
CONTINUOUS
62
252
70
192
10
59.644462
20
0.000000
30
97.401465
0
VERTEX
8
0
6
CONTINUOUS
62
252
70
192
10
59.515544
20
0.000000
30
97.125000
0
VERTEX
8
0
6
CONTINUOUS
62
252
70
192
10
59.340578
20
0.000000
30
96.875122
0
VERTEX
8
0
6
CONTINUOUS
62
252
70
192
10
59.124878
20
0.000000
30
96.659422
0
VERTEX
8
0
6
CONTINUOUS
62
252
70
192
10
58.875000
20
0.000000
30
96.484456
0
VERTEX
8
0
6
CONTINUOUS
62
252
70
192
10
58.598535
20
0.000000
30
96.355538
0
VERTEX
8
0
6
CONTINUOUS
62
252
70
192
10
58.303884
20
0.000000
30
96.276586
0
VERTEX
8
0
6
CONTINUOUS
62
252
70
192
10
58.000000
20
0.000000
30
96.250000
0
VERTEX
8
0
6
CONTINUOUS
62
252
70
192
10
57.696116
20
0.000000
30
96.276586
0
VERTEX
8
0
6
CONTINUOUS
62
252
70
192
10
57.401465
20
0.000000
30
96.355538
0
VERTEX
8
0
6
CONTINUOUS
62
252
70
192
10
57.125000
20
0.000000
30
96.484456
0
VERTEX
8
0
6
CONTINUOUS
62
252
70
192
10
56.875122
20
0.000000
30
96.659422
0
VERTEX
8
0
6
CONTINUOUS
62
252
70
192
10
56.659422
20
0.000000
30
96.875122
0
VERTEX
8
0
6
CONTINUOUS
62
252
70
192
10
56.484456
20
0.000000
30
97.125000
0
VERTEX
8
0
6
CONTINUOUS
62
252
70
192
10
56.355538
20
0.000000
30
97.401465
0
VERTEX
8
0
6
CONTINUOUS
62
252
70
192
10
56.276586
20
0.000000
30
97.696116
0
VERTEX
8
0
6
CONTINUOUS
62
252
70
192
10
56.250000
20
0.000000
30
98.000000
0
VERTEX
8
0
6
CONTINUOUS
62
252
70
192
10
56.276586
20
0.000000
30
98.303884
0
VERTEX
8
0
6
CONTINUOUS
62
252
70
192
10
56.355538
20
0.000000
30
98.598535
0
VERTEX
8
0
6
CONTINUOUS
62
252
70
192
10
56.484456
20
0.000000
30
98.875000
0
VERTEX
8
0
6
CONTINUOUS
62
252
70
192
10
56.659422
20
0.000000
30
99.124878
0
VERTEX
8
0
6
CONTINUOUS
62
252
70
192
10
56.875122
20
0.000000
30
99.340578
0
VERTEX
8
0
6
CONTINUOUS
62
252
70
192
10
57.125000
20
0.000000
30
99.515544
0
VERTEX
8
0
6
CONTINUOUS
62
252
70
192
10
57.401465
20
0.000000
30
99.644462
0
VERTEX
8
0
6
CONTINUOUS
62
252
70
192
10
57.696116
20
0.000000
30
99.723414
0
VERTEX
8
0
6
CONTINUOUS
62
252
70
192
10
58.000000
20
0.000000
30
99.750000
0
VERTEX
8
0
6
CONTINUOUS
62
252
70
192
10
58.303884
20
0.000000
30
99.723414
0
VERTEX
8
0
6
CONTINUOUS
62
252
70
192
10
58.598535
20
0.000000
30
99.644462
0
VERTEX
8
0
6
CONTINUOUS
62
252
70
192
10
58.875000
20
0.000000
30
99.515544
0
VERTEX
8
0
6
CONTINUOUS
62
252
70
192
10
59.124878
20
0.000000
30
99.340578
0
VERTEX
8
0
6
CONTINUOUS
62
252
70
192
10
59.340578
20
0.000000
30
99.124878
0
VERTEX
8
0
6
CONTINUOUS
62
252
70
192
10
59.515544
20
0.000000
30
98.875000
0
VERTEX
8
0
6
CONTINUOUS
62
252
70
192
10
59.644462
20
0.000000
30
98.598535
0
VERTEX
8
0
6
CONTINUOUS
62
252
70
192
10
59.723414
20
0.000000
30
98.303884
0
VERTEX
8
0
6
CONTINUOUS
62
252
70
192
10
59.750000
20
-1.600000
30
98.000000
0
VERTEX
8
0
6
CONTINUOUS
62
252
70
192
10
59.723414
20
-1.600000
30
98.303884
0
VERTEX
8
0
6
CONTINUOUS
62
252
70
192
10
59.644462
20
-1.600000
30
98.598535
0
VERTEX
8
0
6
CONTINUOUS
62
252
70
192
10
59.515544
20
-1.600000
30
98.875000
0
VERTEX
8
0
6
CONTINUOUS
62
252
70
192
10
59.340578
20
-1.600000
30
99.124878
0
VERTEX
8
0
6
CONTINUOUS
62
252
70
192
10
59.124878
20
-1.600000
30
99.340578
0
VERTEX
8
0
6
CONTINUOUS
62
252
70
192
10
58.875000
20
-1.600000
30
99.515544
0
VERTEX
8
0
6
CONTINUOUS
62
252
70
192
10
58.598535
20
-1.600000
30
99.644462
0
VERTEX
8
0
6
CONTINUOUS
62
252
70
192
10
58.303884
20
-1.600000
30
99.723414
0
VERTEX
8
0
6
CONTINUOUS
62
252
70
192
10
58.000000
20
-1.600000
30
99.750000
0
VERTEX
8
0
6
CONTINUOUS
62
252
70
192
10
57.696116
20
-1.600000
30
99.723414
0
VERTEX
8
0
6
CONTINUOUS
62
252
70
192
10
57.401465
20
-1.600000
30
99.644462
0
VERTEX
8
0
6
CONTINUOUS
62
252
70
192
10
57.125000
20
-1.600000
30
99.515544
0
VERTEX
8
0
6
CONTINUOUS
62
252
70
192
10
56.875122
20
-1.600000
30
99.340578
0
VERTEX
8
0
6
CONTINUOUS
62
252
70
192
10
56.659422
20
-1.600000
30
99.124878
0
VERTEX
8
0
6
CONTINUOUS
62
252
70
192
10
56.484456
20
-1.600000
30
98.875000
0
VERTEX
8
0
6
CONTINUOUS
62
252
70
192
10
56.355538
20
-1.600000
30
98.598535
0
VERTEX
8
0
6
CONTINUOUS
62
252
70
192
10
56.276586
20
-1.600000
30
98.303884
0
VERTEX
8
0
6
CONTINUOUS
62
252
70
192
10
56.250000
20
-1.600000
30
98.000000
0
VERTEX
8
0
6
CONTINUOUS
62
252
70
192
10
56.276586
20
-1.600000
30
97.696116
0
VERTEX
8
0
6
CONTINUOUS
62
252
70
192
10
56.355538
20
-1.600000
30
97.401465
0
VERTEX
8
0
6
CONTINUOUS
62
252
70
192
10
56.484456
20
-1.600000
30
97.125000
0
VERTEX
8
0
6
CONTINUOUS
62
252
70
192
10
56.659422
20
-1.600000
30
96.875122
0
VERTEX
8
0
6
CONTINUOUS
62
252
70
192
10
56.875122
20
-1.600000
30
96.659422
0
VERTEX
8
0
6
CONTINUOUS
62
252
70
192
10
57.125000
20
-1.600000
30
96.484456
0
VERTEX
8
0
6
CONTINUOUS
62
252
70
192
10
57.401465
20
-1.600000
30
96.355538
0
VERTEX
8
0
6
CONTINUOUS
62
252
70
192
10
57.696116
20
-1.600000
30
96.276586
0
VERTEX
8
0
6
CONTINUOUS
62
252
70
192
10
58.000000
20
-1.600000
30
96.250000
0
VERTEX
8
0
6
CONTINUOUS
62
252
70
192
10
58.303884
20
-1.600000
30
96.276586
0
VERTEX
8
0
6
CONTINUOUS
62
252
70
192
10
58.598535
20
-1.600000
30
96.355538
0
VERTEX
8
0
6
CONTINUOUS
62
252
70
192
10
58.875000
20
-1.600000
30
96.484456
0
VERTEX
8
0
6
CONTINUOUS
62
252
70
192
10
59.124878
20
-1.600000
30
96.659422
0
VERTEX
8
0
6
CONTINUOUS
62
252
70
192
10
59.340578
20
-1.600000
30
96.875122
0
VERTEX
8
0
6
CONTINUOUS
62
252
70
192
10
59.515544
20
-1.600000
30
97.125000
0
VERTEX
8
0
6
CONTINUOUS
62
252
70
192
10
59.644462
20
-1.600000
30
97.401465
0
VERTEX
8
0
6
CONTINUOUS
62
252
70
192
10
59.723414
20
-1.600000
30
97.696116
0
VERTEX
8
0
6
CONTINUOUS
62
252
70
128
10
0.000000
20
0.000000
30
0.000000
71
36
72
1
73
37
0
VERTEX
8
0
6
CONTINUOUS
62
252
70
128
10
0.000000
20
0.000000
30
0.000000
71
37
72
1
73
2
0
VERTEX
8
0
6
CONTINUOUS
62
252
70
128
10
0.000000
20
0.000000
30
0.000000
71
37
72
2
73
72
0
VERTEX
8
0
6
CONTINUOUS
62
252
70
128
10
0.000000
20
0.000000
30
0.000000
71
72
72
2
73
3
0
VERTEX
8
0
6
CONTINUOUS
62
252
70
128
10
0.000000
20
0.000000
30
0.000000
71
72
72
3
73
71
0
VERTEX
8
0
6
CONTINUOUS
62
252
70
128
10
0.000000
20
0.000000
30
0.000000
71
71
72
3
73
70
0
VERTEX
8
0
6
CONTINUOUS
62
252
70
128
10
0.000000
20
0.000000
30
0.000000
71
70
72
3
73
4
0
VERTEX
8
0
6
CONTINUOUS
62
252
70
128
10
0.000000
20
0.000000
30
0.000000
71
70
72
4
73
69
0
VERTEX
8
0
6
CONTINUOUS
62
252
70
128
10
0.000000
20
0.000000
30
0.000000
71
69
72
4
73
5
0
VERTEX
8
0
6
CONTINUOUS
62
252
70
128
10
0.000000
20
0.000000
30
0.000000
71
69
72
5
73
68
0
VERTEX
8
0
6
CONTINUOUS
62
252
70
128
10
0.000000
20
0.000000
30
0.000000
71
68
72
5
73
6
0
VERTEX
8
0
6
CONTINUOUS
62
252
70
128
10
0.000000
20
0.000000
30
0.000000
71
68
72
6
73
67
0
VERTEX
8
0
6
CONTINUOUS
62
252
70
128
10
0.000000
20
0.000000
30
0.000000
71
67
72
6
73
7
0
VERTEX
8
0
6
CONTINUOUS
62
252
70
128
10
0.000000
20
0.000000
30
0.000000
71
67
72
7
73
66
0
VERTEX
8
0
6
CONTINUOUS
62
252
70
128
10
0.000000
20
0.000000
30
0.000000
71
66
72
7
73
8
0
VERTEX
8
0
6
CONTINUOUS
62
252
70
128
10
0.000000
20
0.000000
30
0.000000
71
66
72
8
73
65
0
VERTEX
8
0
6
CONTINUOUS
62
252
70
128
10
0.000000
20
0.000000
30
0.000000
71
65
72
8
73
9
0
VERTEX
8
0
6
CONTINUOUS
62
252
70
128
10
0.000000
20
0.000000
30
0.000000
71
65
72
9
73
64
0
VERTEX
8
0
6
CONTINUOUS
62
252
70
128
10
0.000000
20
0.000000
30
0.000000
71
64
72
9
73
10
0
VERTEX
8
0
6
CONTINUOUS
62
252
70
128
10
0.000000
20
0.000000
30
0.000000
71
64
72
10
73
63
0
VERTEX
8
0
6
CONTINUOUS
62
252
70
128
10
0.000000
20
0.000000
30
0.000000
71
63
72
10
73
11
0
VERTEX
8
0
6
CONTINUOUS
62
252
70
128
10
0.000000
20
0.000000
30
0.000000
71
63
72
11
73
62
0
VERTEX
8
0
6
CONTINUOUS
62
252
70
128
10
0.000000
20
0.000000
30
0.000000
71
62
72
11
73
12
0
VERTEX
8
0
6
CONTINUOUS
62
252
70
128
10
0.000000
20
0.000000
30
0.000000
71
62
72
12
73
61
0
VERTEX
8
0
6
CONTINUOUS
62
252
70
128
10
0.000000
20
0.000000
30
0.000000
71
61
72
12
73
13
0
VERTEX
8
0
6
CONTINUOUS
62
252
70
128
10
0.000000
20
0.000000
30
0.000000
71
61
72
13
73
60
0
VERTEX
8
0
6
CONTINUOUS
62
252
70
128
10
0.000000
20
0.000000
30
0.000000
71
60
72
13
73
14
0
VERTEX
8
0
6
CONTINUOUS
62
252
70
128
10
0.000000
20
0.000000
30
0.000000
71
60
72
14
73
59
0
VERTEX
8
0
6
CONTINUOUS
62
252
70
128
10
0.000000
20
0.000000
30
0.000000
71
59
72
14
73
15
0
VERTEX
8
0
6
CONTINUOUS
62
252
70
128
10
0.000000
20
0.000000
30
0.000000
71
59
72
15
73
16
0
VERTEX
8
0
6
CONTINUOUS
62
252
70
128
10
0.000000
20
0.000000
30
0.000000
71
17
72
57
73
16
0
VERTEX
8
0
6
CONTINUOUS
62
252
70
128
10
0.000000
20
0.000000
30
0.000000
71
16
72
57
73
58
0
VERTEX
8
0
6
CONTINUOUS
62
252
70
128
10
0.000000
20
0.000000
30
0.000000
71
16
72
58
73
59
0
VERTEX
8
0
6
CONTINUOUS
62
252
70
128
10
0.000000
20
0.000000
30
0.000000
71
57
72
17
73
56
0
VERTEX
8
0
6
CONTINUOUS
62
252
70
128
10
0.000000
20
0.000000
30
0.000000
71
56
72
17
73
18
0
VERTEX
8
0
6
CONTINUOUS
62
252
70
128
10
0.000000
20
0.000000
30
0.000000
71
56
72
18
73
55
0
VERTEX
8
0
6
CONTINUOUS
62
252
70
128
10
0.000000
20
0.000000
30
0.000000
71
55
72
18
73
19
0
VERTEX
8
0
6
CONTINUOUS
62
252
70
128
10
0.000000
20
0.000000
30
0.000000
71
55
72
19
73
54
0
VERTEX
8
0
6
CONTINUOUS
62
252
70
128
10
0.000000
20
0.000000
30
0.000000
71
54
72
19
73
20
0
VERTEX
8
0
6
CONTINUOUS
62
252
70
128
10
0.000000
20
0.000000
30
0.000000
71
54
72
20
73
53
0
VERTEX
8
0
6
CONTINUOUS
62
252
70
128
10
0.000000
20
0.000000
30
0.000000
71
53
72
20
73
21
0
VERTEX
8
0
6
CONTINUOUS
62
252
70
128
10
0.000000
20
0.000000
30
0.000000
71
53
72
21
73
52
0
VERTEX
8
0
6
CONTINUOUS
62
252
70
128
10
0.000000
20
0.000000
30
0.000000
71
52
72
21
73
22
0
VERTEX
8
0
6
CONTINUOUS
62
252
70
128
10
0.000000
20
0.000000
30
0.000000
71
52
72
22
73
23
0
VERTEX
8
0
6
CONTINUOUS
62
252
70
128
10
0.000000
20
0.000000
30
0.000000
71
24
72
50
73
23
0
VERTEX
8
0
6
CONTINUOUS
62
252
70
128
10
0.000000
20
0.000000
30
0.000000
71
23
72
50
73
51
0
VERTEX
8
0
6
CONTINUOUS
62
252
70
128
10
0.000000
20
0.000000
30
0.000000
71
23
72
51
73
52
0
VERTEX
8
0
6
CONTINUOUS
62
252
70
128
10
0.000000
20
0.000000
30
0.000000
71
50
72
24
73
49
0
VERTEX
8
0
6
CONTINUOUS
62
252
70
128
10
0.000000
20
0.000000
30
0.000000
71
49
72
24
73
25
0
VERTEX
8
0
6
CONTINUOUS
62
252
70
128
10
0.000000
20
0.000000
30
0.000000
71
49
72
25
73
48
0
VERTEX
8
0
6
CONTINUOUS
62
252
70
128
10
0.000000
20
0.000000
30
0.000000
71
48
72
25
73
26
0
VERTEX
8
0
6
CONTINUOUS
62
252
70
128
10
0.000000
20
0.000000
30
0.000000
71
48
72
26
73
47
0
VERTEX
8
0
6
CONTINUOUS
62
252
70
128
10
0.000000
20
0.000000
30
0.000000
71
47
72
26
73
27
0
VERTEX
8
0
6
CONTINUOUS
62
252
70
128
10
0.000000
20
0.000000
30
0.000000
71
47
72
27
73
46
0
VERTEX
8
0
6
CONTINUOUS
62
252
70
128
10
0.000000
20
0.000000
30
0.000000
71
46
72
27
73
28
0
VERTEX
8
0
6
CONTINUOUS
62
252
70
128
10
0.000000
20
0.000000
30
0.000000
71
46
72
28
73
45
0
VERTEX
8
0
6
CONTINUOUS
62
252
70
128
10
0.000000
20
0.000000
30
0.000000
71
45
72
28
73
29
0
VERTEX
8
0
6
CONTINUOUS
62
252
70
128
10
0.000000
20
0.000000
30
0.000000
71
45
72
29
73
44
0
VERTEX
8
0
6
CONTINUOUS
62
252
70
128
10
0.000000
20
0.000000
30
0.000000
71
44
72
29
73
30
0
VERTEX
8
0
6
CONTINUOUS
62
252
70
128
10
0.000000
20
0.000000
30
0.000000
71
44
72
30
73
43
0
VERTEX
8
0
6
CONTINUOUS
62
252
70
128
10
0.000000
20
0.000000
30
0.000000
71
43
72
30
73
31
0
VERTEX
8
0
6
CONTINUOUS
62
252
70
128
10
0.000000
20
0.000000
30
0.000000
71
43
72
31
73
42
0
VERTEX
8
0
6
CONTINUOUS
62
252
70
128
10
0.000000
20
0.000000
30
0.000000
71
42
72
31
73
32
0
VERTEX
8
0
6
CONTINUOUS
62
252
70
128
10
0.000000
20
0.000000
30
0.000000
71
42
72
32
73
41
0
VERTEX
8
0
6
CONTINUOUS
62
252
70
128
10
0.000000
20
0.000000
30
0.000000
71
41
72
32
73
33
0
VERTEX
8
0
6
CONTINUOUS
62
252
70
128
10
0.000000
20
0.000000
30
0.000000
71
41
72
33
73
40
0
VERTEX
8
0
6
CONTINUOUS
62
252
70
128
10
0.000000
20
0.000000
30
0.000000
71
40
72
33
73
34
0
VERTEX
8
0
6
CONTINUOUS
62
252
70
128
10
0.000000
20
0.000000
30
0.000000
71
40
72
34
73
39
0
VERTEX
8
0
6
CONTINUOUS
62
252
70
128
10
0.000000
20
0.000000
30
0.000000
71
39
72
34
73
35
0
VERTEX
8
0
6
CONTINUOUS
62
252
70
128
10
0.000000
20
0.000000
30
0.000000
71
39
72
35
73
36
0
VERTEX
8
0
6
CONTINUOUS
62
252
70
128
10
0.000000
20
0.000000
30
0.000000
71
37
72
38
73
36
0
VERTEX
8
0
6
CONTINUOUS
62
252
70
128
10
0.000000
20
0.000000
30
0.000000
71
36
72
38
73
39
0
SEQEND
0
POLYLINE
66
1
8
0
6
CONTINUOUS
62
252
70
64
75
0
10
0.000000
20
0.000000
30
0.000000
0
VERTEX
8
0
6
CONTINUOUS
62
252
70
192
10
59.750000
20
0.000000
30
0.000000
0
VERTEX
8
0
6
CONTINUOUS
62
252
70
192
10
59.723414
20
-0.000000
30
-0.303884
0
VERTEX
8
0
6
CONTINUOUS
62
252
70
192
10
59.644462
20
-0.000000
30
-0.598535
0
VERTEX
8
0
6
CONTINUOUS
62
252
70
192
10
59.515544
20
-0.000000
30
-0.875000
0
VERTEX
8
0
6
CONTINUOUS
62
252
70
192
10
59.340578
20
-0.000000
30
-1.124878
0
VERTEX
8
0
6
CONTINUOUS
62
252
70
192
10
59.124878
20
-0.000000
30
-1.340578
0
VERTEX
8
0
6
CONTINUOUS
62
252
70
192
10
58.875000
20
-0.000000
30
-1.515544
0
VERTEX
8
0
6
CONTINUOUS
62
252
70
192
10
58.598535
20
-0.000000
30
-1.644462
0
VERTEX
8
0
6
CONTINUOUS
62
252
70
192
10
58.303884
20
-0.000000
30
-1.723414
0
VERTEX
8
0
6
CONTINUOUS
62
252
70
192
10
58.000000
20
-0.000000
30
-1.750000
0
VERTEX
8
0
6
CONTINUOUS
62
252
70
192
10
57.696116
20
-0.000000
30
-1.723414
0
VERTEX
8
0
6
CONTINUOUS
62
252
70
192
10
57.401465
20
-0.000000
30
-1.644462
0
VERTEX
8
0
6
CONTINUOUS
62
252
70
192
10
57.125000
20
-0.000000
30
-1.515544
0
VERTEX
8
0
6
CONTINUOUS
62
252
70
192
10
56.875122
20
-0.000000
30
-1.340578
0
VERTEX
8
0
6
CONTINUOUS
62
252
70
192
10
56.659422
20
-0.000000
30
-1.124878
0
VERTEX
8
0
6
CONTINUOUS
62
252
70
192
10
56.484456
20
-0.000000
30
-0.875000
0
VERTEX
8
0
6
CONTINUOUS
62
252
70
192
10
56.355538
20
-0.000000
30
-0.598535
0
VERTEX
8
0
6
CONTINUOUS
62
252
70
192
10
56.276586
20
-0.000000
30
-0.303884
0
VERTEX
8
0
6
CONTINUOUS
62
252
70
192
10
56.250000
20
-0.000000
30
0.000000
0
VERTEX
8
0
6
CONTINUOUS
62
252
70
192
10
56.276586
20
-0.000000
30
0.303884
0
VERTEX
8
0
6
CONTINUOUS
62
252
70
192
10
56.355538
20
-0.000000
30
0.598535
0
VERTEX
8
0
6
CONTINUOUS
62
252
70
192
10
56.484456
20
-0.000000
30
0.875000
0
VERTEX
8
0
6
CONTINUOUS
62
252
70
192
10
56.659422
20
-0.000000
30
1.124878
0
VERTEX
8
0
6
CONTINUOUS
62
252
70
192
10
56.875122
20
-0.000000
30
1.340578
0
VERTEX
8
0
6
CONTINUOUS
62
252
70
192
10
57.125000
20
-0.000000
30
1.515544
0
VERTEX
8
0
6
CONTINUOUS
62
252
70
192
10
57.401465
20
-0.000000
30
1.644462
0
VERTEX
8
0
6
CONTINUOUS
62
252
70
192
10
57.696116
20
-0.000000
30
1.723414
0
VERTEX
8
0
6
CONTINUOUS
62
252
70
192
10
58.000000
20
-0.000000
30
1.750000
0
VERTEX
8
0
6
CONTINUOUS
62
252
70
192
10
58.303884
20
-0.000000
30
1.723414
0
VERTEX
8
0
6
CONTINUOUS
62
252
70
192
10
58.598535
20
-0.000000
30
1.644462
0
VERTEX
8
0
6
CONTINUOUS
62
252
70
192
10
58.875000
20
-0.000000
30
1.515544
0
VERTEX
8
0
6
CONTINUOUS
62
252
70
192
10
59.124878
20
-0.000000
30
1.340578
0
VERTEX
8
0
6
CONTINUOUS
62
252
70
192
10
59.340578
20
-0.000000
30
1.124878
0
VERTEX
8
0
6
CONTINUOUS
62
252
70
192
10
59.515544
20
-0.000000
30
0.875000
0
VERTEX
8
0
6
CONTINUOUS
62
252
70
192
10
59.644462
20
-0.000000
30
0.598535
0
VERTEX
8
0
6
CONTINUOUS
62
252
70
192
10
59.723414
20
-0.000000
30
0.303884
0
VERTEX
8
0
6
CONTINUOUS
62
252
70
192
10
59.750000
20
-1.600000
30
0.000000
0
VERTEX
8
0
6
CONTINUOUS
62
252
70
192
10
59.723414
20
-1.600000
30
0.303884
0
VERTEX
8
0
6
CONTINUOUS
62
252
70
192
10
59.644462
20
-1.600000
30
0.598535
0
VERTEX
8
0
6
CONTINUOUS
62
252
70
192
10
59.515544
20
-1.600000
30
0.875000
0
VERTEX
8
0
6
CONTINUOUS
62
252
70
192
10
59.340578
20
-1.600000
30
1.124878
0
VERTEX
8
0
6
CONTINUOUS
62
252
70
192
10
59.124878
20
-1.600000
30
1.340578
0
VERTEX
8
0
6
CONTINUOUS
62
252
70
192
10
58.875000
20
-1.600000
30
1.515544
0
VERTEX
8
0
6
CONTINUOUS
62
252
70
192
10
58.598535
20
-1.600000
30
1.644462
0
VERTEX
8
0
6
CONTINUOUS
62
252
70
192
10
58.303884
20
-1.600000
30
1.723414
0
VERTEX
8
0
6
CONTINUOUS
62
252
70
192
10
58.000000
20
-1.600000
30
1.750000
0
VERTEX
8
0
6
CONTINUOUS
62
252
70
192
10
57.696116
20
-1.600000
30
1.723414
0
VERTEX
8
0
6
CONTINUOUS
62
252
70
192
10
57.401465
20
-1.600000
30
1.644462
0
VERTEX
8
0
6
CONTINUOUS
62
252
70
192
10
57.125000
20
-1.600000
30
1.515544
0
VERTEX
8
0
6
CONTINUOUS
62
252
70
192
10
56.875122
20
-1.600000
30
1.340578
0
VERTEX
8
0
6
CONTINUOUS
62
252
70
192
10
56.659422
20
-1.600000
30
1.124878
0
VERTEX
8
0
6
CONTINUOUS
62
252
70
192
10
56.484456
20
-1.600000
30
0.875000
0
VERTEX
8
0
6
CONTINUOUS
62
252
70
192
10
56.355538
20
-1.600000
30
0.598535
0
VERTEX
8
0
6
CONTINUOUS
62
252
70
192
10
56.276586
20
-1.600000
30
0.303884
0
VERTEX
8
0
6
CONTINUOUS
62
252
70
192
10
56.250000
20
-1.600000
30
-0.000000
0
VERTEX
8
0
6
CONTINUOUS
62
252
70
192
10
56.276586
20
-1.600000
30
-0.303884
0
VERTEX
8
0
6
CONTINUOUS
62
252
70
192
10
56.355538
20
-1.600000
30
-0.598535
0
VERTEX
8
0
6
CONTINUOUS
62
252
70
192
10
56.484456
20
-1.600000
30
-0.875000
0
VERTEX
8
0
6
CONTINUOUS
62
252
70
192
10
56.659422
20
-1.600000
30
-1.124878
0
VERTEX
8
0
6
CONTINUOUS
62
252
70
192
10
56.875122
20
-1.600000
30
-1.340578
0
VERTEX
8
0
6
CONTINUOUS
62
252
70
192
10
57.125000
20
-1.600000
30
-1.515544
0
VERTEX
8
0
6
CONTINUOUS
62
252
70
192
10
57.401465
20
-1.600000
30
-1.644462
0
VERTEX
8
0
6
CONTINUOUS
62
252
70
192
10
57.696116
20
-1.600000
30
-1.723414
0
VERTEX
8
0
6
CONTINUOUS
62
252
70
192
10
58.000000
20
-1.600000
30
-1.750000
0
VERTEX
8
0
6
CONTINUOUS
62
252
70
192
10
58.303884
20
-1.600000
30
-1.723414
0
VERTEX
8
0
6
CONTINUOUS
62
252
70
192
10
58.598535
20
-1.600000
30
-1.644462
0
VERTEX
8
0
6
CONTINUOUS
62
252
70
192
10
58.875000
20
-1.600000
30
-1.515544
0
VERTEX
8
0
6
CONTINUOUS
62
252
70
192
10
59.124878
20
-1.600000
30
-1.340578
0
VERTEX
8
0
6
CONTINUOUS
62
252
70
192
10
59.340578
20
-1.600000
30
-1.124878
0
VERTEX
8
0
6
CONTINUOUS
62
252
70
192
10
59.515544
20
-1.600000
30
-0.875000
0
VERTEX
8
0
6
CONTINUOUS
62
252
70
192
10
59.644462
20
-1.600000
30
-0.598535
0
VERTEX
8
0
6
CONTINUOUS
62
252
70
192
10
59.723414
20
-1.600000
30
-0.303884
0
VERTEX
8
0
6
CONTINUOUS
62
252
70
128
10
0.000000
20
0.000000
30
0.000000
71
36
72
1
73
37
0
VERTEX
8
0
6
CONTINUOUS
62
252
70
128
10
0.000000
20
0.000000
30
0.000000
71
37
72
1
73
2
0
VERTEX
8
0
6
CONTINUOUS
62
252
70
128
10
0.000000
20
0.000000
30
0.000000
71
37
72
2
73
72
0
VERTEX
8
0
6
CONTINUOUS
62
252
70
128
10
0.000000
20
0.000000
30
0.000000
71
72
72
2
73
71
0
VERTEX
8
0
6
CONTINUOUS
62
252
70
128
10
0.000000
20
0.000000
30
0.000000
71
71
72
2
73
3
0
VERTEX
8
0
6
CONTINUOUS
62
252
70
128
10
0.000000
20
0.000000
30
0.000000
71
71
72
3
73
70
0
VERTEX
8
0
6
CONTINUOUS
62
252
70
128
10
0.000000
20
0.000000
30
0.000000
71
70
72
3
73
4
0
VERTEX
8
0
6
CONTINUOUS
62
252
70
128
10
0.000000
20
0.000000
30
0.000000
71
70
72
4
73
69
0
VERTEX
8
0
6
CONTINUOUS
62
252
70
128
10
0.000000
20
0.000000
30
0.000000
71
69
72
4
73
5
0
VERTEX
8
0
6
CONTINUOUS
62
252
70
128
10
0.000000
20
0.000000
30
0.000000
71
69
72
5
73
68
0
VERTEX
8
0
6
CONTINUOUS
62
252
70
128
10
0.000000
20
0.000000
30
0.000000
71
68
72
5
73
6
0
VERTEX
8
0
6
CONTINUOUS
62
252
70
128
10
0.000000
20
0.000000
30
0.000000
71
68
72
6
73
67
0
VERTEX
8
0
6
CONTINUOUS
62
252
70
128
10
0.000000
20
0.000000
30
0.000000
71
67
72
6
73
7
0
VERTEX
8
0
6
CONTINUOUS
62
252
70
128
10
0.000000
20
0.000000
30
0.000000
71
67
72
7
73
66
0
VERTEX
8
0
6
CONTINUOUS
62
252
70
128
10
0.000000
20
0.000000
30
0.000000
71
66
72
7
73
8
0
VERTEX
8
0
6
CONTINUOUS
62
252
70
128
10
0.000000
20
0.000000
30
0.000000
71
66
72
8
73
65
0
VERTEX
8
0
6
CONTINUOUS
62
252
70
128
10
0.000000
20
0.000000
30
0.000000
71
65
72
8
73
9
0
VERTEX
8
0
6
CONTINUOUS
62
252
70
128
10
0.000000
20
0.000000
30
0.000000
71
65
72
9
73
64
0
VERTEX
8
0
6
CONTINUOUS
62
252
70
128
10
0.000000
20
0.000000
30
0.000000
71
64
72
9
73
10
0
VERTEX
8
0
6
CONTINUOUS
62
252
70
128
10
0.000000
20
0.000000
30
0.000000
71
64
72
10
73
63
0
VERTEX
8
0
6
CONTINUOUS
62
252
70
128
10
0.000000
20
0.000000
30
0.000000
71
63
72
10
73
11
0
VERTEX
8
0
6
CONTINUOUS
62
252
70
128
10
0.000000
20
0.000000
30
0.000000
71
63
72
11
73
62
0
VERTEX
8
0
6
CONTINUOUS
62
252
70
128
10
0.000000
20
0.000000
30
0.000000
71
62
72
11
73
12
0
VERTEX
8
0
6
CONTINUOUS
62
252
70
128
10
0.000000
20
0.000000
30
0.000000
71
62
72
12
73
61
0
VERTEX
8
0
6
CONTINUOUS
62
252
70
128
10
0.000000
20
0.000000
30
0.000000
71
61
72
12
73
13
0
VERTEX
8
0
6
CONTINUOUS
62
252
70
128
10
0.000000
20
0.000000
30
0.000000
71
61
72
13
73
60
0
VERTEX
8
0
6
CONTINUOUS
62
252
70
128
10
0.000000
20
0.000000
30
0.000000
71
60
72
13
73
14
0
VERTEX
8
0
6
CONTINUOUS
62
252
70
128
10
0.000000
20
0.000000
30
0.000000
71
60
72
14
73
59
0
VERTEX
8
0
6
CONTINUOUS
62
252
70
128
10
0.000000
20
0.000000
30
0.000000
71
59
72
14
73
15
0
VERTEX
8
0
6
CONTINUOUS
62
252
70
128
10
0.000000
20
0.000000
30
0.000000
71
59
72
15
73
58
0
VERTEX
8
0
6
CONTINUOUS
62
252
70
128
10
0.000000
20
0.000000
30
0.000000
71
58
72
15
73
16
0
VERTEX
8
0
6
CONTINUOUS
62
252
70
128
10
0.000000
20
0.000000
30
0.000000
71
58
72
16
73
57
0
VERTEX
8
0
6
CONTINUOUS
62
252
70
128
10
0.000000
20
0.000000
30
0.000000
71
57
72
16
73
17
0
VERTEX
8
0
6
CONTINUOUS
62
252
70
128
10
0.000000
20
0.000000
30
0.000000
71
57
72
17
73
56
0
VERTEX
8
0
6
CONTINUOUS
62
252
70
128
10
0.000000
20
0.000000
30
0.000000
71
56
72
17
73
18
0
VERTEX
8
0
6
CONTINUOUS
62
252
70
128
10
0.000000
20
0.000000
30
0.000000
71
56
72
18
73
55
0
VERTEX
8
0
6
CONTINUOUS
62
252
70
128
10
0.000000
20
0.000000
30
0.000000
71
55
72
18
73
19
0
VERTEX
8
0
6
CONTINUOUS
62
252
70
128
10
0.000000
20
0.000000
30
0.000000
71
55
72
19
73
54
0
VERTEX
8
0
6
CONTINUOUS
62
252
70
128
10
0.000000
20
0.000000
30
0.000000
71
54
72
19
73
20
0
VERTEX
8
0
6
CONTINUOUS
62
252
70
128
10
0.000000
20
0.000000
30
0.000000
71
54
72
20
73
53
0
VERTEX
8
0
6
CONTINUOUS
62
252
70
128
10
0.000000
20
0.000000
30
0.000000
71
53
72
20
73
21
0
VERTEX
8
0
6
CONTINUOUS
62
252
70
128
10
0.000000
20
0.000000
30
0.000000
71
53
72
21
73
52
0
VERTEX
8
0
6
CONTINUOUS
62
252
70
128
10
0.000000
20
0.000000
30
0.000000
71
52
72
21
73
22
0
VERTEX
8
0
6
CONTINUOUS
62
252
70
128
10
0.000000
20
0.000000
30
0.000000
71
52
72
22
73
51
0
VERTEX
8
0
6
CONTINUOUS
62
252
70
128
10
0.000000
20
0.000000
30
0.000000
71
51
72
22
73
23
0
VERTEX
8
0
6
CONTINUOUS
62
252
70
128
10
0.000000
20
0.000000
30
0.000000
71
51
72
23
73
50
0
VERTEX
8
0
6
CONTINUOUS
62
252
70
128
10
0.000000
20
0.000000
30
0.000000
71
50
72
23
73
24
0
VERTEX
8
0
6
CONTINUOUS
62
252
70
128
10
0.000000
20
0.000000
30
0.000000
71
50
72
24
73
49
0
VERTEX
8
0
6
CONTINUOUS
62
252
70
128
10
0.000000
20
0.000000
30
0.000000
71
49
72
24
73
25
0
VERTEX
8
0
6
CONTINUOUS
62
252
70
128
10
0.000000
20
0.000000
30
0.000000
71
49
72
25
73
48
0
VERTEX
8
0
6
CONTINUOUS
62
252
70
128
10
0.000000
20
0.000000
30
0.000000
71
48
72
25
73
26
0
VERTEX
8
0
6
CONTINUOUS
62
252
70
128
10
0.000000
20
0.000000
30
0.000000
71
48
72
26
73
47
0
VERTEX
8
0
6
CONTINUOUS
62
252
70
128
10
0.000000
20
0.000000
30
0.000000
71
47
72
26
73
27
0
VERTEX
8
0
6
CONTINUOUS
62
252
70
128
10
0.000000
20
0.000000
30
0.000000
71
47
72
27
73
46
0
VERTEX
8
0
6
CONTINUOUS
62
252
70
128
10
0.000000
20
0.000000
30
0.000000
71
46
72
27
73
28
0
VERTEX
8
0
6
CONTINUOUS
62
252
70
128
10
0.000000
20
0.000000
30
0.000000
71
46
72
28
73
45
0
VERTEX
8
0
6
CONTINUOUS
62
252
70
128
10
0.000000
20
0.000000
30
0.000000
71
45
72
28
73
29
0
VERTEX
8
0
6
CONTINUOUS
62
252
70
128
10
0.000000
20
0.000000
30
0.000000
71
45
72
29
73
44
0
VERTEX
8
0
6
CONTINUOUS
62
252
70
128
10
0.000000
20
0.000000
30
0.000000
71
44
72
29
73
30
0
VERTEX
8
0
6
CONTINUOUS
62
252
70
128
10
0.000000
20
0.000000
30
0.000000
71
44
72
30
73
43
0
VERTEX
8
0
6
CONTINUOUS
62
252
70
128
10
0.000000
20
0.000000
30
0.000000
71
43
72
30
73
31
0
VERTEX
8
0
6
CONTINUOUS
62
252
70
128
10
0.000000
20
0.000000
30
0.000000
71
43
72
31
73
42
0
VERTEX
8
0
6
CONTINUOUS
62
252
70
128
10
0.000000
20
0.000000
30
0.000000
71
42
72
31
73
32
0
VERTEX
8
0
6
CONTINUOUS
62
252
70
128
10
0.000000
20
0.000000
30
0.000000
71
42
72
32
73
41
0
VERTEX
8
0
6
CONTINUOUS
62
252
70
128
10
0.000000
20
0.000000
30
0.000000
71
41
72
32
73
33
0
VERTEX
8
0
6
CONTINUOUS
62
252
70
128
10
0.000000
20
0.000000
30
0.000000
71
41
72
33
73
40
0
VERTEX
8
0
6
CONTINUOUS
62
252
70
128
10
0.000000
20
0.000000
30
0.000000
71
40
72
33
73
34
0
VERTEX
8
0
6
CONTINUOUS
62
252
70
128
10
0.000000
20
0.000000
30
0.000000
71
40
72
34
73
39
0
VERTEX
8
0
6
CONTINUOUS
62
252
70
128
10
0.000000
20
0.000000
30
0.000000
71
39
72
34
73
35
0
VERTEX
8
0
6
CONTINUOUS
62
252
70
128
10
0.000000
20
0.000000
30
0.000000
71
39
72
35
73
38
0
VERTEX
8
0
6
CONTINUOUS
62
252
70
128
10
0.000000
20
0.000000
30
0.000000
71
38
72
35
73
36
0
VERTEX
8
0
6
CONTINUOUS
62
252
70
128
10
0.000000
20
0.000000
30
0.000000
71
38
72
36
73
37
0
SEQEND
0
POLYLINE
66
1
8
0
6
CONTINUOUS
62
252
70
64
75
0
10
0.000000
20
0.000000
30
0.000000
0
VERTEX
8
0
6
CONTINUOUS
62
252
70
192
10
1.750000
20
0.000000
30
98.000000
0
VERTEX
8
0
6
CONTINUOUS
62
252
70
192
10
1.723414
20
0.000000
30
97.696116
0
VERTEX
8
0
6
CONTINUOUS
62
252
70
192
10
1.644462
20
0.000000
30
97.401465
0
VERTEX
8
0
6
CONTINUOUS
62
252
70
192
10
1.515544
20
0.000000
30
97.125000
0
VERTEX
8
0
6
CONTINUOUS
62
252
70
192
10
1.340578
20
0.000000
30
96.875122
0
VERTEX
8
0
6
CONTINUOUS
62
252
70
192
10
1.124878
20
0.000000
30
96.659422
0
VERTEX
8
0
6
CONTINUOUS
62
252
70
192
10
0.875000
20
0.000000
30
96.484456
0
VERTEX
8
0
6
CONTINUOUS
62
252
70
192
10
0.598535
20
0.000000
30
96.355538
0
VERTEX
8
0
6
CONTINUOUS
62
252
70
192
10
0.303884
20
0.000000
30
96.276586
0
VERTEX
8
0
6
CONTINUOUS
62
252
70
192
10
-0.000000
20
0.000000
30
96.250000
0
VERTEX
8
0
6
CONTINUOUS
62
252
70
192
10
-0.303884
20
0.000000
30
96.276586
0
VERTEX
8
0
6
CONTINUOUS
62
252
70
192
10
-0.598535
20
0.000000
30
96.355538
0
VERTEX
8
0
6
CONTINUOUS
62
252
70
192
10
-0.875000
20
0.000000
30
96.484456
0
VERTEX
8
0
6
CONTINUOUS
62
252
70
192
10
-1.124878
20
0.000000
30
96.659422
0
VERTEX
8
0
6
CONTINUOUS
62
252
70
192
10
-1.340578
20
0.000000
30
96.875122
0
VERTEX
8
0
6
CONTINUOUS
62
252
70
192
10
-1.515544
20
0.000000
30
97.125000
0
VERTEX
8
0
6
CONTINUOUS
62
252
70
192
10
-1.644462
20
0.000000
30
97.401465
0
VERTEX
8
0
6
CONTINUOUS
62
252
70
192
10
-1.723414
20
0.000000
30
97.696116
0
VERTEX
8
0
6
CONTINUOUS
62
252
70
192
10
-1.750000
20
0.000000
30
98.000000
0
VERTEX
8
0
6
CONTINUOUS
62
252
70
192
10
-1.723414
20
0.000000
30
98.303884
0
VERTEX
8
0
6
CONTINUOUS
62
252
70
192
10
-1.644462
20
0.000000
30
98.598535
0
VERTEX
8
0
6
CONTINUOUS
62
252
70
192
10
-1.515544
20
0.000000
30
98.875000
0
VERTEX
8
0
6
CONTINUOUS
62
252
70
192
10
-1.340578
20
0.000000
30
99.124878
0
VERTEX
8
0
6
CONTINUOUS
62
252
70
192
10
-1.124878
20
0.000000
30
99.340578
0
VERTEX
8
0
6
CONTINUOUS
62
252
70
192
10
-0.875000
20
0.000000
30
99.515544
0
VERTEX
8
0
6
CONTINUOUS
62
252
70
192
10
-0.598535
20
0.000000
30
99.644462
0
VERTEX
8
0
6
CONTINUOUS
62
252
70
192
10
-0.303884
20
0.000000
30
99.723414
0
VERTEX
8
0
6
CONTINUOUS
62
252
70
192
10
0.000000
20
0.000000
30
99.750000
0
VERTEX
8
0
6
CONTINUOUS
62
252
70
192
10
0.303884
20
0.000000
30
99.723414
0
VERTEX
8
0
6
CONTINUOUS
62
252
70
192
10
0.598535
20
0.000000
30
99.644462
0
VERTEX
8
0
6
CONTINUOUS
62
252
70
192
10
0.875000
20
0.000000
30
99.515544
0
VERTEX
8
0
6
CONTINUOUS
62
252
70
192
10
1.124878
20
0.000000
30
99.340578
0
VERTEX
8
0
6
CONTINUOUS
62
252
70
192
10
1.340578
20
0.000000
30
99.124878
0
VERTEX
8
0
6
CONTINUOUS
62
252
70
192
10
1.515544
20
0.000000
30
98.875000
0
VERTEX
8
0
6
CONTINUOUS
62
252
70
192
10
1.644462
20
0.000000
30
98.598535
0
VERTEX
8
0
6
CONTINUOUS
62
252
70
192
10
1.723414
20
0.000000
30
98.303884
0
VERTEX
8
0
6
CONTINUOUS
62
252
70
192
10
1.750000
20
-1.600000
30
98.000000
0
VERTEX
8
0
6
CONTINUOUS
62
252
70
192
10
1.723414
20
-1.600000
30
98.303884
0
VERTEX
8
0
6
CONTINUOUS
62
252
70
192
10
1.644462
20
-1.600000
30
98.598535
0
VERTEX
8
0
6
CONTINUOUS
62
252
70
192
10
1.515544
20
-1.600000
30
98.875000
0
VERTEX
8
0
6
CONTINUOUS
62
252
70
192
10
1.340578
20
-1.600000
30
99.124878
0
VERTEX
8
0
6
CONTINUOUS
62
252
70
192
10
1.124878
20
-1.600000
30
99.340578
0
VERTEX
8
0
6
CONTINUOUS
62
252
70
192
10
0.875000
20
-1.600000
30
99.515544
0
VERTEX
8
0
6
CONTINUOUS
62
252
70
192
10
0.598535
20
-1.600000
30
99.644462
0
VERTEX
8
0
6
CONTINUOUS
62
252
70
192
10
0.303884
20
-1.600000
30
99.723414
0
VERTEX
8
0
6
CONTINUOUS
62
252
70
192
10
-0.000000
20
-1.600000
30
99.750000
0
VERTEX
8
0
6
CONTINUOUS
62
252
70
192
10
-0.303884
20
-1.600000
30
99.723414
0
VERTEX
8
0
6
CONTINUOUS
62
252
70
192
10
-0.598535
20
-1.600000
30
99.644462
0
VERTEX
8
0
6
CONTINUOUS
62
252
70
192
10
-0.875000
20
-1.600000
30
99.515544
0
VERTEX
8
0
6
CONTINUOUS
62
252
70
192
10
-1.124878
20
-1.600000
30
99.340578
0
VERTEX
8
0
6
CONTINUOUS
62
252
70
192
10
-1.340578
20
-1.600000
30
99.124878
0
VERTEX
8
0
6
CONTINUOUS
62
252
70
192
10
-1.515544
20
-1.600000
30
98.875000
0
VERTEX
8
0
6
CONTINUOUS
62
252
70
192
10
-1.644462
20
-1.600000
30
98.598535
0
VERTEX
8
0
6
CONTINUOUS
62
252
70
192
10
-1.723414
20
-1.600000
30
98.303884
0
VERTEX
8
0
6
CONTINUOUS
62
252
70
192
10
-1.750000
20
-1.600000
30
98.000000
0
VERTEX
8
0
6
CONTINUOUS
62
252
70
192
10
-1.723414
20
-1.600000
30
97.696116
0
VERTEX
8
0
6
CONTINUOUS
62
252
70
192
10
-1.644462
20
-1.600000
30
97.401465
0
VERTEX
8
0
6
CONTINUOUS
62
252
70
192
10
-1.515544
20
-1.600000
30
97.125000
0
VERTEX
8
0
6
CONTINUOUS
62
252
70
192
10
-1.340578
20
-1.600000
30
96.875122
0
VERTEX
8
0
6
CONTINUOUS
62
252
70
192
10
-1.124878
20
-1.600000
30
96.659422
0
VERTEX
8
0
6
CONTINUOUS
62
252
70
192
10
-0.875000
20
-1.600000
30
96.484456
0
VERTEX
8
0
6
CONTINUOUS
62
252
70
192
10
-0.598535
20
-1.600000
30
96.355538
0
VERTEX
8
0
6
CONTINUOUS
62
252
70
192
10
-0.303884
20
-1.600000
30
96.276586
0
VERTEX
8
0
6
CONTINUOUS
62
252
70
192
10
0.000000
20
-1.600000
30
96.250000
0
VERTEX
8
0
6
CONTINUOUS
62
252
70
192
10
0.303884
20
-1.600000
30
96.276586
0
VERTEX
8
0
6
CONTINUOUS
62
252
70
192
10
0.598535
20
-1.600000
30
96.355538
0
VERTEX
8
0
6
CONTINUOUS
62
252
70
192
10
0.875000
20
-1.600000
30
96.484456
0
VERTEX
8
0
6
CONTINUOUS
62
252
70
192
10
1.124878
20
-1.600000
30
96.659422
0
VERTEX
8
0
6
CONTINUOUS
62
252
70
192
10
1.340578
20
-1.600000
30
96.875122
0
VERTEX
8
0
6
CONTINUOUS
62
252
70
192
10
1.515544
20
-1.600000
30
97.125000
0
VERTEX
8
0
6
CONTINUOUS
62
252
70
192
10
1.644462
20
-1.600000
30
97.401465
0
VERTEX
8
0
6
CONTINUOUS
62
252
70
192
10
1.723414
20
-1.600000
30
97.696116
0
VERTEX
8
0
6
CONTINUOUS
62
252
70
128
10
0.000000
20
0.000000
30
0.000000
71
36
72
1
73
37
0
VERTEX
8
0
6
CONTINUOUS
62
252
70
128
10
0.000000
20
0.000000
30
0.000000
71
37
72
1
73
2
0
VERTEX
8
0
6
CONTINUOUS
62
252
70
128
10
0.000000
20
0.000000
30
0.000000
71
37
72
2
73
72
0
VERTEX
8
0
6
CONTINUOUS
62
252
70
128
10
0.000000
20
0.000000
30
0.000000
71
72
72
2
73
3
0
VERTEX
8
0
6
CONTINUOUS
62
252
70
128
10
0.000000
20
0.000000
30
0.000000
71
72
72
3
73
71
0
VERTEX
8
0
6
CONTINUOUS
62
252
70
128
10
0.000000
20
0.000000
30
0.000000
71
71
72
3
73
70
0
VERTEX
8
0
6
CONTINUOUS
62
252
70
128
10
0.000000
20
0.000000
30
0.000000
71
70
72
3
73
4
0
VERTEX
8
0
6
CONTINUOUS
62
252
70
128
10
0.000000
20
0.000000
30
0.000000
71
70
72
4
73
5
0
VERTEX
8
0
6
CONTINUOUS
62
252
70
128
10
0.000000
20
0.000000
30
0.000000
71
6
72
68
73
5
0
VERTEX
8
0
6
CONTINUOUS
62
252
70
128
10
0.000000
20
0.000000
30
0.000000
71
5
72
68
73
69
0
VERTEX
8
0
6
CONTINUOUS
62
252
70
128
10
0.000000
20
0.000000
30
0.000000
71
5
72
69
73
70
0
VERTEX
8
0
6
CONTINUOUS
62
252
70
128
10
0.000000
20
0.000000
30
0.000000
71
68
72
6
73
67
0
VERTEX
8
0
6
CONTINUOUS
62
252
70
128
10
0.000000
20
0.000000
30
0.000000
71
67
72
6
73
7
0
VERTEX
8
0
6
CONTINUOUS
62
252
70
128
10
0.000000
20
0.000000
30
0.000000
71
67
72
7
73
66
0
VERTEX
8
0
6
CONTINUOUS
62
252
70
128
10
0.000000
20
0.000000
30
0.000000
71
66
72
7
73
8
0
VERTEX
8
0
6
CONTINUOUS
62
252
70
128
10
0.000000
20
0.000000
30
0.000000
71
66
72
8
73
65
0
VERTEX
8
0
6
CONTINUOUS
62
252
70
128
10
0.000000
20
0.000000
30
0.000000
71
65
72
8
73
9
0
VERTEX
8
0
6
CONTINUOUS
62
252
70
128
10
0.000000
20
0.000000
30
0.000000
71
65
72
9
73
64
0
VERTEX
8
0
6
CONTINUOUS
62
252
70
128
10
0.000000
20
0.000000
30
0.000000
71
64
72
9
73
10
0
VERTEX
8
0
6
CONTINUOUS
62
252
70
128
10
0.000000
20
0.000000
30
0.000000
71
64
72
10
73
63
0
VERTEX
8
0
6
CONTINUOUS
62
252
70
128
10
0.000000
20
0.000000
30
0.000000
71
63
72
10
73
11
0
VERTEX
8
0
6
CONTINUOUS
62
252
70
128
10
0.000000
20
0.000000
30
0.000000
71
63
72
11
73
62
0
VERTEX
8
0
6
CONTINUOUS
62
252
70
128
10
0.000000
20
0.000000
30
0.000000
71
62
72
11
73
12
0
VERTEX
8
0
6
CONTINUOUS
62
252
70
128
10
0.000000
20
0.000000
30
0.000000
71
62
72
12
73
61
0
VERTEX
8
0
6
CONTINUOUS
62
252
70
128
10
0.000000
20
0.000000
30
0.000000
71
61
72
12
73
13
0
VERTEX
8
0
6
CONTINUOUS
62
252
70
128
10
0.000000
20
0.000000
30
0.000000
71
61
72
13
73
60
0
VERTEX
8
0
6
CONTINUOUS
62
252
70
128
10
0.000000
20
0.000000
30
0.000000
71
60
72
13
73
14
0
VERTEX
8
0
6
CONTINUOUS
62
252
70
128
10
0.000000
20
0.000000
30
0.000000
71
60
72
14
73
59
0
VERTEX
8
0
6
CONTINUOUS
62
252
70
128
10
0.000000
20
0.000000
30
0.000000
71
59
72
14
73
15
0
VERTEX
8
0
6
CONTINUOUS
62
252
70
128
10
0.000000
20
0.000000
30
0.000000
71
59
72
15
73
16
0
VERTEX
8
0
6
CONTINUOUS
62
252
70
128
10
0.000000
20
0.000000
30
0.000000
71
17
72
57
73
16
0
VERTEX
8
0
6
CONTINUOUS
62
252
70
128
10
0.000000
20
0.000000
30
0.000000
71
16
72
57
73
58
0
VERTEX
8
0
6
CONTINUOUS
62
252
70
128
10
0.000000
20
0.000000
30
0.000000
71
16
72
58
73
59
0
VERTEX
8
0
6
CONTINUOUS
62
252
70
128
10
0.000000
20
0.000000
30
0.000000
71
57
72
17
73
56
0
VERTEX
8
0
6
CONTINUOUS
62
252
70
128
10
0.000000
20
0.000000
30
0.000000
71
56
72
17
73
18
0
VERTEX
8
0
6
CONTINUOUS
62
252
70
128
10
0.000000
20
0.000000
30
0.000000
71
56
72
18
73
55
0
VERTEX
8
0
6
CONTINUOUS
62
252
70
128
10
0.000000
20
0.000000
30
0.000000
71
55
72
18
73
19
0
VERTEX
8
0
6
CONTINUOUS
62
252
70
128
10
0.000000
20
0.000000
30
0.000000
71
55
72
19
73
54
0
VERTEX
8
0
6
CONTINUOUS
62
252
70
128
10
0.000000
20
0.000000
30
0.000000
71
54
72
19
73
20
0
VERTEX
8
0
6
CONTINUOUS
62
252
70
128
10
0.000000
20
0.000000
30
0.000000
71
54
72
20
73
53
0
VERTEX
8
0
6
CONTINUOUS
62
252
70
128
10
0.000000
20
0.000000
30
0.000000
71
53
72
20
73
21
0
VERTEX
8
0
6
CONTINUOUS
62
252
70
128
10
0.000000
20
0.000000
30
0.000000
71
53
72
21
73
52
0
VERTEX
8
0
6
CONTINUOUS
62
252
70
128
10
0.000000
20
0.000000
30
0.000000
71
52
72
21
73
22
0
VERTEX
8
0
6
CONTINUOUS
62
252
70
128
10
0.000000
20
0.000000
30
0.000000
71
52
72
22
73
23
0
VERTEX
8
0
6
CONTINUOUS
62
252
70
128
10
0.000000
20
0.000000
30
0.000000
71
24
72
50
73
23
0
VERTEX
8
0
6
CONTINUOUS
62
252
70
128
10
0.000000
20
0.000000
30
0.000000
71
23
72
50
73
51
0
VERTEX
8
0
6
CONTINUOUS
62
252
70
128
10
0.000000
20
0.000000
30
0.000000
71
23
72
51
73
52
0
VERTEX
8
0
6
CONTINUOUS
62
252
70
128
10
0.000000
20
0.000000
30
0.000000
71
50
72
24
73
49
0
VERTEX
8
0
6
CONTINUOUS
62
252
70
128
10
0.000000
20
0.000000
30
0.000000
71
49
72
24
73
25
0
VERTEX
8
0
6
CONTINUOUS
62
252
70
128
10
0.000000
20
0.000000
30
0.000000
71
49
72
25
73
48
0
VERTEX
8
0
6
CONTINUOUS
62
252
70
128
10
0.000000
20
0.000000
30
0.000000
71
48
72
25
73
26
0
VERTEX
8
0
6
CONTINUOUS
62
252
70
128
10
0.000000
20
0.000000
30
0.000000
71
48
72
26
73
47
0
VERTEX
8
0
6
CONTINUOUS
62
252
70
128
10
0.000000
20
0.000000
30
0.000000
71
47
72
26
73
27
0
VERTEX
8
0
6
CONTINUOUS
62
252
70
128
10
0.000000
20
0.000000
30
0.000000
71
47
72
27
73
46
0
VERTEX
8
0
6
CONTINUOUS
62
252
70
128
10
0.000000
20
0.000000
30
0.000000
71
46
72
27
73
28
0
VERTEX
8
0
6
CONTINUOUS
62
252
70
128
10
0.000000
20
0.000000
30
0.000000
71
46
72
28
73
45
0
VERTEX
8
0
6
CONTINUOUS
62
252
70
128
10
0.000000
20
0.000000
30
0.000000
71
45
72
28
73
29
0
VERTEX
8
0
6
CONTINUOUS
62
252
70
128
10
0.000000
20
0.000000
30
0.000000
71
45
72
29
73
44
0
VERTEX
8
0
6
CONTINUOUS
62
252
70
128
10
0.000000
20
0.000000
30
0.000000
71
44
72
29
73
30
0
VERTEX
8
0
6
CONTINUOUS
62
252
70
128
10
0.000000
20
0.000000
30
0.000000
71
44
72
30
73
43
0
VERTEX
8
0
6
CONTINUOUS
62
252
70
128
10
0.000000
20
0.000000
30
0.000000
71
43
72
30
73
31
0
VERTEX
8
0
6
CONTINUOUS
62
252
70
128
10
0.000000
20
0.000000
30
0.000000
71
43
72
31
73
42
0
VERTEX
8
0
6
CONTINUOUS
62
252
70
128
10
0.000000
20
0.000000
30
0.000000
71
42
72
31
73
32
0
VERTEX
8
0
6
CONTINUOUS
62
252
70
128
10
0.000000
20
0.000000
30
0.000000
71
42
72
32
73
41
0
VERTEX
8
0
6
CONTINUOUS
62
252
70
128
10
0.000000
20
0.000000
30
0.000000
71
41
72
32
73
33
0
VERTEX
8
0
6
CONTINUOUS
62
252
70
128
10
0.000000
20
0.000000
30
0.000000
71
41
72
33
73
34
0
VERTEX
8
0
6
CONTINUOUS
62
252
70
128
10
0.000000
20
0.000000
30
0.000000
71
35
72
39
73
34
0
VERTEX
8
0
6
CONTINUOUS
62
252
70
128
10
0.000000
20
0.000000
30
0.000000
71
34
72
39
73
40
0
VERTEX
8
0
6
CONTINUOUS
62
252
70
128
10
0.000000
20
0.000000
30
0.000000
71
34
72
40
73
41
0
VERTEX
8
0
6
CONTINUOUS
62
252
70
128
10
0.000000
20
0.000000
30
0.000000
71
35
72
36
73
39
0
VERTEX
8
0
6
CONTINUOUS
62
252
70
128
10
0.000000
20
0.000000
30
0.000000
71
39
72
36
73
38
0
VERTEX
8
0
6
CONTINUOUS
62
252
70
128
10
0.000000
20
0.000000
30
0.000000
71
38
72
36
73
37
0
SEQEND
0
POLYLINE
66
1
8
0
6
CONTINUOUS
62
252
70
64
75
0
10
0.000000
20
0.000000
30
0.000000
0
VERTEX
8
0
6
CONTINUOUS
62
252
70
192
10
1.750000
20
0.000000
30
0.000000
0
VERTEX
8
0
6
CONTINUOUS
62
252
70
192
10
1.723414
20
-0.000000
30
-0.303884
0
VERTEX
8
0
6
CONTINUOUS
62
252
70
192
10
1.644462
20
-0.000000
30
-0.598535
0
VERTEX
8
0
6
CONTINUOUS
62
252
70
192
10
1.515544
20
-0.000000
30
-0.875000
0
VERTEX
8
0
6
CONTINUOUS
62
252
70
192
10
1.340578
20
-0.000000
30
-1.124878
0
VERTEX
8
0
6
CONTINUOUS
62
252
70
192
10
1.124878
20
-0.000000
30
-1.340578
0
VERTEX
8
0
6
CONTINUOUS
62
252
70
192
10
0.875000
20
-0.000000
30
-1.515544
0
VERTEX
8
0
6
CONTINUOUS
62
252
70
192
10
0.598535
20
-0.000000
30
-1.644462
0
VERTEX
8
0
6
CONTINUOUS
62
252
70
192
10
0.303884
20
-0.000000
30
-1.723414
0
VERTEX
8
0
6
CONTINUOUS
62
252
70
192
10
-0.000000
20
-0.000000
30
-1.750000
0
VERTEX
8
0
6
CONTINUOUS
62
252
70
192
10
-0.303884
20
-0.000000
30
-1.723414
0
VERTEX
8
0
6
CONTINUOUS
62
252
70
192
10
-0.598535
20
-0.000000
30
-1.644462
0
VERTEX
8
0
6
CONTINUOUS
62
252
70
192
10
-0.875000
20
-0.000000
30
-1.515544
0
VERTEX
8
0
6
CONTINUOUS
62
252
70
192
10
-1.124878
20
-0.000000
30
-1.340578
0
VERTEX
8
0
6
CONTINUOUS
62
252
70
192
10
-1.340578
20
-0.000000
30
-1.124878
0
VERTEX
8
0
6
CONTINUOUS
62
252
70
192
10
-1.515544
20
-0.000000
30
-0.875000
0
VERTEX
8
0
6
CONTINUOUS
62
252
70
192
10
-1.644462
20
-0.000000
30
-0.598535
0
VERTEX
8
0
6
CONTINUOUS
62
252
70
192
10
-1.723414
20
-0.000000
30
-0.303884
0
VERTEX
8
0
6
CONTINUOUS
62
252
70
192
10
-1.750000
20
-0.000000
30
0.000000
0
VERTEX
8
0
6
CONTINUOUS
62
252
70
192
10
-1.723414
20
-0.000000
30
0.303884
0
VERTEX
8
0
6
CONTINUOUS
62
252
70
192
10
-1.644462
20
-0.000000
30
0.598535
0
VERTEX
8
0
6
CONTINUOUS
62
252
70
192
10
-1.515544
20
-0.000000
30
0.875000
0
VERTEX
8
0
6
CONTINUOUS
62
252
70
192
10
-1.340578
20
-0.000000
30
1.124878
0
VERTEX
8
0
6
CONTINUOUS
62
252
70
192
10
-1.124878
20
-0.000000
30
1.340578
0
VERTEX
8
0
6
CONTINUOUS
62
252
70
192
10
-0.875000
20
-0.000000
30
1.515544
0
VERTEX
8
0
6
CONTINUOUS
62
252
70
192
10
-0.598535
20
-0.000000
30
1.644462
0
VERTEX
8
0
6
CONTINUOUS
62
252
70
192
10
-0.303884
20
-0.000000
30
1.723414
0
VERTEX
8
0
6
CONTINUOUS
62
252
70
192
10
0.000000
20
-0.000000
30
1.750000
0
VERTEX
8
0
6
CONTINUOUS
62
252
70
192
10
0.303884
20
-0.000000
30
1.723414
0
VERTEX
8
0
6
CONTINUOUS
62
252
70
192
10
0.598535
20
-0.000000
30
1.644462
0
VERTEX
8
0
6
CONTINUOUS
62
252
70
192
10
0.875000
20
-0.000000
30
1.515544
0
VERTEX
8
0
6
CONTINUOUS
62
252
70
192
10
1.124878
20
-0.000000
30
1.340578
0
VERTEX
8
0
6
CONTINUOUS
62
252
70
192
10
1.340578
20
-0.000000
30
1.124878
0
VERTEX
8
0
6
CONTINUOUS
62
252
70
192
10
1.515544
20
-0.000000
30
0.875000
0
VERTEX
8
0
6
CONTINUOUS
62
252
70
192
10
1.644462
20
-0.000000
30
0.598535
0
VERTEX
8
0
6
CONTINUOUS
62
252
70
192
10
1.723414
20
-0.000000
30
0.303884
0
VERTEX
8
0
6
CONTINUOUS
62
252
70
192
10
1.750000
20
-1.600000
30
0.000000
0
VERTEX
8
0
6
CONTINUOUS
62
252
70
192
10
1.723414
20
-1.600000
30
0.303884
0
VERTEX
8
0
6
CONTINUOUS
62
252
70
192
10
1.644462
20
-1.600000
30
0.598535
0
VERTEX
8
0
6
CONTINUOUS
62
252
70
192
10
1.515544
20
-1.600000
30
0.875000
0
VERTEX
8
0
6
CONTINUOUS
62
252
70
192
10
1.340578
20
-1.600000
30
1.124878
0
VERTEX
8
0
6
CONTINUOUS
62
252
70
192
10
1.124878
20
-1.600000
30
1.340578
0
VERTEX
8
0
6
CONTINUOUS
62
252
70
192
10
0.875000
20
-1.600000
30
1.515544
0
VERTEX
8
0
6
CONTINUOUS
62
252
70
192
10
0.598535
20
-1.600000
30
1.644462
0
VERTEX
8
0
6
CONTINUOUS
62
252
70
192
10
0.303884
20
-1.600000
30
1.723414
0
VERTEX
8
0
6
CONTINUOUS
62
252
70
192
10
-0.000000
20
-1.600000
30
1.750000
0
VERTEX
8
0
6
CONTINUOUS
62
252
70
192
10
-0.303884
20
-1.600000
30
1.723414
0
VERTEX
8
0
6
CONTINUOUS
62
252
70
192
10
-0.598535
20
-1.600000
30
1.644462
0
VERTEX
8
0
6
CONTINUOUS
62
252
70
192
10
-0.875000
20
-1.600000
30
1.515544
0
VERTEX
8
0
6
CONTINUOUS
62
252
70
192
10
-1.124878
20
-1.600000
30
1.340578
0
VERTEX
8
0
6
CONTINUOUS
62
252
70
192
10
-1.340578
20
-1.600000
30
1.124878
0
VERTEX
8
0
6
CONTINUOUS
62
252
70
192
10
-1.515544
20
-1.600000
30
0.875000
0
VERTEX
8
0
6
CONTINUOUS
62
252
70
192
10
-1.644462
20
-1.600000
30
0.598535
0
VERTEX
8
0
6
CONTINUOUS
62
252
70
192
10
-1.723414
20
-1.600000
30
0.303884
0
VERTEX
8
0
6
CONTINUOUS
62
252
70
192
10
-1.750000
20
-1.600000
30
-0.000000
0
VERTEX
8
0
6
CONTINUOUS
62
252
70
192
10
-1.723414
20
-1.600000
30
-0.303884
0
VERTEX
8
0
6
CONTINUOUS
62
252
70
192
10
-1.644462
20
-1.600000
30
-0.598535
0
VERTEX
8
0
6
CONTINUOUS
62
252
70
192
10
-1.515544
20
-1.600000
30
-0.875000
0
VERTEX
8
0
6
CONTINUOUS
62
252
70
192
10
-1.340578
20
-1.600000
30
-1.124878
0
VERTEX
8
0
6
CONTINUOUS
62
252
70
192
10
-1.124878
20
-1.600000
30
-1.340578
0
VERTEX
8
0
6
CONTINUOUS
62
252
70
192
10
-0.875000
20
-1.600000
30
-1.515544
0
VERTEX
8
0
6
CONTINUOUS
62
252
70
192
10
-0.598535
20
-1.600000
30
-1.644462
0
VERTEX
8
0
6
CONTINUOUS
62
252
70
192
10
-0.303884
20
-1.600000
30
-1.723414
0
VERTEX
8
0
6
CONTINUOUS
62
252
70
192
10
0.000000
20
-1.600000
30
-1.750000
0
VERTEX
8
0
6
CONTINUOUS
62
252
70
192
10
0.303884
20
-1.600000
30
-1.723414
0
VERTEX
8
0
6
CONTINUOUS
62
252
70
192
10
0.598535
20
-1.600000
30
-1.644462
0
VERTEX
8
0
6
CONTINUOUS
62
252
70
192
10
0.875000
20
-1.600000
30
-1.515544
0
VERTEX
8
0
6
CONTINUOUS
62
252
70
192
10
1.124878
20
-1.600000
30
-1.340578
0
VERTEX
8
0
6
CONTINUOUS
62
252
70
192
10
1.340578
20
-1.600000
30
-1.124878
0
VERTEX
8
0
6
CONTINUOUS
62
252
70
192
10
1.515544
20
-1.600000
30
-0.875000
0
VERTEX
8
0
6
CONTINUOUS
62
252
70
192
10
1.644462
20
-1.600000
30
-0.598535
0
VERTEX
8
0
6
CONTINUOUS
62
252
70
192
10
1.723414
20
-1.600000
30
-0.303884
0
VERTEX
8
0
6
CONTINUOUS
62
252
70
128
10
0.000000
20
0.000000
30
0.000000
71
36
72
1
73
37
0
VERTEX
8
0
6
CONTINUOUS
62
252
70
128
10
0.000000
20
0.000000
30
0.000000
71
37
72
1
73
2
0
VERTEX
8
0
6
CONTINUOUS
62
252
70
128
10
0.000000
20
0.000000
30
0.000000
71
37
72
2
73
72
0
VERTEX
8
0
6
CONTINUOUS
62
252
70
128
10
0.000000
20
0.000000
30
0.000000
71
72
72
2
73
71
0
VERTEX
8
0
6
CONTINUOUS
62
252
70
128
10
0.000000
20
0.000000
30
0.000000
71
71
72
2
73
3
0
VERTEX
8
0
6
CONTINUOUS
62
252
70
128
10
0.000000
20
0.000000
30
0.000000
71
71
72
3
73
70
0
VERTEX
8
0
6
CONTINUOUS
62
252
70
128
10
0.000000
20
0.000000
30
0.000000
71
70
72
3
73
4
0
VERTEX
8
0
6
CONTINUOUS
62
252
70
128
10
0.000000
20
0.000000
30
0.000000
71
70
72
4
73
69
0
VERTEX
8
0
6
CONTINUOUS
62
252
70
128
10
0.000000
20
0.000000
30
0.000000
71
69
72
4
73
5
0
VERTEX
8
0
6
CONTINUOUS
62
252
70
128
10
0.000000
20
0.000000
30
0.000000
71
69
72
5
73
68
0
VERTEX
8
0
6
CONTINUOUS
62
252
70
128
10
0.000000
20
0.000000
30
0.000000
71
68
72
5
73
6
0
VERTEX
8
0
6
CONTINUOUS
62
252
70
128
10
0.000000
20
0.000000
30
0.000000
71
68
72
6
73
67
0
VERTEX
8
0
6
CONTINUOUS
62
252
70
128
10
0.000000
20
0.000000
30
0.000000
71
67
72
6
73
7
0
VERTEX
8
0
6
CONTINUOUS
62
252
70
128
10
0.000000
20
0.000000
30
0.000000
71
67
72
7
73
66
0
VERTEX
8
0
6
CONTINUOUS
62
252
70
128
10
0.000000
20
0.000000
30
0.000000
71
66
72
7
73
8
0
VERTEX
8
0
6
CONTINUOUS
62
252
70
128
10
0.000000
20
0.000000
30
0.000000
71
66
72
8
73
65
0
VERTEX
8
0
6
CONTINUOUS
62
252
70
128
10
0.000000
20
0.000000
30
0.000000
71
65
72
8
73
9
0
VERTEX
8
0
6
CONTINUOUS
62
252
70
128
10
0.000000
20
0.000000
30
0.000000
71
65
72
9
73
64
0
VERTEX
8
0
6
CONTINUOUS
62
252
70
128
10
0.000000
20
0.000000
30
0.000000
71
64
72
9
73
10
0
VERTEX
8
0
6
CONTINUOUS
62
252
70
128
10
0.000000
20
0.000000
30
0.000000
71
64
72
10
73
63
0
VERTEX
8
0
6
CONTINUOUS
62
252
70
128
10
0.000000
20
0.000000
30
0.000000
71
63
72
10
73
11
0
VERTEX
8
0
6
CONTINUOUS
62
252
70
128
10
0.000000
20
0.000000
30
0.000000
71
63
72
11
73
62
0
VERTEX
8
0
6
CONTINUOUS
62
252
70
128
10
0.000000
20
0.000000
30
0.000000
71
62
72
11
73
12
0
VERTEX
8
0
6
CONTINUOUS
62
252
70
128
10
0.000000
20
0.000000
30
0.000000
71
62
72
12
73
61
0
VERTEX
8
0
6
CONTINUOUS
62
252
70
128
10
0.000000
20
0.000000
30
0.000000
71
61
72
12
73
13
0
VERTEX
8
0
6
CONTINUOUS
62
252
70
128
10
0.000000
20
0.000000
30
0.000000
71
61
72
13
73
60
0
VERTEX
8
0
6
CONTINUOUS
62
252
70
128
10
0.000000
20
0.000000
30
0.000000
71
60
72
13
73
14
0
VERTEX
8
0
6
CONTINUOUS
62
252
70
128
10
0.000000
20
0.000000
30
0.000000
71
60
72
14
73
59
0
VERTEX
8
0
6
CONTINUOUS
62
252
70
128
10
0.000000
20
0.000000
30
0.000000
71
59
72
14
73
15
0
VERTEX
8
0
6
CONTINUOUS
62
252
70
128
10
0.000000
20
0.000000
30
0.000000
71
59
72
15
73
58
0
VERTEX
8
0
6
CONTINUOUS
62
252
70
128
10
0.000000
20
0.000000
30
0.000000
71
58
72
15
73
16
0
VERTEX
8
0
6
CONTINUOUS
62
252
70
128
10
0.000000
20
0.000000
30
0.000000
71
58
72
16
73
57
0
VERTEX
8
0
6
CONTINUOUS
62
252
70
128
10
0.000000
20
0.000000
30
0.000000
71
57
72
16
73
17
0
VERTEX
8
0
6
CONTINUOUS
62
252
70
128
10
0.000000
20
0.000000
30
0.000000
71
57
72
17
73
56
0
VERTEX
8
0
6
CONTINUOUS
62
252
70
128
10
0.000000
20
0.000000
30
0.000000
71
56
72
17
73
18
0
VERTEX
8
0
6
CONTINUOUS
62
252
70
128
10
0.000000
20
0.000000
30
0.000000
71
56
72
18
73
55
0
VERTEX
8
0
6
CONTINUOUS
62
252
70
128
10
0.000000
20
0.000000
30
0.000000
71
55
72
18
73
19
0
VERTEX
8
0
6
CONTINUOUS
62
252
70
128
10
0.000000
20
0.000000
30
0.000000
71
55
72
19
73
54
0
VERTEX
8
0
6
CONTINUOUS
62
252
70
128
10
0.000000
20
0.000000
30
0.000000
71
54
72
19
73
20
0
VERTEX
8
0
6
CONTINUOUS
62
252
70
128
10
0.000000
20
0.000000
30
0.000000
71
54
72
20
73
53
0
VERTEX
8
0
6
CONTINUOUS
62
252
70
128
10
0.000000
20
0.000000
30
0.000000
71
53
72
20
73
21
0
VERTEX
8
0
6
CONTINUOUS
62
252
70
128
10
0.000000
20
0.000000
30
0.000000
71
53
72
21
73
52
0
VERTEX
8
0
6
CONTINUOUS
62
252
70
128
10
0.000000
20
0.000000
30
0.000000
71
52
72
21
73
22
0
VERTEX
8
0
6
CONTINUOUS
62
252
70
128
10
0.000000
20
0.000000
30
0.000000
71
52
72
22
73
23
0
VERTEX
8
0
6
CONTINUOUS
62
252
70
128
10
0.000000
20
0.000000
30
0.000000
71
24
72
50
73
23
0
VERTEX
8
0
6
CONTINUOUS
62
252
70
128
10
0.000000
20
0.000000
30
0.000000
71
23
72
50
73
51
0
VERTEX
8
0
6
CONTINUOUS
62
252
70
128
10
0.000000
20
0.000000
30
0.000000
71
23
72
51
73
52
0
VERTEX
8
0
6
CONTINUOUS
62
252
70
128
10
0.000000
20
0.000000
30
0.000000
71
50
72
24
73
49
0
VERTEX
8
0
6
CONTINUOUS
62
252
70
128
10
0.000000
20
0.000000
30
0.000000
71
49
72
24
73
25
0
VERTEX
8
0
6
CONTINUOUS
62
252
70
128
10
0.000000
20
0.000000
30
0.000000
71
49
72
25
73
48
0
VERTEX
8
0
6
CONTINUOUS
62
252
70
128
10
0.000000
20
0.000000
30
0.000000
71
48
72
25
73
26
0
VERTEX
8
0
6
CONTINUOUS
62
252
70
128
10
0.000000
20
0.000000
30
0.000000
71
48
72
26
73
47
0
VERTEX
8
0
6
CONTINUOUS
62
252
70
128
10
0.000000
20
0.000000
30
0.000000
71
47
72
26
73
27
0
VERTEX
8
0
6
CONTINUOUS
62
252
70
128
10
0.000000
20
0.000000
30
0.000000
71
47
72
27
73
46
0
VERTEX
8
0
6
CONTINUOUS
62
252
70
128
10
0.000000
20
0.000000
30
0.000000
71
46
72
27
73
28
0
VERTEX
8
0
6
CONTINUOUS
62
252
70
128
10
0.000000
20
0.000000
30
0.000000
71
46
72
28
73
45
0
VERTEX
8
0
6
CONTINUOUS
62
252
70
128
10
0.000000
20
0.000000
30
0.000000
71
45
72
28
73
29
0
VERTEX
8
0
6
CONTINUOUS
62
252
70
128
10
0.000000
20
0.000000
30
0.000000
71
45
72
29
73
44
0
VERTEX
8
0
6
CONTINUOUS
62
252
70
128
10
0.000000
20
0.000000
30
0.000000
71
44
72
29
73
30
0
VERTEX
8
0
6
CONTINUOUS
62
252
70
128
10
0.000000
20
0.000000
30
0.000000
71
44
72
30
73
43
0
VERTEX
8
0
6
CONTINUOUS
62
252
70
128
10
0.000000
20
0.000000
30
0.000000
71
43
72
30
73
31
0
VERTEX
8
0
6
CONTINUOUS
62
252
70
128
10
0.000000
20
0.000000
30
0.000000
71
43
72
31
73
42
0
VERTEX
8
0
6
CONTINUOUS
62
252
70
128
10
0.000000
20
0.000000
30
0.000000
71
42
72
31
73
32
0
VERTEX
8
0
6
CONTINUOUS
62
252
70
128
10
0.000000
20
0.000000
30
0.000000
71
42
72
32
73
41
0
VERTEX
8
0
6
CONTINUOUS
62
252
70
128
10
0.000000
20
0.000000
30
0.000000
71
41
72
32
73
33
0
VERTEX
8
0
6
CONTINUOUS
62
252
70
128
10
0.000000
20
0.000000
30
0.000000
71
41
72
33
73
40
0
VERTEX
8
0
6
CONTINUOUS
62
252
70
128
10
0.000000
20
0.000000
30
0.000000
71
40
72
33
73
34
0
VERTEX
8
0
6
CONTINUOUS
62
252
70
128
10
0.000000
20
0.000000
30
0.000000
71
40
72
34
73
39
0
VERTEX
8
0
6
CONTINUOUS
62
252
70
128
10
0.000000
20
0.000000
30
0.000000
71
39
72
34
73
35
0
VERTEX
8
0
6
CONTINUOUS
62
252
70
128
10
0.000000
20
0.000000
30
0.000000
71
39
72
35
73
38
0
VERTEX
8
0
6
CONTINUOUS
62
252
70
128
10
0.000000
20
0.000000
30
0.000000
71
38
72
35
73
36
0
VERTEX
8
0
6
CONTINUOUS
62
252
70
128
10
0.000000
20
0.000000
30
0.000000
71
38
72
36
73
37
0
SEQEND
0
POLYLINE
66
1
8
0
6
CONTINUOUS
62
252
70
64
75
0
10
0.000000
20
0.000000
30
0.000000
0
VERTEX
8
0
6
CONTINUOUS
62
252
70
192
10
81.500000
20
-1.600000
30
101.500000
0
VERTEX
8
0
6
CONTINUOUS
62
252
70
192
10
81.500000
20
0.000000
30
101.500000
0
VERTEX
8
0
6
CONTINUOUS
62
252
70
192
10
-3.500000
20
0.000000
30
101.500000
0
VERTEX
8
0
6
CONTINUOUS
62
252
70
192
10
-3.500000
20
-1.600000
30
101.500000
0
VERTEX
8
0
6
CONTINUOUS
62
252
70
128
10
0.000000
20
0.000000
30
0.000000
71
2
72
3
73
1
0
VERTEX
8
0
6
CONTINUOUS
62
252
70
128
10
0.000000
20
0.000000
30
0.000000
71
1
72
3
73
4
0
SEQEND
0
POLYLINE
66
1
8
0
6
CONTINUOUS
62
252
70
64
75
0
10
0.000000
20
0.000000
30
0.000000
0
VERTEX
8
0
6
CONTINUOUS
62
252
70
192
10
-3.500000
20
-1.600000
30
-3.500000
0
VERTEX
8
0
6
CONTINUOUS
62
252
70
192
10
-3.500000
20
0.000000
30
-3.500000
0
VERTEX
8
0
6
CONTINUOUS
62
252
70
192
10
81.500000
20
0.000000
30
-3.500000
0
VERTEX
8
0
6
CONTINUOUS
62
252
70
192
10
81.500000
20
-1.600000
30
-3.500000
0
VERTEX
8
0
6
CONTINUOUS
62
252
70
128
10
0.000000
20
0.000000
30
0.000000
71
2
72
3
73
1
0
VERTEX
8
0
6
CONTINUOUS
62
252
70
128
10
0.000000
20
0.000000
30
0.000000
71
1
72
3
73
4
0
SEQEND
0
POLYLINE
66
1
8
0
6
CONTINUOUS
62
252
70
64
75
0
10
0.000000
20
0.000000
30
0.000000
0
VERTEX
8
0
6
CONTINUOUS
62
252
70
192
10
-3.500000
20
-1.600000
30
51.150000
0
VERTEX
8
0
6
CONTINUOUS
62
252
70
192
10
-3.500000
20
-1.600000
30
101.500000
0
VERTEX
8
0
6
CONTINUOUS
62
252
70
192
10
-3.500000
20
0.000000
30
101.500000
0
VERTEX
8
0
6
CONTINUOUS
62
252
70
192
10
-3.500000
20
0.000000
30
-3.500000
0
VERTEX
8
0
6
CONTINUOUS
62
252
70
192
10
-3.500000
20
-1.600000
30
-3.500000
0
VERTEX
8
0
6
CONTINUOUS
62
252
70
192
10
-3.500000
20
-1.600000
30
23.850000
0
VERTEX
8
0
6
CONTINUOUS
62
252
70
128
10
0.000000
20
0.000000
30
0.000000
71
2
72
3
73
1
0
VERTEX
8
0
6
CONTINUOUS
62
252
70
128
10
0.000000
20
0.000000
30
0.000000
71
1
72
3
73
4
0
VERTEX
8
0
6
CONTINUOUS
62
252
70
128
10
0.000000
20
0.000000
30
0.000000
71
1
72
4
73
6
0
VERTEX
8
0
6
CONTINUOUS
62
252
70
128
10
0.000000
20
0.000000
30
0.000000
71
6
72
4
73
5
0
SEQEND
0
POLYLINE
66
1
8
0
6
CONTINUOUS
62
252
70
64
75
0
10
0.000000
20
0.000000
30
0.000000
0
VERTEX
8
0
6
CONTINUOUS
62
252
70
192
10
2.250000
20
0.000000
30
59.600000
0
VERTEX
8
0
6
CONTINUOUS
62
252
70
192
10
2.223414
20
0.000000
30
59.903884
0
VERTEX
8
0
6
CONTINUOUS
62
252
70
192
10
2.144462
20
0.000000
30
60.198535
0
VERTEX
8
0
6
CONTINUOUS
62
252
70
192
10
2.015544
20
0.000000
30
60.475000
0
VERTEX
8
0
6
CONTINUOUS
62
252
70
192
10
1.840578
20
0.000000
30
60.724878
0
VERTEX
8
0
6
CONTINUOUS
62
252
70
192
10
1.624878
20
0.000000
30
60.940578
0
VERTEX
8
0
6
CONTINUOUS
62
252
70
192
10
1.375000
20
0.000000
30
61.115544
0
VERTEX
8
0
6
CONTINUOUS
62
252
70
192
10
1.098535
20
0.000000
30
61.244462
0
VERTEX
8
0
6
CONTINUOUS
62
252
70
192
10
0.803884
20
0.000000
30
61.323414
0
VERTEX
8
0
6
CONTINUOUS
62
252
70
192
10
0.500000
20
0.000000
30
61.350000
0
VERTEX
8
0
6
CONTINUOUS
62
252
70
192
10
0.196116
20
0.000000
30
61.323414
0
VERTEX
8
0
6
CONTINUOUS
62
252
70
192
10
-0.098535
20
0.000000
30
61.244462
0
VERTEX
8
0
6
CONTINUOUS
62
252
70
192
10
-0.375000
20
0.000000
30
61.115544
0
VERTEX
8
0
6
CONTINUOUS
62
252
70
192
10
-0.624878
20
0.000000
30
60.940578
0
VERTEX
8
0
6
CONTINUOUS
62
252
70
192
10
-0.840578
20
0.000000
30
60.724878
0
VERTEX
8
0
6
CONTINUOUS
62
252
70
192
10
-1.015544
20
0.000000
30
60.475000
0
VERTEX
8
0
6
CONTINUOUS
62
252
70
192
10
-1.144462
20
0.000000
30
60.198535
0
VERTEX
8
0
6
CONTINUOUS
62
252
70
192
10
-1.223414
20
0.000000
30
59.903884
0
VERTEX
8
0
6
CONTINUOUS
62
252
70
192
10
-1.250000
20
0.000000
30
59.600000
0
VERTEX
8
0
6
CONTINUOUS
62
252
70
192
10
-1.223414
20
0.000000
30
59.296116
0
VERTEX
8
0
6
CONTINUOUS
62
252
70
192
10
-1.144462
20
0.000000
30
59.001465
0
VERTEX
8
0
6
CONTINUOUS
62
252
70
192
10
-1.015544
20
0.000000
30
58.725000
0
VERTEX
8
0
6
CONTINUOUS
62
252
70
192
10
-0.840578
20
0.000000
30
58.475122
0
VERTEX
8
0
6
CONTINUOUS
62
252
70
192
10
-0.624878
20
0.000000
30
58.259422
0
VERTEX
8
0
6
CONTINUOUS
62
252
70
192
10
-0.375000
20
0.000000
30
58.084456
0
VERTEX
8
0
6
CONTINUOUS
62
252
70
192
10
-0.098535
20
0.000000
30
57.955538
0
VERTEX
8
0
6
CONTINUOUS
62
252
70
192
10
0.196116
20
0.000000
30
57.876586
0
VERTEX
8
0
6
CONTINUOUS
62
252
70
192
10
0.500000
20
0.000000
30
57.850000
0
VERTEX
8
0
6
CONTINUOUS
62
252
70
192
10
0.803884
20
0.000000
30
57.876586
0
VERTEX
8
0
6
CONTINUOUS
62
252
70
192
10
1.098535
20
0.000000
30
57.955538
0
VERTEX
8
0
6
CONTINUOUS
62
252
70
192
10
1.375000
20
0.000000
30
58.084456
0
VERTEX
8
0
6
CONTINUOUS
62
252
70
192
10
1.624878
20
0.000000
30
58.259422
0
VERTEX
8
0
6
CONTINUOUS
62
252
70
192
10
1.840578
20
0.000000
30
58.475122
0
VERTEX
8
0
6
CONTINUOUS
62
252
70
192
10
2.015544
20
0.000000
30
58.725000
0
VERTEX
8
0
6
CONTINUOUS
62
252
70
192
10
2.144462
20
0.000000
30
59.001465
0
VERTEX
8
0
6
CONTINUOUS
62
252
70
192
10
2.223414
20
0.000000
30
59.296116
0
VERTEX
8
0
6
CONTINUOUS
62
252
70
192
10
79.750000
20
0.000000
30
98.000000
0
VERTEX
8
0
6
CONTINUOUS
62
252
70
192
10
79.723414
20
0.000000
30
98.303884
0
VERTEX
8
0
6
CONTINUOUS
62
252
70
192
10
79.644462
20
0.000000
30
98.598535
0
VERTEX
8
0
6
CONTINUOUS
62
252
70
192
10
79.515544
20
0.000000
30
98.875000
0
VERTEX
8
0
6
CONTINUOUS
62
252
70
192
10
79.340578
20
0.000000
30
99.124878
0
VERTEX
8
0
6
CONTINUOUS
62
252
70
192
10
79.124878
20
0.000000
30
99.340578
0
VERTEX
8
0
6
CONTINUOUS
62
252
70
192
10
78.875000
20
0.000000
30
99.515544
0
VERTEX
8
0
6
CONTINUOUS
62
252
70
192
10
78.598535
20
0.000000
30
99.644462
0
VERTEX
8
0
6
CONTINUOUS
62
252
70
192
10
78.303884
20
0.000000
30
99.723414
0
VERTEX
8
0
6
CONTINUOUS
62
252
70
192
10
78.000000
20
0.000000
30
99.750000
0
VERTEX
8
0
6
CONTINUOUS
62
252
70
192
10
77.696116
20
0.000000
30
99.723414
0
VERTEX
8
0
6
CONTINUOUS
62
252
70
192
10
77.401465
20
0.000000
30
99.644462
0
VERTEX
8
0
6
CONTINUOUS
62
252
70
192
10
77.125000
20
0.000000
30
99.515544
0
VERTEX
8
0
6
CONTINUOUS
62
252
70
192
10
76.875122
20
0.000000
30
99.340578
0
VERTEX
8
0
6
CONTINUOUS
62
252
70
192
10
76.659422
20
0.000000
30
99.124878
0
VERTEX
8
0
6
CONTINUOUS
62
252
70
192
10
76.484456
20
0.000000
30
98.875000
0
VERTEX
8
0
6
CONTINUOUS
62
252
70
192
10
76.355538
20
0.000000
30
98.598535
0
VERTEX
8
0
6
CONTINUOUS
62
252
70
192
10
76.276586
20
0.000000
30
98.303884
0
VERTEX
8
0
6
CONTINUOUS
62
252
70
192
10
76.250000
20
0.000000
30
98.000000
0
VERTEX
8
0
6
CONTINUOUS
62
252
70
192
10
76.276586
20
0.000000
30
97.696116
0
VERTEX
8
0
6
CONTINUOUS
62
252
70
192
10
76.355538
20
0.000000
30
97.401465
0
VERTEX
8
0
6
CONTINUOUS
62
252
70
192
10
76.484456
20
0.000000
30
97.125000
0
VERTEX
8
0
6
CONTINUOUS
62
252
70
192
10
76.659422
20
0.000000
30
96.875122
0
VERTEX
8
0
6
CONTINUOUS
62
252
70
192
10
76.875122
20
0.000000
30
96.659422
0
VERTEX
8
0
6
CONTINUOUS
62
252
70
192
10
77.125000
20
0.000000
30
96.484456
0
VERTEX
8
0
6
CONTINUOUS
62
252
70
192
10
77.401465
20
0.000000
30
96.355538
0
VERTEX
8
0
6
CONTINUOUS
62
252
70
192
10
77.696116
20
0.000000
30
96.276586
0
VERTEX
8
0
6
CONTINUOUS
62
252
70
192
10
78.000000
20
0.000000
30
96.250000
0
VERTEX
8
0
6
CONTINUOUS
62
252
70
192
10
78.303884
20
0.000000
30
96.276586
0
VERTEX
8
0
6
CONTINUOUS
62
252
70
192
10
78.598535
20
0.000000
30
96.355538
0
VERTEX
8
0
6
CONTINUOUS
62
252
70
192
10
78.875000
20
0.000000
30
96.484456
0
VERTEX
8
0
6
CONTINUOUS
62
252
70
192
10
79.124878
20
0.000000
30
96.659422
0
VERTEX
8
0
6
CONTINUOUS
62
252
70
192
10
79.340578
20
0.000000
30
96.875122
0
VERTEX
8
0
6
CONTINUOUS
62
252
70
192
10
79.515544
20
0.000000
30
97.125000
0
VERTEX
8
0
6
CONTINUOUS
62
252
70
192
10
79.644462
20
0.000000
30
97.401465
0
VERTEX
8
0
6
CONTINUOUS
62
252
70
192
10
79.723414
20
0.000000
30
97.696116
0
VERTEX
8
0
6
CONTINUOUS
62
252
70
192
10
79.750000
20
0.000000
30
0.000000
0
VERTEX
8
0
6
CONTINUOUS
62
252
70
192
10
79.723414
20
-0.000000
30
0.303884
0
VERTEX
8
0
6
CONTINUOUS
62
252
70
192
10
79.644462
20
-0.000000
30
0.598535
0
VERTEX
8
0
6
CONTINUOUS
62
252
70
192
10
79.515544
20
-0.000000
30
0.875000
0
VERTEX
8
0
6
CONTINUOUS
62
252
70
192
10
79.340578
20
-0.000000
30
1.124878
0
VERTEX
8
0
6
CONTINUOUS
62
252
70
192
10
79.124878
20
-0.000000
30
1.340578
0
VERTEX
8
0
6
CONTINUOUS
62
252
70
192
10
78.875000
20
-0.000000
30
1.515544
0
VERTEX
8
0
6
CONTINUOUS
62
252
70
192
10
78.598535
20
-0.000000
30
1.644462
0
VERTEX
8
0
6
CONTINUOUS
62
252
70
192
10
78.303884
20
-0.000000
30
1.723414
0
VERTEX
8
0
6
CONTINUOUS
62
252
70
192
10
78.000000
20
-0.000000
30
1.750000
0
VERTEX
8
0
6
CONTINUOUS
62
252
70
192
10
77.696116
20
-0.000000
30
1.723414
0
VERTEX
8
0
6
CONTINUOUS
62
252
70
192
10
77.401465
20
-0.000000
30
1.644462
0
VERTEX
8
0
6
CONTINUOUS
62
252
70
192
10
77.125000
20
-0.000000
30
1.515544
0
VERTEX
8
0
6
CONTINUOUS
62
252
70
192
10
76.875122
20
-0.000000
30
1.340578
0
VERTEX
8
0
6
CONTINUOUS
62
252
70
192
10
76.659422
20
-0.000000
30
1.124878
0
VERTEX
8
0
6
CONTINUOUS
62
252
70
192
10
76.484456
20
-0.000000
30
0.875000
0
VERTEX
8
0
6
CONTINUOUS
62
252
70
192
10
76.355538
20
-0.000000
30
0.598535
0
VERTEX
8
0
6
CONTINUOUS
62
252
70
192
10
76.276586
20
-0.000000
30
0.303884
0
VERTEX
8
0
6
CONTINUOUS
62
252
70
192
10
76.250000
20
-0.000000
30
0.000000
0
VERTEX
8
0
6
CONTINUOUS
62
252
70
192
10
76.276586
20
-0.000000
30
-0.303884
0
VERTEX
8
0
6
CONTINUOUS
62
252
70
192
10
76.355538
20
-0.000000
30
-0.598535
0
VERTEX
8
0
6
CONTINUOUS
62
252
70
192
10
76.484456
20
-0.000000
30
-0.875000
0
VERTEX
8
0
6
CONTINUOUS
62
252
70
192
10
76.659422
20
-0.000000
30
-1.124878
0
VERTEX
8
0
6
CONTINUOUS
62
252
70
192
10
76.875122
20
-0.000000
30
-1.340578
0
VERTEX
8
0
6
CONTINUOUS
62
252
70
192
10
77.125000
20
-0.000000
30
-1.515544
0
VERTEX
8
0
6
CONTINUOUS
62
252
70
192
10
77.401465
20
-0.000000
30
-1.644462
0
VERTEX
8
0
6
CONTINUOUS
62
252
70
192
10
77.696116
20
-0.000000
30
-1.723414
0
VERTEX
8
0
6
CONTINUOUS
62
252
70
192
10
78.000000
20
-0.000000
30
-1.750000
0
VERTEX
8
0
6
CONTINUOUS
62
252
70
192
10
78.303884
20
-0.000000
30
-1.723414
0
VERTEX
8
0
6
CONTINUOUS
62
252
70
192
10
78.598535
20
-0.000000
30
-1.644462
0
VERTEX
8
0
6
CONTINUOUS
62
252
70
192
10
78.875000
20
-0.000000
30
-1.515544
0
VERTEX
8
0
6
CONTINUOUS
62
252
70
192
10
79.124878
20
-0.000000
30
-1.340578
0
VERTEX
8
0
6
CONTINUOUS
62
252
70
192
10
79.340578
20
-0.000000
30
-1.124878
0
VERTEX
8
0
6
CONTINUOUS
62
252
70
192
10
79.515544
20
-0.000000
30
-0.875000
0
VERTEX
8
0
6
CONTINUOUS
62
252
70
192
10
79.644462
20
-0.000000
30
-0.598535
0
VERTEX
8
0
6
CONTINUOUS
62
252
70
192
10
79.723414
20
-0.000000
30
-0.303884
0
VERTEX
8
0
6
CONTINUOUS
62
252
70
192
10
59.750000
20
0.000000
30
98.000000
0
VERTEX
8
0
6
CONTINUOUS
62
252
70
192
10
59.723414
20
0.000000
30
98.303884
0
VERTEX
8
0
6
CONTINUOUS
62
252
70
192
10
59.644462
20
0.000000
30
98.598535
0
VERTEX
8
0
6
CONTINUOUS
62
252
70
192
10
59.515544
20
0.000000
30
98.875000
0
VERTEX
8
0
6
CONTINUOUS
62
252
70
192
10
59.340578
20
0.000000
30
99.124878
0
VERTEX
8
0
6
CONTINUOUS
62
252
70
192
10
59.124878
20
0.000000
30
99.340578
0
VERTEX
8
0
6
CONTINUOUS
62
252
70
192
10
58.875000
20
0.000000
30
99.515544
0
VERTEX
8
0
6
CONTINUOUS
62
252
70
192
10
58.598535
20
0.000000
30
99.644462
0
VERTEX
8
0
6
CONTINUOUS
62
252
70
192
10
58.303884
20
0.000000
30
99.723414
0
VERTEX
8
0
6
CONTINUOUS
62
252
70
192
10
58.000000
20
0.000000
30
99.750000
0
VERTEX
8
0
6
CONTINUOUS
62
252
70
192
10
57.696116
20
0.000000
30
99.723414
0
VERTEX
8
0
6
CONTINUOUS
62
252
70
192
10
57.401465
20
0.000000
30
99.644462
0
VERTEX
8
0
6
CONTINUOUS
62
252
70
192
10
57.125000
20
0.000000
30
99.515544
0
VERTEX
8
0
6
CONTINUOUS
62
252
70
192
10
56.875122
20
0.000000
30
99.340578
0
VERTEX
8
0
6
CONTINUOUS
62
252
70
192
10
56.659422
20
0.000000
30
99.124878
0
VERTEX
8
0
6
CONTINUOUS
62
252
70
192
10
56.484456
20
0.000000
30
98.875000
0
VERTEX
8
0
6
CONTINUOUS
62
252
70
192
10
56.355538
20
0.000000
30
98.598535
0
VERTEX
8
0
6
CONTINUOUS
62
252
70
192
10
56.276586
20
0.000000
30
98.303884
0
VERTEX
8
0
6
CONTINUOUS
62
252
70
192
10
56.250000
20
0.000000
30
98.000000
0
VERTEX
8
0
6
CONTINUOUS
62
252
70
192
10
56.276586
20
0.000000
30
97.696116
0
VERTEX
8
0
6
CONTINUOUS
62
252
70
192
10
56.355538
20
0.000000
30
97.401465
0
VERTEX
8
0
6
CONTINUOUS
62
252
70
192
10
56.484456
20
0.000000
30
97.125000
0
VERTEX
8
0
6
CONTINUOUS
62
252
70
192
10
56.659422
20
0.000000
30
96.875122
0
VERTEX
8
0
6
CONTINUOUS
62
252
70
192
10
56.875122
20
0.000000
30
96.659422
0
VERTEX
8
0
6
CONTINUOUS
62
252
70
192
10
57.125000
20
0.000000
30
96.484456
0
VERTEX
8
0
6
CONTINUOUS
62
252
70
192
10
57.401465
20
0.000000
30
96.355538
0
VERTEX
8
0
6
CONTINUOUS
62
252
70
192
10
57.696116
20
0.000000
30
96.276586
0
VERTEX
8
0
6
CONTINUOUS
62
252
70
192
10
58.000000
20
0.000000
30
96.250000
0
VERTEX
8
0
6
CONTINUOUS
62
252
70
192
10
58.303884
20
0.000000
30
96.276586
0
VERTEX
8
0
6
CONTINUOUS
62
252
70
192
10
58.598535
20
0.000000
30
96.355538
0
VERTEX
8
0
6
CONTINUOUS
62
252
70
192
10
58.875000
20
0.000000
30
96.484456
0
VERTEX
8
0
6
CONTINUOUS
62
252
70
192
10
59.124878
20
0.000000
30
96.659422
0
VERTEX
8
0
6
CONTINUOUS
62
252
70
192
10
59.340578
20
0.000000
30
96.875122
0
VERTEX
8
0
6
CONTINUOUS
62
252
70
192
10
59.515544
20
0.000000
30
97.125000
0
VERTEX
8
0
6
CONTINUOUS
62
252
70
192
10
59.644462
20
0.000000
30
97.401465
0
VERTEX
8
0
6
CONTINUOUS
62
252
70
192
10
59.723414
20
0.000000
30
97.696116
0
VERTEX
8
0
6
CONTINUOUS
62
252
70
192
10
59.750000
20
0.000000
30
0.000000
0
VERTEX
8
0
6
CONTINUOUS
62
252
70
192
10
59.723414
20
-0.000000
30
0.303884
0
VERTEX
8
0
6
CONTINUOUS
62
252
70
192
10
59.644462
20
-0.000000
30
0.598535
0
VERTEX
8
0
6
CONTINUOUS
62
252
70
192
10
59.515544
20
-0.000000
30
0.875000
0
VERTEX
8
0
6
CONTINUOUS
62
252
70
192
10
59.340578
20
-0.000000
30
1.124878
0
VERTEX
8
0
6
CONTINUOUS
62
252
70
192
10
59.124878
20
-0.000000
30
1.340578
0
VERTEX
8
0
6
CONTINUOUS
62
252
70
192
10
58.875000
20
-0.000000
30
1.515544
0
VERTEX
8
0
6
CONTINUOUS
62
252
70
192
10
58.598535
20
-0.000000
30
1.644462
0
VERTEX
8
0
6
CONTINUOUS
62
252
70
192
10
58.303884
20
-0.000000
30
1.723414
0
VERTEX
8
0
6
CONTINUOUS
62
252
70
192
10
58.000000
20
-0.000000
30
1.750000
0
VERTEX
8
0
6
CONTINUOUS
62
252
70
192
10
57.696116
20
-0.000000
30
1.723414
0
VERTEX
8
0
6
CONTINUOUS
62
252
70
192
10
57.401465
20
-0.000000
30
1.644462
0
VERTEX
8
0
6
CONTINUOUS
62
252
70
192
10
57.125000
20
-0.000000
30
1.515544
0
VERTEX
8
0
6
CONTINUOUS
62
252
70
192
10
56.875122
20
-0.000000
30
1.340578
0
VERTEX
8
0
6
CONTINUOUS
62
252
70
192
10
56.659422
20
-0.000000
30
1.124878
0
VERTEX
8
0
6
CONTINUOUS
62
252
70
192
10
56.484456
20
-0.000000
30
0.875000
0
VERTEX
8
0
6
CONTINUOUS
62
252
70
192
10
56.355538
20
-0.000000
30
0.598535
0
VERTEX
8
0
6
CONTINUOUS
62
252
70
192
10
56.276586
20
-0.000000
30
0.303884
0
VERTEX
8
0
6
CONTINUOUS
62
252
70
192
10
56.250000
20
-0.000000
30
0.000000
0
VERTEX
8
0
6
CONTINUOUS
62
252
70
192
10
56.276586
20
-0.000000
30
-0.303884
0
VERTEX
8
0
6
CONTINUOUS
62
252
70
192
10
56.355538
20
-0.000000
30
-0.598535
0
VERTEX
8
0
6
CONTINUOUS
62
252
70
192
10
56.484456
20
-0.000000
30
-0.875000
0
VERTEX
8
0
6
CONTINUOUS
62
252
70
192
10
56.659422
20
-0.000000
30
-1.124878
0
VERTEX
8
0
6
CONTINUOUS
62
252
70
192
10
56.875122
20
-0.000000
30
-1.340578
0
VERTEX
8
0
6
CONTINUOUS
62
252
70
192
10
57.125000
20
-0.000000
30
-1.515544
0
VERTEX
8
0
6
CONTINUOUS
62
252
70
192
10
57.401465
20
-0.000000
30
-1.644462
0
VERTEX
8
0
6
CONTINUOUS
62
252
70
192
10
57.696116
20
-0.000000
30
-1.723414
0
VERTEX
8
0
6
CONTINUOUS
62
252
70
192
10
58.000000
20
-0.000000
30
-1.750000
0
VERTEX
8
0
6
CONTINUOUS
62
252
70
192
10
58.303884
20
-0.000000
30
-1.723414
0
VERTEX
8
0
6
CONTINUOUS
62
252
70
192
10
58.598535
20
-0.000000
30
-1.644462
0
VERTEX
8
0
6
CONTINUOUS
62
252
70
192
10
58.875000
20
-0.000000
30
-1.515544
0
VERTEX
8
0
6
CONTINUOUS
62
252
70
192
10
59.124878
20
-0.000000
30
-1.340578
0
VERTEX
8
0
6
CONTINUOUS
62
252
70
192
10
59.340578
20
-0.000000
30
-1.124878
0
VERTEX
8
0
6
CONTINUOUS
62
252
70
192
10
59.515544
20
-0.000000
30
-0.875000
0
VERTEX
8
0
6
CONTINUOUS
62
252
70
192
10
59.644462
20
-0.000000
30
-0.598535
0
VERTEX
8
0
6
CONTINUOUS
62
252
70
192
10
59.723414
20
-0.000000
30
-0.303884
0
VERTEX
8
0
6
CONTINUOUS
62
252
70
192
10
1.750000
20
0.000000
30
98.000000
0
VERTEX
8
0
6
CONTINUOUS
62
252
70
192
10
1.723414
20
0.000000
30
98.303884
0
VERTEX
8
0
6
CONTINUOUS
62
252
70
192
10
1.644462
20
0.000000
30
98.598535
0
VERTEX
8
0
6
CONTINUOUS
62
252
70
192
10
1.515544
20
0.000000
30
98.875000
0
VERTEX
8
0
6
CONTINUOUS
62
252
70
192
10
1.340578
20
0.000000
30
99.124878
0
VERTEX
8
0
6
CONTINUOUS
62
252
70
192
10
1.124878
20
0.000000
30
99.340578
0
VERTEX
8
0
6
CONTINUOUS
62
252
70
192
10
0.875000
20
0.000000
30
99.515544
0
VERTEX
8
0
6
CONTINUOUS
62
252
70
192
10
0.598535
20
0.000000
30
99.644462
0
VERTEX
8
0
6
CONTINUOUS
62
252
70
192
10
0.303884
20
0.000000
30
99.723414
0
VERTEX
8
0
6
CONTINUOUS
62
252
70
192
10
0.000000
20
0.000000
30
99.750000
0
VERTEX
8
0
6
CONTINUOUS
62
252
70
192
10
-0.303884
20
0.000000
30
99.723414
0
VERTEX
8
0
6
CONTINUOUS
62
252
70
192
10
-0.598535
20
0.000000
30
99.644462
0
VERTEX
8
0
6
CONTINUOUS
62
252
70
192
10
-0.875000
20
0.000000
30
99.515544
0
VERTEX
8
0
6
CONTINUOUS
62
252
70
192
10
-1.124878
20
0.000000
30
99.340578
0
VERTEX
8
0
6
CONTINUOUS
62
252
70
192
10
-1.340578
20
0.000000
30
99.124878
0
VERTEX
8
0
6
CONTINUOUS
62
252
70
192
10
-1.515544
20
0.000000
30
98.875000
0
VERTEX
8
0
6
CONTINUOUS
62
252
70
192
10
-1.644462
20
0.000000
30
98.598535
0
VERTEX
8
0
6
CONTINUOUS
62
252
70
192
10
-1.723414
20
0.000000
30
98.303884
0
VERTEX
8
0
6
CONTINUOUS
62
252
70
192
10
-1.750000
20
0.000000
30
98.000000
0
VERTEX
8
0
6
CONTINUOUS
62
252
70
192
10
-1.723414
20
0.000000
30
97.696116
0
VERTEX
8
0
6
CONTINUOUS
62
252
70
192
10
-1.644462
20
0.000000
30
97.401465
0
VERTEX
8
0
6
CONTINUOUS
62
252
70
192
10
-1.515544
20
0.000000
30
97.125000
0
VERTEX
8
0
6
CONTINUOUS
62
252
70
192
10
-1.340578
20
0.000000
30
96.875122
0
VERTEX
8
0
6
CONTINUOUS
62
252
70
192
10
-1.124878
20
0.000000
30
96.659422
0
VERTEX
8
0
6
CONTINUOUS
62
252
70
192
10
-0.875000
20
0.000000
30
96.484456
0
VERTEX
8
0
6
CONTINUOUS
62
252
70
192
10
-0.598535
20
0.000000
30
96.355538
0
VERTEX
8
0
6
CONTINUOUS
62
252
70
192
10
-0.303884
20
0.000000
30
96.276586
0
VERTEX
8
0
6
CONTINUOUS
62
252
70
192
10
-0.000000
20
0.000000
30
96.250000
0
VERTEX
8
0
6
CONTINUOUS
62
252
70
192
10
0.303884
20
0.000000
30
96.276586
0
VERTEX
8
0
6
CONTINUOUS
62
252
70
192
10
0.598535
20
0.000000
30
96.355538
0
VERTEX
8
0
6
CONTINUOUS
62
252
70
192
10
0.875000
20
0.000000
30
96.484456
0
VERTEX
8
0
6
CONTINUOUS
62
252
70
192
10
1.124878
20
0.000000
30
96.659422
0
VERTEX
8
0
6
CONTINUOUS
62
252
70
192
10
1.340578
20
0.000000
30
96.875122
0
VERTEX
8
0
6
CONTINUOUS
62
252
70
192
10
1.515544
20
0.000000
30
97.125000
0
VERTEX
8
0
6
CONTINUOUS
62
252
70
192
10
1.644462
20
0.000000
30
97.401465
0
VERTEX
8
0
6
CONTINUOUS
62
252
70
192
10
1.723414
20
0.000000
30
97.696116
0
VERTEX
8
0
6
CONTINUOUS
62
252
70
192
10
1.750000
20
0.000000
30
0.000000
0
VERTEX
8
0
6
CONTINUOUS
62
252
70
192
10
1.723414
20
-0.000000
30
0.303884
0
VERTEX
8
0
6
CONTINUOUS
62
252
70
192
10
1.644462
20
-0.000000
30
0.598535
0
VERTEX
8
0
6
CONTINUOUS
62
252
70
192
10
1.515544
20
-0.000000
30
0.875000
0
VERTEX
8
0
6
CONTINUOUS
62
252
70
192
10
1.340578
20
-0.000000
30
1.124878
0
VERTEX
8
0
6
CONTINUOUS
62
252
70
192
10
1.124878
20
-0.000000
30
1.340578
0
VERTEX
8
0
6
CONTINUOUS
62
252
70
192
10
0.875000
20
-0.000000
30
1.515544
0
VERTEX
8
0
6
CONTINUOUS
62
252
70
192
10
0.598535
20
-0.000000
30
1.644462
0
VERTEX
8
0
6
CONTINUOUS
62
252
70
192
10
0.303884
20
-0.000000
30
1.723414
0
VERTEX
8
0
6
CONTINUOUS
62
252
70
192
10
0.000000
20
-0.000000
30
1.750000
0
VERTEX
8
0
6
CONTINUOUS
62
252
70
192
10
-0.303884
20
-0.000000
30
1.723414
0
VERTEX
8
0
6
CONTINUOUS
62
252
70
192
10
-0.598535
20
-0.000000
30
1.644462
0
VERTEX
8
0
6
CONTINUOUS
62
252
70
192
10
-0.875000
20
-0.000000
30
1.515544
0
VERTEX
8
0
6
CONTINUOUS
62
252
70
192
10
-1.124878
20
-0.000000
30
1.340578
0
VERTEX
8
0
6
CONTINUOUS
62
252
70
192
10
-1.340578
20
-0.000000
30
1.124878
0
VERTEX
8
0
6
CONTINUOUS
62
252
70
192
10
-1.515544
20
-0.000000
30
0.875000
0
VERTEX
8
0
6
CONTINUOUS
62
252
70
192
10
-1.644462
20
-0.000000
30
0.598535
0
VERTEX
8
0
6
CONTINUOUS
62
252
70
192
10
-1.723414
20
-0.000000
30
0.303884
0
VERTEX
8
0
6
CONTINUOUS
62
252
70
192
10
-1.750000
20
-0.000000
30
0.000000
0
VERTEX
8
0
6
CONTINUOUS
62
252
70
192
10
-1.723414
20
-0.000000
30
-0.303884
0
VERTEX
8
0
6
CONTINUOUS
62
252
70
192
10
-1.644462
20
-0.000000
30
-0.598535
0
VERTEX
8
0
6
CONTINUOUS
62
252
70
192
10
-1.515544
20
-0.000000
30
-0.875000
0
VERTEX
8
0
6
CONTINUOUS
62
252
70
192
10
-1.340578
20
-0.000000
30
-1.124878
0
VERTEX
8
0
6
CONTINUOUS
62
252
70
192
10
-1.124878
20
-0.000000
30
-1.340578
0
VERTEX
8
0
6
CONTINUOUS
62
252
70
192
10
-0.875000
20
-0.000000
30
-1.515544
0
VERTEX
8
0
6
CONTINUOUS
62
252
70
192
10
-0.598535
20
-0.000000
30
-1.644462
0
VERTEX
8
0
6
CONTINUOUS
62
252
70
192
10
-0.303884
20
-0.000000
30
-1.723414
0
VERTEX
8
0
6
CONTINUOUS
62
252
70
192
10
-0.000000
20
-0.000000
30
-1.750000
0
VERTEX
8
0
6
CONTINUOUS
62
252
70
192
10
0.303884
20
-0.000000
30
-1.723414
0
VERTEX
8
0
6
CONTINUOUS
62
252
70
192
10
0.598535
20
-0.000000
30
-1.644462
0
VERTEX
8
0
6
CONTINUOUS
62
252
70
192
10
0.875000
20
-0.000000
30
-1.515544
0
VERTEX
8
0
6
CONTINUOUS
62
252
70
192
10
1.124878
20
-0.000000
30
-1.340578
0
VERTEX
8
0
6
CONTINUOUS
62
252
70
192
10
1.340578
20
-0.000000
30
-1.124878
0
VERTEX
8
0
6
CONTINUOUS
62
252
70
192
10
1.515544
20
-0.000000
30
-0.875000
0
VERTEX
8
0
6
CONTINUOUS
62
252
70
192
10
1.644462
20
-0.000000
30
-0.598535
0
VERTEX
8
0
6
CONTINUOUS
62
252
70
192
10
1.723414
20
-0.000000
30
-0.303884
0
VERTEX
8
0
6
CONTINUOUS
62
252
70
192
10
81.500000
20
0.000000
30
101.500000
0
VERTEX
8
0
6
CONTINUOUS
62
252
70
192
10
81.500000
20
0.000000
30
-3.500000
0
VERTEX
8
0
6
CONTINUOUS
62
252
70
192
10
-3.500000
20
0.000000
30
-3.500000
0
VERTEX
8
0
6
CONTINUOUS
62
252
70
192
10
-3.500000
20
0.000000
30
101.500000
0
VERTEX
8
0
6
CONTINUOUS
62
252
70
128
10
0.000000
20
0.000000
30
0.000000
71
2
72
132
73
1
0
VERTEX
8
0
6
CONTINUOUS
62
252
70
128
10
0.000000
20
0.000000
30
0.000000
71
1
72
132
73
133
0
VERTEX
8
0
6
CONTINUOUS
62
252
70
128
10
0.000000
20
0.000000
30
0.000000
71
1
72
133
73
36
0
VERTEX
8
0
6
CONTINUOUS
62
252
70
128
10
0.000000
20
0.000000
30
0.000000
71
36
72
133
73
157
0
VERTEX
8
0
6
CONTINUOUS
62
252
70
128
10
0.000000
20
0.000000
30
0.000000
71
36
72
157
73
35
0
VERTEX
8
0
6
CONTINUOUS
62
252
70
128
10
0.000000
20
0.000000
30
0.000000
71
35
72
157
73
158
0
VERTEX
8
0
6
CONTINUOUS
62
252
70
128
10
0.000000
20
0.000000
30
0.000000
71
35
72
158
73
159
0
VERTEX
8
0
6
CONTINUOUS
62
252
70
128
10
0.000000
20
0.000000
30
0.000000
71
3
72
130
73
2
0
VERTEX
8
0
6
CONTINUOUS
62
252
70
128
10
0.000000
20
0.000000
30
0.000000
71
2
72
130
73
131
0
VERTEX
8
0
6
CONTINUOUS
62
252
70
128
10
0.000000
20
0.000000
30
0.000000
71
2
72
131
73
132
0
VERTEX
8
0
6
CONTINUOUS
62
252
70
128
10
0.000000
20
0.000000
30
0.000000
71
4
72
215
73
3
0
VERTEX
8
0
6
CONTINUOUS
62
252
70
128
10
0.000000
20
0.000000
30
0.000000
71
3
72
215
73
129
0
VERTEX
8
0
6
CONTINUOUS
62
252
70
128
10
0.000000
20
0.000000
30
0.000000
71
3
72
129
73
130
0
VERTEX
8
0
6
CONTINUOUS
62
252
70
128
10
0.000000
20
0.000000
30
0.000000
71
215
72
4
73
214
0
VERTEX
8
0
6
CONTINUOUS
62
252
70
128
10
0.000000
20
0.000000
30
0.000000
71
214
72
4
73
5
0
VERTEX
8
0
6
CONTINUOUS
62
252
70
128
10
0.000000
20
0.000000
30
0.000000
71
214
72
5
73
213
0
VERTEX
8
0
6
CONTINUOUS
62
252
70
128
10
0.000000
20
0.000000
30
0.000000
71
213
72
5
73
6
0
VERTEX
8
0
6
CONTINUOUS
62
252
70
128
10
0.000000
20
0.000000
30
0.000000
71
213
72
6
73
212
0
VERTEX
8
0
6
CONTINUOUS
62
252
70
128
10
0.000000
20
0.000000
30
0.000000
71
212
72
6
73
7
0
VERTEX
8
0
6
CONTINUOUS
62
252
70
128
10
0.000000
20
0.000000
30
0.000000
71
212
72
7
73
211
0
VERTEX
8
0
6
CONTINUOUS
62
252
70
128
10
0.000000
20
0.000000
30
0.000000
71
211
72
7
73
8
0
VERTEX
8
0
6
CONTINUOUS
62
252
70
128
10
0.000000
20
0.000000
30
0.000000
71
211
72
8
73
210
0
VERTEX
8
0
6
CONTINUOUS
62
252
70
128
10
0.000000
20
0.000000
30
0.000000
71
210
72
8
73
9
0
VERTEX
8
0
6
CONTINUOUS
62
252
70
128
10
0.000000
20
0.000000
30
0.000000
71
210
72
9
73
209
0
VERTEX
8
0
6
CONTINUOUS
62
252
70
128
10
0.000000
20
0.000000
30
0.000000
71
209
72
9
73
10
0
VERTEX
8
0
6
CONTINUOUS
62
252
70
128
10
0.000000
20
0.000000
30
0.000000
71
209
72
10
73
208
0
VERTEX
8
0
6
CONTINUOUS
62
252
70
128
10
0.000000
20
0.000000
30
0.000000
71
208
72
10
73
11
0
VERTEX
8
0
6
CONTINUOUS
62
252
70
128
10
0.000000
20
0.000000
30
0.000000
71
208
72
11
73
207
0
VERTEX
8
0
6
CONTINUOUS
62
252
70
128
10
0.000000
20
0.000000
30
0.000000
71
207
72
11
73
12
0
VERTEX
8
0
6
CONTINUOUS
62
252
70
128
10
0.000000
20
0.000000
30
0.000000
71
207
72
12
73
206
0
VERTEX
8
0
6
CONTINUOUS
62
252
70
128
10
0.000000
20
0.000000
30
0.000000
71
206
72
12
73
13
0
VERTEX
8
0
6
CONTINUOUS
62
252
70
128
10
0.000000
20
0.000000
30
0.000000
71
206
72
13
73
205
0
VERTEX
8
0
6
CONTINUOUS
62
252
70
128
10
0.000000
20
0.000000
30
0.000000
71
205
72
13
73
14
0
VERTEX
8
0
6
CONTINUOUS
62
252
70
128
10
0.000000
20
0.000000
30
0.000000
71
205
72
14
73
204
0
VERTEX
8
0
6
CONTINUOUS
62
252
70
128
10
0.000000
20
0.000000
30
0.000000
71
204
72
14
73
15
0
VERTEX
8
0
6
CONTINUOUS
62
252
70
128
10
0.000000
20
0.000000
30
0.000000
71
204
72
15
73
203
0
VERTEX
8
0
6
CONTINUOUS
62
252
70
128
10
0.000000
20
0.000000
30
0.000000
71
203
72
15
73
16
0
VERTEX
8
0
6
CONTINUOUS
62
252
70
128
10
0.000000
20
0.000000
30
0.000000
71
203
72
16
73
202
0
VERTEX
8
0
6
CONTINUOUS
62
252
70
128
10
0.000000
20
0.000000
30
0.000000
71
202
72
16
73
17
0
VERTEX
8
0
6
CONTINUOUS
62
252
70
128
10
0.000000
20
0.000000
30
0.000000
71
202
72
17
73
201
0
VERTEX
8
0
6
CONTINUOUS
62
252
70
128
10
0.000000
20
0.000000
30
0.000000
71
201
72
17
73
256
0
VERTEX
8
0
6
CONTINUOUS
62
252
70
128
10
0.000000
20
0.000000
30
0.000000
71
201
72
256
73
200
0
VERTEX
8
0
6
CONTINUOUS
62
252
70
128
10
0.000000
20
0.000000
30
0.000000
71
200
72
256
73
199
0
VERTEX
8
0
6
CONTINUOUS
62
252
70
128
10
0.000000
20
0.000000
30
0.000000
71
199
72
256
73
198
0
VERTEX
8
0
6
CONTINUOUS
62
252
70
128
10
0.000000
20
0.000000
30
0.000000
71
198
72
256
73
197
0
VERTEX
8
0
6
CONTINUOUS
62
252
70
128
10
0.000000
20
0.000000
30
0.000000
71
197
72
256
73
196
0
VERTEX
8
0
6
CONTINUOUS
62
252
70
128
10
0.000000
20
0.000000
30
0.000000
71
196
72
256
73
195
0
VERTEX
8
0
6
CONTINUOUS
62
252
70
128
10
0.000000
20
0.000000
30
0.000000
71
195
72
256
73
194
0
VERTEX
8
0
6
CONTINUOUS
62
252
70
128
10
0.000000
20
0.000000
30
0.000000
71
194
72
256
73
193
0
VERTEX
8
0
6
CONTINUOUS
62
252
70
128
10
0.000000
20
0.000000
30
0.000000
71
193
72
256
73
192
0
VERTEX
8
0
6
CONTINUOUS
62
252
70
128
10
0.000000
20
0.000000
30
0.000000
71
192
72
256
73
191
0
VERTEX
8
0
6
CONTINUOUS
62
252
70
128
10
0.000000
20
0.000000
30
0.000000
71
191
72
256
73
190
0
VERTEX
8
0
6
CONTINUOUS
62
252
70
128
10
0.000000
20
0.000000
30
0.000000
71
190
72
256
73
189
0
VERTEX
8
0
6
CONTINUOUS
62
252
70
128
10
0.000000
20
0.000000
30
0.000000
71
189
72
256
73
188
0
VERTEX
8
0
6
CONTINUOUS
62
252
70
128
10
0.000000
20
0.000000
30
0.000000
71
188
72
256
73
120
0
VERTEX
8
0
6
CONTINUOUS
62
252
70
128
10
0.000000
20
0.000000
30
0.000000
71
188
72
120
73
121
0
VERTEX
8
0
6
CONTINUOUS
62
252
70
128
10
0.000000
20
0.000000
30
0.000000
71
17
72
18
73
256
0
VERTEX
8
0
6
CONTINUOUS
62
252
70
128
10
0.000000
20
0.000000
30
0.000000
71
256
72
18
73
19
0
VERTEX
8
0
6
CONTINUOUS
62
252
70
128
10
0.000000
20
0.000000
30
0.000000
71
256
72
19
73
255
0
VERTEX
8
0
6
CONTINUOUS
62
252
70
128
10
0.000000
20
0.000000
30
0.000000
71
255
72
19
73
20
0
VERTEX
8
0
6
CONTINUOUS
62
252
70
128
10
0.000000
20
0.000000
30
0.000000
71
255
72
20
73
21
0
VERTEX
8
0
6
CONTINUOUS
62
252
70
128
10
0.000000
20
0.000000
30
0.000000
71
22
72
232
73
21
0
VERTEX
8
0
6
CONTINUOUS
62
252
70
128
10
0.000000
20
0.000000
30
0.000000
71
21
72
232
73
233
0
VERTEX
8
0
6
CONTINUOUS
62
252
70
128
10
0.000000
20
0.000000
30
0.000000
71
21
72
233
73
255
0
VERTEX
8
0
6
CONTINUOUS
62
252
70
128
10
0.000000
20
0.000000
30
0.000000
71
255
72
233
73
234
0
VERTEX
8
0
6
CONTINUOUS
62
252
70
128
10
0.000000
20
0.000000
30
0.000000
71
255
72
234
73
235
0
VERTEX
8
0
6
CONTINUOUS
62
252
70
128
10
0.000000
20
0.000000
30
0.000000
71
232
72
22
73
231
0
VERTEX
8
0
6
CONTINUOUS
62
252
70
128
10
0.000000
20
0.000000
30
0.000000
71
231
72
22
73
23
0
VERTEX
8
0
6
CONTINUOUS
62
252
70
128
10
0.000000
20
0.000000
30
0.000000
71
231
72
23
73
230
0
VERTEX
8
0
6
CONTINUOUS
62
252
70
128
10
0.000000
20
0.000000
30
0.000000
71
230
72
23
73
24
0
VERTEX
8
0
6
CONTINUOUS
62
252
70
128
10
0.000000
20
0.000000
30
0.000000
71
230
72
24
73
229
0
VERTEX
8
0
6
CONTINUOUS
62
252
70
128
10
0.000000
20
0.000000
30
0.000000
71
229
72
24
73
25
0
VERTEX
8
0
6
CONTINUOUS
62
252
70
128
10
0.000000
20
0.000000
30
0.000000
71
229
72
25
73
228
0
VERTEX
8
0
6
CONTINUOUS
62
252
70
128
10
0.000000
20
0.000000
30
0.000000
71
228
72
25
73
26
0
VERTEX
8
0
6
CONTINUOUS
62
252
70
128
10
0.000000
20
0.000000
30
0.000000
71
228
72
26
73
227
0
VERTEX
8
0
6
CONTINUOUS
62
252
70
128
10
0.000000
20
0.000000
30
0.000000
71
227
72
26
73
27
0
VERTEX
8
0
6
CONTINUOUS
62
252
70
128
10
0.000000
20
0.000000
30
0.000000
71
227
72
27
73
226
0
VERTEX
8
0
6
CONTINUOUS
62
252
70
128
10
0.000000
20
0.000000
30
0.000000
71
226
72
27
73
28
0
VERTEX
8
0
6
CONTINUOUS
62
252
70
128
10
0.000000
20
0.000000
30
0.000000
71
226
72
28
73
225
0
VERTEX
8
0
6
CONTINUOUS
62
252
70
128
10
0.000000
20
0.000000
30
0.000000
71
225
72
28
73
29
0
VERTEX
8
0
6
CONTINUOUS
62
252
70
128
10
0.000000
20
0.000000
30
0.000000
71
225
72
29
73
224
0
VERTEX
8
0
6
CONTINUOUS
62
252
70
128
10
0.000000
20
0.000000
30
0.000000
71
224
72
29
73
30
0
VERTEX
8
0
6
CONTINUOUS
62
252
70
128
10
0.000000
20
0.000000
30
0.000000
71
224
72
30
73
223
0
VERTEX
8
0
6
CONTINUOUS
62
252
70
128
10
0.000000
20
0.000000
30
0.000000
71
223
72
30
73
31
0
VERTEX
8
0
6
CONTINUOUS
62
252
70
128
10
0.000000
20
0.000000
30
0.000000
71
223
72
31
73
222
0
VERTEX
8
0
6
CONTINUOUS
62
252
70
128
10
0.000000
20
0.000000
30
0.000000
71
222
72
31
73
32
0
VERTEX
8
0
6
CONTINUOUS
62
252
70
128
10
0.000000
20
0.000000
30
0.000000
71
222
72
32
73
221
0
VERTEX
8
0
6
CONTINUOUS
62
252
70
128
10
0.000000
20
0.000000
30
0.000000
71
221
72
32
73
33
0
VERTEX
8
0
6
CONTINUOUS
62
252
70
128
10
0.000000
20
0.000000
30
0.000000
71
221
72
33
73
220
0
VERTEX
8
0
6
CONTINUOUS
62
252
70
128
10
0.000000
20
0.000000
30
0.000000
71
220
72
33
73
160
0
VERTEX
8
0
6
CONTINUOUS
62
252
70
128
10
0.000000
20
0.000000
30
0.000000
71
220
72
160
73
161
0
VERTEX
8
0
6
CONTINUOUS
62
252
70
128
10
0.000000
20
0.000000
30
0.000000
71
33
72
34
73
160
0
VERTEX
8
0
6
CONTINUOUS
62
252
70
128
10
0.000000
20
0.000000
30
0.000000
71
160
72
34
73
159
0
VERTEX
8
0
6
CONTINUOUS
62
252
70
128
10
0.000000
20
0.000000
30
0.000000
71
159
72
34
73
35
0
VERTEX
8
0
6
CONTINUOUS
62
252
70
128
10
0.000000
20
0.000000
30
0.000000
71
72
72
37
73
253
0
VERTEX
8
0
6
CONTINUOUS
62
252
70
128
10
0.000000
20
0.000000
30
0.000000
71
253
72
37
73
38
0
VERTEX
8
0
6
CONTINUOUS
62
252
70
128
10
0.000000
20
0.000000
30
0.000000
71
253
72
38
73
39
0
VERTEX
8
0
6
CONTINUOUS
62
252
70
128
10
0.000000
20
0.000000
30
0.000000
71
39
72
40
73
253
0
VERTEX
8
0
6
CONTINUOUS
62
252
70
128
10
0.000000
20
0.000000
30
0.000000
71
253
72
40
73
41
0
VERTEX
8
0
6
CONTINUOUS
62
252
70
128
10
0.000000
20
0.000000
30
0.000000
71
253
72
41
73
42
0
VERTEX
8
0
6
CONTINUOUS
62
252
70
128
10
0.000000
20
0.000000
30
0.000000
71
42
72
43
73
253
0
VERTEX
8
0
6
CONTINUOUS
62
252
70
128
10
0.000000
20
0.000000
30
0.000000
71
253
72
43
73
44
0
VERTEX
8
0
6
CONTINUOUS
62
252
70
128
10
0.000000
20
0.000000
30
0.000000
71
253
72
44
73
45
0
VERTEX
8
0
6
CONTINUOUS
62
252
70
128
10
0.000000
20
0.000000
30
0.000000
71
45
72
46
73
253
0
VERTEX
8
0
6
CONTINUOUS
62
252
70
128
10
0.000000
20
0.000000
30
0.000000
71
253
72
46
73
47
0
VERTEX
8
0
6
CONTINUOUS
62
252
70
128
10
0.000000
20
0.000000
30
0.000000
71
253
72
47
73
48
0
VERTEX
8
0
6
CONTINUOUS
62
252
70
128
10
0.000000
20
0.000000
30
0.000000
71
253
72
48
73
116
0
VERTEX
8
0
6
CONTINUOUS
62
252
70
128
10
0.000000
20
0.000000
30
0.000000
71
116
72
48
73
49
0
VERTEX
8
0
6
CONTINUOUS
62
252
70
128
10
0.000000
20
0.000000
30
0.000000
71
116
72
49
73
115
0
VERTEX
8
0
6
CONTINUOUS
62
252
70
128
10
0.000000
20
0.000000
30
0.000000
71
115
72
49
73
114
0
VERTEX
8
0
6
CONTINUOUS
62
252
70
128
10
0.000000
20
0.000000
30
0.000000
71
114
72
49
73
50
0
VERTEX
8
0
6
CONTINUOUS
62
252
70
128
10
0.000000
20
0.000000
30
0.000000
71
114
72
50
73
51
0
VERTEX
8
0
6
CONTINUOUS
62
252
70
128
10
0.000000
20
0.000000
30
0.000000
71
52
72
112
73
51
0
VERTEX
8
0
6
CONTINUOUS
62
252
70
128
10
0.000000
20
0.000000
30
0.000000
71
51
72
112
73
113
0
VERTEX
8
0
6
CONTINUOUS
62
252
70
128
10
0.000000
20
0.000000
30
0.000000
71
51
72
113
73
114
0
VERTEX
8
0
6
CONTINUOUS
62
252
70
128
10
0.000000
20
0.000000
30
0.000000
71
52
72
53
73
112
0
VERTEX
8
0
6
CONTINUOUS
62
252
70
128
10
0.000000
20
0.000000
30
0.000000
71
112
72
53
73
111
0
VERTEX
8
0
6
CONTINUOUS
62
252
70
128
10
0.000000
20
0.000000
30
0.000000
71
111
72
53
73
110
0
VERTEX
8
0
6
CONTINUOUS
62
252
70
128
10
0.000000
20
0.000000
30
0.000000
71
110
72
53
73
54
0
VERTEX
8
0
6
CONTINUOUS
62
252
70
128
10
0.000000
20
0.000000
30
0.000000
71
110
72
54
73
55
0
VERTEX
8
0
6
CONTINUOUS
62
252
70
128
10
0.000000
20
0.000000
30
0.000000
71
56
72
144
73
55
0
VERTEX
8
0
6
CONTINUOUS
62
252
70
128
10
0.000000
20
0.000000
30
0.000000
71
55
72
144
73
109
0
VERTEX
8
0
6
CONTINUOUS
62
252
70
128
10
0.000000
20
0.000000
30
0.000000
71
55
72
109
73
110
0
VERTEX
8
0
6
CONTINUOUS
62
252
70
128
10
0.000000
20
0.000000
30
0.000000
71
56
72
57
73
144
0
VERTEX
8
0
6
CONTINUOUS
62
252
70
128
10
0.000000
20
0.000000
30
0.000000
71
144
72
57
73
143
0
VERTEX
8
0
6
CONTINUOUS
62
252
70
128
10
0.000000
20
0.000000
30
0.000000
71
143
72
57
73
142
0
VERTEX
8
0
6
CONTINUOUS
62
252
70
128
10
0.000000
20
0.000000
30
0.000000
71
142
72
57
73
58
0
VERTEX
8
0
6
CONTINUOUS
62
252
70
128
10
0.000000
20
0.000000
30
0.000000
71
142
72
58
73
59
0
VERTEX
8
0
6
CONTINUOUS
62
252
70
128
10
0.000000
20
0.000000
30
0.000000
71
60
72
140
73
59
0
VERTEX
8
0
6
CONTINUOUS
62
252
70
128
10
0.000000
20
0.000000
30
0.000000
71
59
72
140
73
141
0
VERTEX
8
0
6
CONTINUOUS
62
252
70
128
10
0.000000
20
0.000000
30
0.000000
71
59
72
141
73
142
0
VERTEX
8
0
6
CONTINUOUS
62
252
70
128
10
0.000000
20
0.000000
30
0.000000
71
60
72
61
73
140
0
VERTEX
8
0
6
CONTINUOUS
62
252
70
128
10
0.000000
20
0.000000
30
0.000000
71
140
72
61
73
139
0
VERTEX
8
0
6
CONTINUOUS
62
252
70
128
10
0.000000
20
0.000000
30
0.000000
71
139
72
61
73
62
0
VERTEX
8
0
6
CONTINUOUS
62
252
70
128
10
0.000000
20
0.000000
30
0.000000
71
139
72
62
73
138
0
VERTEX
8
0
6
CONTINUOUS
62
252
70
128
10
0.000000
20
0.000000
30
0.000000
71
138
72
62
73
84
0
VERTEX
8
0
6
CONTINUOUS
62
252
70
128
10
0.000000
20
0.000000
30
0.000000
71
138
72
84
73
152
0
VERTEX
8
0
6
CONTINUOUS
62
252
70
128
10
0.000000
20
0.000000
30
0.000000
71
152
72
84
73
85
0
VERTEX
8
0
6
CONTINUOUS
62
252
70
128
10
0.000000
20
0.000000
30
0.000000
71
152
72
85
73
151
0
VERTEX
8
0
6
CONTINUOUS
62
252
70
128
10
0.000000
20
0.000000
30
0.000000
71
151
72
85
73
150
0
VERTEX
8
0
6
CONTINUOUS
62
252
70
128
10
0.000000
20
0.000000
30
0.000000
71
150
72
85
73
86
0
VERTEX
8
0
6
CONTINUOUS
62
252
70
128
10
0.000000
20
0.000000
30
0.000000
71
150
72
86
73
87
0
VERTEX
8
0
6
CONTINUOUS
62
252
70
128
10
0.000000
20
0.000000
30
0.000000
71
84
72
62
73
83
0
VERTEX
8
0
6
CONTINUOUS
62
252
70
128
10
0.000000
20
0.000000
30
0.000000
71
83
72
62
73
63
0
VERTEX
8
0
6
CONTINUOUS
62
252
70
128
10
0.000000
20
0.000000
30
0.000000
71
83
72
63
73
82
0
VERTEX
8
0
6
CONTINUOUS
62
252
70
128
10
0.000000
20
0.000000
30
0.000000
71
82
72
63
73
64
0
VERTEX
8
0
6
CONTINUOUS
62
252
70
128
10
0.000000
20
0.000000
30
0.000000
71
82
72
64
73
81
0
VERTEX
8
0
6
CONTINUOUS
62
252
70
128
10
0.000000
20
0.000000
30
0.000000
71
81
72
64
73
65
0
VERTEX
8
0
6
CONTINUOUS
62
252
70
128
10
0.000000
20
0.000000
30
0.000000
71
81
72
65
73
80
0
VERTEX
8
0
6
CONTINUOUS
62
252
70
128
10
0.000000
20
0.000000
30
0.000000
71
80
72
65
73
66
0
VERTEX
8
0
6
CONTINUOUS
62
252
70
128
10
0.000000
20
0.000000
30
0.000000
71
80
72
66
73
79
0
VERTEX
8
0
6
CONTINUOUS
62
252
70
128
10
0.000000
20
0.000000
30
0.000000
71
79
72
66
73
67
0
VERTEX
8
0
6
CONTINUOUS
62
252
70
128
10
0.000000
20
0.000000
30
0.000000
71
79
72
67
73
78
0
VERTEX
8
0
6
CONTINUOUS
62
252
70
128
10
0.000000
20
0.000000
30
0.000000
71
78
72
67
73
68
0
VERTEX
8
0
6
CONTINUOUS
62
252
70
128
10
0.000000
20
0.000000
30
0.000000
71
78
72
68
73
77
0
VERTEX
8
0
6
CONTINUOUS
62
252
70
128
10
0.000000
20
0.000000
30
0.000000
71
77
72
68
73
69
0
VERTEX
8
0
6
CONTINUOUS
62
252
70
128
10
0.000000
20
0.000000
30
0.000000
71
77
72
69
73
76
0
VERTEX
8
0
6
CONTINUOUS
62
252
70
128
10
0.000000
20
0.000000
30
0.000000
71
76
72
69
73
70
0
VERTEX
8
0
6
CONTINUOUS
62
252
70
128
10
0.000000
20
0.000000
30
0.000000
71
76
72
70
73
75
0
VERTEX
8
0
6
CONTINUOUS
62
252
70
128
10
0.000000
20
0.000000
30
0.000000
71
75
72
70
73
71
0
VERTEX
8
0
6
CONTINUOUS
62
252
70
128
10
0.000000
20
0.000000
30
0.000000
71
75
72
71
73
254
0
VERTEX
8
0
6
CONTINUOUS
62
252
70
128
10
0.000000
20
0.000000
30
0.000000
71
254
72
71
73
253
0
VERTEX
8
0
6
CONTINUOUS
62
252
70
128
10
0.000000
20
0.000000
30
0.000000
71
253
72
71
73
72
0
VERTEX
8
0
6
CONTINUOUS
62
252
70
128
10
0.000000
20
0.000000
30
0.000000
71
108
72
73
73
254
0
VERTEX
8
0
6
CONTINUOUS
62
252
70
128
10
0.000000
20
0.000000
30
0.000000
71
254
72
73
73
74
0
VERTEX
8
0
6
CONTINUOUS
62
252
70
128
10
0.000000
20
0.000000
30
0.000000
71
254
72
74
73
75
0
VERTEX
8
0
6
CONTINUOUS
62
252
70
128
10
0.000000
20
0.000000
30
0.000000
71
88
72
148
73
87
0
VERTEX
8
0
6
CONTINUOUS
62
252
70
128
10
0.000000
20
0.000000
30
0.000000
71
87
72
148
73
149
0
VERTEX
8
0
6
CONTINUOUS
62
252
70
128
10
0.000000
20
0.000000
30
0.000000
71
87
72
149
73
150
0
VERTEX
8
0
6
CONTINUOUS
62
252
70
128
10
0.000000
20
0.000000
30
0.000000
71
88
72
89
73
148
0
VERTEX
8
0
6
CONTINUOUS
62
252
70
128
10
0.000000
20
0.000000
30
0.000000
71
148
72
89
73
147
0
VERTEX
8
0
6
CONTINUOUS
62
252
70
128
10
0.000000
20
0.000000
30
0.000000
71
147
72
89
73
146
0
VERTEX
8
0
6
CONTINUOUS
62
252
70
128
10
0.000000
20
0.000000
30
0.000000
71
146
72
89
73
90
0
VERTEX
8
0
6
CONTINUOUS
62
252
70
128
10
0.000000
20
0.000000
30
0.000000
71
146
72
90
73
91
0
VERTEX
8
0
6
CONTINUOUS
62
252
70
128
10
0.000000
20
0.000000
30
0.000000
71
92
72
180
73
91
0
VERTEX
8
0
6
CONTINUOUS
62
252
70
128
10
0.000000
20
0.000000
30
0.000000
71
91
72
180
73
145
0
VERTEX
8
0
6
CONTINUOUS
62
252
70
128
10
0.000000
20
0.000000
30
0.000000
71
91
72
145
73
146
0
VERTEX
8
0
6
CONTINUOUS
62
252
70
128
10
0.000000
20
0.000000
30
0.000000
71
92
72
93
73
180
0
VERTEX
8
0
6
CONTINUOUS
62
252
70
128
10
0.000000
20
0.000000
30
0.000000
71
180
72
93
73
179
0
VERTEX
8
0
6
CONTINUOUS
62
252
70
128
10
0.000000
20
0.000000
30
0.000000
71
179
72
93
73
178
0
VERTEX
8
0
6
CONTINUOUS
62
252
70
128
10
0.000000
20
0.000000
30
0.000000
71
178
72
93
73
94
0
VERTEX
8
0
6
CONTINUOUS
62
252
70
128
10
0.000000
20
0.000000
30
0.000000
71
178
72
94
73
95
0
VERTEX
8
0
6
CONTINUOUS
62
252
70
128
10
0.000000
20
0.000000
30
0.000000
71
96
72
176
73
95
0
VERTEX
8
0
6
CONTINUOUS
62
252
70
128
10
0.000000
20
0.000000
30
0.000000
71
95
72
176
73
177
0
VERTEX
8
0
6
CONTINUOUS
62
252
70
128
10
0.000000
20
0.000000
30
0.000000
71
95
72
177
73
178
0
VERTEX
8
0
6
CONTINUOUS
62
252
70
128
10
0.000000
20
0.000000
30
0.000000
71
96
72
97
73
176
0
VERTEX
8
0
6
CONTINUOUS
62
252
70
128
10
0.000000
20
0.000000
30
0.000000
71
176
72
97
73
175
0
VERTEX
8
0
6
CONTINUOUS
62
252
70
128
10
0.000000
20
0.000000
30
0.000000
71
175
72
97
73
174
0
VERTEX
8
0
6
CONTINUOUS
62
252
70
128
10
0.000000
20
0.000000
30
0.000000
71
174
72
97
73
98
0
VERTEX
8
0
6
CONTINUOUS
62
252
70
128
10
0.000000
20
0.000000
30
0.000000
71
174
72
98
73
254
0
VERTEX
8
0
6
CONTINUOUS
62
252
70
128
10
0.000000
20
0.000000
30
0.000000
71
254
72
98
73
99
0
VERTEX
8
0
6
CONTINUOUS
62
252
70
128
10
0.000000
20
0.000000
30
0.000000
71
254
72
99
73
100
0
VERTEX
8
0
6
CONTINUOUS
62
252
70
128
10
0.000000
20
0.000000
30
0.000000
71
100
72
101
73
254
0
VERTEX
8
0
6
CONTINUOUS
62
252
70
128
10
0.000000
20
0.000000
30
0.000000
71
254
72
101
73
102
0
VERTEX
8
0
6
CONTINUOUS
62
252
70
128
10
0.000000
20
0.000000
30
0.000000
71
254
72
102
73
103
0
VERTEX
8
0
6
CONTINUOUS
62
252
70
128
10
0.000000
20
0.000000
30
0.000000
71
103
72
104
73
254
0
VERTEX
8
0
6
CONTINUOUS
62
252
70
128
10
0.000000
20
0.000000
30
0.000000
71
254
72
104
73
105
0
VERTEX
8
0
6
CONTINUOUS
62
252
70
128
10
0.000000
20
0.000000
30
0.000000
71
254
72
105
73
106
0
VERTEX
8
0
6
CONTINUOUS
62
252
70
128
10
0.000000
20
0.000000
30
0.000000
71
106
72
107
73
254
0
VERTEX
8
0
6
CONTINUOUS
62
252
70
128
10
0.000000
20
0.000000
30
0.000000
71
254
72
107
73
108
0
VERTEX
8
0
6
CONTINUOUS
62
252
70
128
10
0.000000
20
0.000000
30
0.000000
71
116
72
117
73
253
0
VERTEX
8
0
6
CONTINUOUS
62
252
70
128
10
0.000000
20
0.000000
30
0.000000
71
253
72
117
73
118
0
VERTEX
8
0
6
CONTINUOUS
62
252
70
128
10
0.000000
20
0.000000
30
0.000000
71
253
72
118
73
256
0
VERTEX
8
0
6
CONTINUOUS
62
252
70
128
10
0.000000
20
0.000000
30
0.000000
71
256
72
118
73
119
0
VERTEX
8
0
6
CONTINUOUS
62
252
70
128
10
0.000000
20
0.000000
30
0.000000
71
256
72
119
73
120
0
VERTEX
8
0
6
CONTINUOUS
62
252
70
128
10
0.000000
20
0.000000
30
0.000000
71
188
72
121
73
187
0
VERTEX
8
0
6
CONTINUOUS
62
252
70
128
10
0.000000
20
0.000000
30
0.000000
71
187
72
121
73
122
0
VERTEX
8
0
6
CONTINUOUS
62
252
70
128
10
0.000000
20
0.000000
30
0.000000
71
187
72
122
73
186
0
VERTEX
8
0
6
CONTINUOUS
62
252
70
128
10
0.000000
20
0.000000
30
0.000000
71
186
72
122
73
123
0
VERTEX
8
0
6
CONTINUOUS
62
252
70
128
10
0.000000
20
0.000000
30
0.000000
71
186
72
123
73
185
0
VERTEX
8
0
6
CONTINUOUS
62
252
70
128
10
0.000000
20
0.000000
30
0.000000
71
185
72
123
73
124
0
VERTEX
8
0
6
CONTINUOUS
62
252
70
128
10
0.000000
20
0.000000
30
0.000000
71
185
72
124
73
184
0
VERTEX
8
0
6
CONTINUOUS
62
252
70
128
10
0.000000
20
0.000000
30
0.000000
71
184
72
124
73
125
0
VERTEX
8
0
6
CONTINUOUS
62
252
70
128
10
0.000000
20
0.000000
30
0.000000
71
184
72
125
73
183
0
VERTEX
8
0
6
CONTINUOUS
62
252
70
128
10
0.000000
20
0.000000
30
0.000000
71
183
72
125
73
126
0
VERTEX
8
0
6
CONTINUOUS
62
252
70
128
10
0.000000
20
0.000000
30
0.000000
71
183
72
126
73
182
0
VERTEX
8
0
6
CONTINUOUS
62
252
70
128
10
0.000000
20
0.000000
30
0.000000
71
182
72
126
73
127
0
VERTEX
8
0
6
CONTINUOUS
62
252
70
128
10
0.000000
20
0.000000
30
0.000000
71
182
72
127
73
181
0
VERTEX
8
0
6
CONTINUOUS
62
252
70
128
10
0.000000
20
0.000000
30
0.000000
71
181
72
127
73
216
0
VERTEX
8
0
6
CONTINUOUS
62
252
70
128
10
0.000000
20
0.000000
30
0.000000
71
216
72
127
73
128
0
VERTEX
8
0
6
CONTINUOUS
62
252
70
128
10
0.000000
20
0.000000
30
0.000000
71
216
72
128
73
215
0
VERTEX
8
0
6
CONTINUOUS
62
252
70
128
10
0.000000
20
0.000000
30
0.000000
71
215
72
128
73
129
0
VERTEX
8
0
6
CONTINUOUS
62
252
70
128
10
0.000000
20
0.000000
30
0.000000
71
157
72
133
73
156
0
VERTEX
8
0
6
CONTINUOUS
62
252
70
128
10
0.000000
20
0.000000
30
0.000000
71
156
72
133
73
134
0
VERTEX
8
0
6
CONTINUOUS
62
252
70
128
10
0.000000
20
0.000000
30
0.000000
71
156
72
134
73
155
0
VERTEX
8
0
6
CONTINUOUS
62
252
70
128
10
0.000000
20
0.000000
30
0.000000
71
155
72
134
73
135
0
VERTEX
8
0
6
CONTINUOUS
62
252
70
128
10
0.000000
20
0.000000
30
0.000000
71
155
72
135
73
154
0
VERTEX
8
0
6
CONTINUOUS
62
252
70
128
10
0.000000
20
0.000000
30
0.000000
71
154
72
135
73
136
0
VERTEX
8
0
6
CONTINUOUS
62
252
70
128
10
0.000000
20
0.000000
30
0.000000
71
154
72
136
73
153
0
VERTEX
8
0
6
CONTINUOUS
62
252
70
128
10
0.000000
20
0.000000
30
0.000000
71
153
72
136
73
137
0
VERTEX
8
0
6
CONTINUOUS
62
252
70
128
10
0.000000
20
0.000000
30
0.000000
71
153
72
137
73
152
0
VERTEX
8
0
6
CONTINUOUS
62
252
70
128
10
0.000000
20
0.000000
30
0.000000
71
152
72
137
73
138
0
VERTEX
8
0
6
CONTINUOUS
62
252
70
128
10
0.000000
20
0.000000
30
0.000000
71
220
72
161
73
219
0
VERTEX
8
0
6
CONTINUOUS
62
252
70
128
10
0.000000
20
0.000000
30
0.000000
71
219
72
161
73
162
0
VERTEX
8
0
6
CONTINUOUS
62
252
70
128
10
0.000000
20
0.000000
30
0.000000
71
219
72
162
73
218
0
VERTEX
8
0
6
CONTINUOUS
62
252
70
128
10
0.000000
20
0.000000
30
0.000000
71
218
72
162
73
163
0
VERTEX
8
0
6
CONTINUOUS
62
252
70
128
10
0.000000
20
0.000000
30
0.000000
71
218
72
163
73
217
0
VERTEX
8
0
6
CONTINUOUS
62
252
70
128
10
0.000000
20
0.000000
30
0.000000
71
217
72
163
73
252
0
VERTEX
8
0
6
CONTINUOUS
62
252
70
128
10
0.000000
20
0.000000
30
0.000000
71
252
72
163
73
164
0
VERTEX
8
0
6
CONTINUOUS
62
252
70
128
10
0.000000
20
0.000000
30
0.000000
71
252
72
164
73
251
0
VERTEX
8
0
6
CONTINUOUS
62
252
70
128
10
0.000000
20
0.000000
30
0.000000
71
251
72
164
73
165
0
VERTEX
8
0
6
CONTINUOUS
62
252
70
128
10
0.000000
20
0.000000
30
0.000000
71
251
72
165
73
250
0
VERTEX
8
0
6
CONTINUOUS
62
252
70
128
10
0.000000
20
0.000000
30
0.000000
71
250
72
165
73
166
0
VERTEX
8
0
6
CONTINUOUS
62
252
70
128
10
0.000000
20
0.000000
30
0.000000
71
250
72
166
73
249
0
VERTEX
8
0
6
CONTINUOUS
62
252
70
128
10
0.000000
20
0.000000
30
0.000000
71
249
72
166
73
167
0
VERTEX
8
0
6
CONTINUOUS
62
252
70
128
10
0.000000
20
0.000000
30
0.000000
71
249
72
167
73
248
0
VERTEX
8
0
6
CONTINUOUS
62
252
70
128
10
0.000000
20
0.000000
30
0.000000
71
248
72
167
73
168
0
VERTEX
8
0
6
CONTINUOUS
62
252
70
128
10
0.000000
20
0.000000
30
0.000000
71
248
72
168
73
247
0
VERTEX
8
0
6
CONTINUOUS
62
252
70
128
10
0.000000
20
0.000000
30
0.000000
71
247
72
168
73
169
0
VERTEX
8
0
6
CONTINUOUS
62
252
70
128
10
0.000000
20
0.000000
30
0.000000
71
247
72
169
73
246
0
VERTEX
8
0
6
CONTINUOUS
62
252
70
128
10
0.000000
20
0.000000
30
0.000000
71
246
72
169
73
170
0
VERTEX
8
0
6
CONTINUOUS
62
252
70
128
10
0.000000
20
0.000000
30
0.000000
71
246
72
170
73
255
0
VERTEX
8
0
6
CONTINUOUS
62
252
70
128
10
0.000000
20
0.000000
30
0.000000
71
255
72
170
73
171
0
VERTEX
8
0
6
CONTINUOUS
62
252
70
128
10
0.000000
20
0.000000
30
0.000000
71
255
72
171
73
172
0
VERTEX
8
0
6
CONTINUOUS
62
252
70
128
10
0.000000
20
0.000000
30
0.000000
71
255
72
172
73
254
0
VERTEX
8
0
6
CONTINUOUS
62
252
70
128
10
0.000000
20
0.000000
30
0.000000
71
254
72
172
73
173
0
VERTEX
8
0
6
CONTINUOUS
62
252
70
128
10
0.000000
20
0.000000
30
0.000000
71
254
72
173
73
174
0
VERTEX
8
0
6
CONTINUOUS
62
252
70
128
10
0.000000
20
0.000000
30
0.000000
71
235
72
236
73
255
0
VERTEX
8
0
6
CONTINUOUS
62
252
70
128
10
0.000000
20
0.000000
30
0.000000
71
255
72
236
73
237
0
VERTEX
8
0
6
CONTINUOUS
62
252
70
128
10
0.000000
20
0.000000
30
0.000000
71
255
72
237
73
238
0
VERTEX
8
0
6
CONTINUOUS
62
252
70
128
10
0.000000
20
0.000000
30
0.000000
71
238
72
239
73
255
0
VERTEX
8
0
6
CONTINUOUS
62
252
70
128
10
0.000000
20
0.000000
30
0.000000
71
255
72
239
73
240
0
VERTEX
8
0
6
CONTINUOUS
62
252
70
128
10
0.000000
20
0.000000
30
0.000000
71
255
72
240
73
241
0
VERTEX
8
0
6
CONTINUOUS
62
252
70
128
10
0.000000
20
0.000000
30
0.000000
71
241
72
242
73
255
0
VERTEX
8
0
6
CONTINUOUS
62
252
70
128
10
0.000000
20
0.000000
30
0.000000
71
255
72
242
73
243
0
VERTEX
8
0
6
CONTINUOUS
62
252
70
128
10
0.000000
20
0.000000
30
0.000000
71
255
72
243
73
244
0
VERTEX
8
0
6
CONTINUOUS
62
252
70
128
10
0.000000
20
0.000000
30
0.000000
71
244
72
245
73
255
0
VERTEX
8
0
6
CONTINUOUS
62
252
70
128
10
0.000000
20
0.000000
30
0.000000
71
255
72
245
73
246
0
SEQEND
0
POLYLINE
66
1
8
0
6
CONTINUOUS
62
252
70
64
75
0
10
0.000000
20
0.000000
30
0.000000
0
VERTEX
8
0
6
CONTINUOUS
62
252
70
192
10
81.500000
20
-1.600000
30
101.500000
0
VERTEX
8
0
6
CONTINUOUS
62
252
70
192
10
81.500000
20
-1.600000
30
-3.500000
0
VERTEX
8
0
6
CONTINUOUS
62
252
70
192
10
81.500000
20
0.000000
30
-3.500000
0
VERTEX
8
0
6
CONTINUOUS
62
252
70
192
10
81.500000
20
0.000000
30
101.500000
0
VERTEX
8
0
6
CONTINUOUS
62
252
70
128
10
0.000000
20
0.000000
30
0.000000
71
1
72
2
73
4
0
VERTEX
8
0
6
CONTINUOUS
62
252
70
128
10
0.000000
20
0.000000
30
0.000000
71
4
72
2
73
3
0
SEQEND
0
ENDSEC
0
EOF
