0
SECTION
2
HEADER
9
$ACADVER
1
AC1009
9
$INSBASE
10
0.0
20
0.0
30
0.0
9
$EXTMIN
10
0.000000
20
0.000000
30
0.000000
9
$EXTMAX
10
0.000000
20
0.000000
30
0.000000
9
$UCSORG
10
0.0
20
0.0
30
0.0
9
$UCSXDIR
10
1.0
20
0.0
30
0.0
9
$UCSYDIR
10
0.0
20
1.0
30
0.0
9
$CLAYER
8
0
9
$SHADEDGE
70
3
0
ENDSEC
0
SECTION
2
TABLES
0
TABLE
2
LTYPE
70
2
0
LTYPE
2
CONTINUOUS
70
0
3
Solid line
72
65
73
0
40
0.0
0
ENDTAB
0
TABLE
2
LAYER
70
5
0
LAYER
2
0
70
0
62
7
6
CONTINUOUS
0
ENDTAB
0
TABLE
2
APPID
70
1
0
APPID
2
ACAD
70
64
0
ENDTAB
0
ENDSEC
0
SECTION
2
BLOCKS
0
ENDSEC
0
SECTION
2
ENTITIES
0
POLYLINE
66
1
8
0
6
CONTINUOUS
62
252
70
64
75
0
10
0.000000
20
0.000000
30
0.000000
0
VERTEX
8
0
6
CONTINUOUS
62
252
70
192
10
2.000000
20
0.000000
30
-9.500000
0
VERTEX
8
0
6
CONTINUOUS
62
252
70
192
10
2.000000
20
1.649658
30
-9.355674
0
VERTEX
8
0
6
CONTINUOUS
62
252
70
192
10
2.000000
20
3.249191
30
-8.927080
0
VERTEX
8
0
6
CONTINUOUS
62
252
70
192
10
2.000000
20
4.750000
30
-8.227241
0
VERTEX
8
0
6
CONTINUOUS
62
252
70
192
10
2.000000
20
6.106482
30
-7.277422
0
VERTEX
8
0
6
CONTINUOUS
62
252
70
192
10
2.000000
20
7.277422
30
-6.106482
0
VERTEX
8
0
6
CONTINUOUS
62
252
70
192
10
2.000000
20
8.227241
30
-4.750000
0
VERTEX
8
0
6
CONTINUOUS
62
252
70
192
10
2.000000
20
8.927080
30
-3.249191
0
VERTEX
8
0
6
CONTINUOUS
62
252
70
192
10
2.000000
20
9.355674
30
-1.649658
0
VERTEX
8
0
6
CONTINUOUS
62
252
70
192
10
2.000000
20
9.500000
30
0.000000
0
VERTEX
8
0
6
CONTINUOUS
62
252
70
192
10
2.000000
20
9.355674
30
1.649658
0
VERTEX
8
0
6
CONTINUOUS
62
252
70
192
10
2.000000
20
8.927080
30
3.249191
0
VERTEX
8
0
6
CONTINUOUS
62
252
70
192
10
2.000000
20
8.227241
30
4.750000
0
VERTEX
8
0
6
CONTINUOUS
62
252
70
192
10
2.000000
20
7.277422
30
6.106482
0
VERTEX
8
0
6
CONTINUOUS
62
252
70
192
10
2.000000
20
6.106482
30
7.277422
0
VERTEX
8
0
6
CONTINUOUS
62
252
70
192
10
2.000000
20
4.750000
30
8.227241
0
VERTEX
8
0
6
CONTINUOUS
62
252
70
192
10
2.000000
20
3.249191
30
8.927080
0
VERTEX
8
0
6
CONTINUOUS
62
252
70
192
10
2.000000
20
1.649658
30
9.355674
0
VERTEX
8
0
6
CONTINUOUS
62
252
70
192
10
2.000000
20
-0.000000
30
9.500000
0
VERTEX
8
0
6
CONTINUOUS
62
252
70
192
10
2.000000
20
-1.649658
30
9.355674
0
VERTEX
8
0
6
CONTINUOUS
62
252
70
192
10
2.000000
20
-3.249191
30
8.927080
0
VERTEX
8
0
6
CONTINUOUS
62
252
70
192
10
2.000000
20
-4.750000
30
8.227241
0
VERTEX
8
0
6
CONTINUOUS
62
252
70
192
10
2.000000
20
-6.106482
30
7.277422
0
VERTEX
8
0
6
CONTINUOUS
62
252
70
192
10
2.000000
20
-7.277422
30
6.106482
0
VERTEX
8
0
6
CONTINUOUS
62
252
70
192
10
2.000000
20
-8.227241
30
4.750000
0
VERTEX
8
0
6
CONTINUOUS
62
252
70
192
10
2.000000
20
-8.927080
30
3.249191
0
VERTEX
8
0
6
CONTINUOUS
62
252
70
192
10
2.000000
20
-9.355674
30
1.649658
0
VERTEX
8
0
6
CONTINUOUS
62
252
70
192
10
2.000000
20
-9.500000
30
-0.000000
0
VERTEX
8
0
6
CONTINUOUS
62
252
70
192
10
2.000000
20
-9.355674
30
-1.649658
0
VERTEX
8
0
6
CONTINUOUS
62
252
70
192
10
2.000000
20
-8.927080
30
-3.249191
0
VERTEX
8
0
6
CONTINUOUS
62
252
70
192
10
2.000000
20
-8.227241
30
-4.750000
0
VERTEX
8
0
6
CONTINUOUS
62
252
70
192
10
2.000000
20
-7.277422
30
-6.106482
0
VERTEX
8
0
6
CONTINUOUS
62
252
70
192
10
2.000000
20
-6.106482
30
-7.277422
0
VERTEX
8
0
6
CONTINUOUS
62
252
70
192
10
2.000000
20
-4.750000
30
-8.227241
0
VERTEX
8
0
6
CONTINUOUS
62
252
70
192
10
2.000000
20
-3.249191
30
-8.927080
0
VERTEX
8
0
6
CONTINUOUS
62
252
70
192
10
2.000000
20
-1.649658
30
-9.355674
0
VERTEX
8
0
6
CONTINUOUS
62
252
70
128
10
0.000000
20
0.000000
30
0.000000
71
2
72
18
73
1
0
VERTEX
8
0
6
CONTINUOUS
62
252
70
128
10
0.000000
20
0.000000
30
0.000000
71
1
72
18
73
19
0
VERTEX
8
0
6
CONTINUOUS
62
252
70
128
10
0.000000
20
0.000000
30
0.000000
71
1
72
19
73
36
0
VERTEX
8
0
6
CONTINUOUS
62
252
70
128
10
0.000000
20
0.000000
30
0.000000
71
36
72
19
73
35
0
VERTEX
8
0
6
CONTINUOUS
62
252
70
128
10
0.000000
20
0.000000
30
0.000000
71
35
72
19
73
20
0
VERTEX
8
0
6
CONTINUOUS
62
252
70
128
10
0.000000
20
0.000000
30
0.000000
71
35
72
20
73
21
0
VERTEX
8
0
6
CONTINUOUS
62
252
70
128
10
0.000000
20
0.000000
30
0.000000
71
3
72
16
73
2
0
VERTEX
8
0
6
CONTINUOUS
62
252
70
128
10
0.000000
20
0.000000
30
0.000000
71
2
72
16
73
17
0
VERTEX
8
0
6
CONTINUOUS
62
252
70
128
10
0.000000
20
0.000000
30
0.000000
71
2
72
17
73
18
0
VERTEX
8
0
6
CONTINUOUS
62
252
70
128
10
0.000000
20
0.000000
30
0.000000
71
3
72
4
73
16
0
VERTEX
8
0
6
CONTINUOUS
62
252
70
128
10
0.000000
20
0.000000
30
0.000000
71
16
72
4
73
5
0
VERTEX
8
0
6
CONTINUOUS
62
252
70
128
10
0.000000
20
0.000000
30
0.000000
71
16
72
5
73
6
0
VERTEX
8
0
6
CONTINUOUS
62
252
70
128
10
0.000000
20
0.000000
30
0.000000
71
7
72
12
73
6
0
VERTEX
8
0
6
CONTINUOUS
62
252
70
128
10
0.000000
20
0.000000
30
0.000000
71
6
72
12
73
13
0
VERTEX
8
0
6
CONTINUOUS
62
252
70
128
10
0.000000
20
0.000000
30
0.000000
71
6
72
13
73
14
0
VERTEX
8
0
6
CONTINUOUS
62
252
70
128
10
0.000000
20
0.000000
30
0.000000
71
7
72
8
73
12
0
VERTEX
8
0
6
CONTINUOUS
62
252
70
128
10
0.000000
20
0.000000
30
0.000000
71
12
72
8
73
9
0
VERTEX
8
0
6
CONTINUOUS
62
252
70
128
10
0.000000
20
0.000000
30
0.000000
71
12
72
9
73
10
0
VERTEX
8
0
6
CONTINUOUS
62
252
70
128
10
0.000000
20
0.000000
30
0.000000
71
10
72
11
73
12
0
VERTEX
8
0
6
CONTINUOUS
62
252
70
128
10
0.000000
20
0.000000
30
0.000000
71
14
72
15
73
6
0
VERTEX
8
0
6
CONTINUOUS
62
252
70
128
10
0.000000
20
0.000000
30
0.000000
71
6
72
15
73
16
0
VERTEX
8
0
6
CONTINUOUS
62
252
70
128
10
0.000000
20
0.000000
30
0.000000
71
21
72
22
73
35
0
VERTEX
8
0
6
CONTINUOUS
62
252
70
128
10
0.000000
20
0.000000
30
0.000000
71
35
72
22
73
34
0
VERTEX
8
0
6
CONTINUOUS
62
252
70
128
10
0.000000
20
0.000000
30
0.000000
71
34
72
22
73
33
0
VERTEX
8
0
6
CONTINUOUS
62
252
70
128
10
0.000000
20
0.000000
30
0.000000
71
33
72
22
73
32
0
VERTEX
8
0
6
CONTINUOUS
62
252
70
128
10
0.000000
20
0.000000
30
0.000000
71
32
72
22
73
23
0
VERTEX
8
0
6
CONTINUOUS
62
252
70
128
10
0.000000
20
0.000000
30
0.000000
71
32
72
23
73
24
0
VERTEX
8
0
6
CONTINUOUS
62
252
70
128
10
0.000000
20
0.000000
30
0.000000
71
25
72
30
73
24
0
VERTEX
8
0
6
CONTINUOUS
62
252
70
128
10
0.000000
20
0.000000
30
0.000000
71
24
72
30
73
31
0
VERTEX
8
0
6
CONTINUOUS
62
252
70
128
10
0.000000
20
0.000000
30
0.000000
71
24
72
31
73
32
0
VERTEX
8
0
6
CONTINUOUS
62
252
70
128
10
0.000000
20
0.000000
30
0.000000
71
25
72
26
73
30
0
VERTEX
8
0
6
CONTINUOUS
62
252
70
128
10
0.000000
20
0.000000
30
0.000000
71
30
72
26
73
27
0
VERTEX
8
0
6
CONTINUOUS
62
252
70
128
10
0.000000
20
0.000000
30
0.000000
71
30
72
27
73
28
0
VERTEX
8
0
6
CONTINUOUS
62
252
70
128
10
0.000000
20
0.000000
30
0.000000
71
28
72
29
73
30
0
SEQEND
0
POLYLINE
66
1
8
0
6
CONTINUOUS
62
252
70
64
75
0
10
0.000000
20
0.000000
30
0.000000
0
VERTEX
8
0
6
CONTINUOUS
62
252
70
192
10
-24.000000
20
0.000000
30
3.000000
0
VERTEX
8
0
6
CONTINUOUS
62
252
70
192
10
-24.000000
20
-0.520945
30
2.954423
0
VERTEX
8
0
6
CONTINUOUS
62
252
70
192
10
-24.000000
20
-1.026060
30
2.819078
0
VERTEX
8
0
6
CONTINUOUS
62
252
70
192
10
-24.000000
20
-1.500000
30
2.598076
0
VERTEX
8
0
6
CONTINUOUS
62
252
70
192
10
-24.000000
20
-1.928363
30
2.298133
0
VERTEX
8
0
6
CONTINUOUS
62
252
70
192
10
-24.000000
20
-2.298133
30
1.928363
0
VERTEX
8
0
6
CONTINUOUS
62
252
70
192
10
-24.000000
20
-2.598076
30
1.500000
0
VERTEX
8
0
6
CONTINUOUS
62
252
70
192
10
-24.000000
20
-2.819078
30
1.026060
0
VERTEX
8
0
6
CONTINUOUS
62
252
70
192
10
-24.000000
20
-2.954423
30
0.520945
0
VERTEX
8
0
6
CONTINUOUS
62
252
70
192
10
-24.000000
20
-3.000000
30
-0.000000
0
VERTEX
8
0
6
CONTINUOUS
62
252
70
192
10
-24.000000
20
-2.954423
30
-0.520945
0
VERTEX
8
0
6
CONTINUOUS
62
252
70
192
10
-24.000000
20
-2.819078
30
-1.026060
0
VERTEX
8
0
6
CONTINUOUS
62
252
70
192
10
-24.000000
20
-2.598076
30
-1.500000
0
VERTEX
8
0
6
CONTINUOUS
62
252
70
192
10
-24.000000
20
-2.298133
30
-1.928363
0
VERTEX
8
0
6
CONTINUOUS
62
252
70
192
10
-24.000000
20
-1.928363
30
-2.298133
0
VERTEX
8
0
6
CONTINUOUS
62
252
70
192
10
-24.000000
20
-1.500000
30
-2.598076
0
VERTEX
8
0
6
CONTINUOUS
62
252
70
192
10
-24.000000
20
-1.026060
30
-2.819078
0
VERTEX
8
0
6
CONTINUOUS
62
252
70
192
10
-24.000000
20
-0.520945
30
-2.954423
0
VERTEX
8
0
6
CONTINUOUS
62
252
70
192
10
-24.000000
20
-0.000000
30
-3.000000
0
VERTEX
8
0
6
CONTINUOUS
62
252
70
192
10
-24.000000
20
0.520945
30
-2.954423
0
VERTEX
8
0
6
CONTINUOUS
62
252
70
192
10
-24.000000
20
1.026060
30
-2.819078
0
VERTEX
8
0
6
CONTINUOUS
62
252
70
192
10
-24.000000
20
1.500000
30
-2.598076
0
VERTEX
8
0
6
CONTINUOUS
62
252
70
192
10
-24.000000
20
1.928363
30
-2.298133
0
VERTEX
8
0
6
CONTINUOUS
62
252
70
192
10
-24.000000
20
2.298133
30
-1.928363
0
VERTEX
8
0
6
CONTINUOUS
62
252
70
192
10
-24.000000
20
2.598076
30
-1.500000
0
VERTEX
8
0
6
CONTINUOUS
62
252
70
192
10
-24.000000
20
2.819078
30
-1.026060
0
VERTEX
8
0
6
CONTINUOUS
62
252
70
192
10
-24.000000
20
2.954423
30
-0.520945
0
VERTEX
8
0
6
CONTINUOUS
62
252
70
192
10
-24.000000
20
3.000000
30
-0.000000
0
VERTEX
8
0
6
CONTINUOUS
62
252
70
192
10
-24.000000
20
2.954423
30
0.520945
0
VERTEX
8
0
6
CONTINUOUS
62
252
70
192
10
-24.000000
20
2.819078
30
1.026060
0
VERTEX
8
0
6
CONTINUOUS
62
252
70
192
10
-24.000000
20
2.598076
30
1.500000
0
VERTEX
8
0
6
CONTINUOUS
62
252
70
192
10
-24.000000
20
2.298133
30
1.928363
0
VERTEX
8
0
6
CONTINUOUS
62
252
70
192
10
-24.000000
20
1.928363
30
2.298133
0
VERTEX
8
0
6
CONTINUOUS
62
252
70
192
10
-24.000000
20
1.500000
30
2.598076
0
VERTEX
8
0
6
CONTINUOUS
62
252
70
192
10
-24.000000
20
1.026060
30
2.819078
0
VERTEX
8
0
6
CONTINUOUS
62
252
70
192
10
-24.000000
20
0.520945
30
2.954423
0
VERTEX
8
0
6
CONTINUOUS
62
252
70
192
10
-2.000000
20
0.000000
30
-3.000000
0
VERTEX
8
0
6
CONTINUOUS
62
252
70
192
10
-2.000000
20
-0.520945
30
-2.954423
0
VERTEX
8
0
6
CONTINUOUS
62
252
70
192
10
-2.000000
20
-1.026060
30
-2.819078
0
VERTEX
8
0
6
CONTINUOUS
62
252
70
192
10
-2.000000
20
-1.500000
30
-2.598076
0
VERTEX
8
0
6
CONTINUOUS
62
252
70
192
10
-2.000000
20
-1.928363
30
-2.298133
0
VERTEX
8
0
6
CONTINUOUS
62
252
70
192
10
-2.000000
20
-2.298133
30
-1.928363
0
VERTEX
8
0
6
CONTINUOUS
62
252
70
192
10
-2.000000
20
-2.598076
30
-1.500000
0
VERTEX
8
0
6
CONTINUOUS
62
252
70
192
10
-2.000000
20
-2.819078
30
-1.026060
0
VERTEX
8
0
6
CONTINUOUS
62
252
70
192
10
-2.000000
20
-2.954423
30
-0.520945
0
VERTEX
8
0
6
CONTINUOUS
62
252
70
192
10
-2.000000
20
-3.000000
30
-0.000000
0
VERTEX
8
0
6
CONTINUOUS
62
252
70
192
10
-2.000000
20
-2.954423
30
0.520945
0
VERTEX
8
0
6
CONTINUOUS
62
252
70
192
10
-2.000000
20
-2.819078
30
1.026060
0
VERTEX
8
0
6
CONTINUOUS
62
252
70
192
10
-2.000000
20
-2.598076
30
1.500000
0
VERTEX
8
0
6
CONTINUOUS
62
252
70
192
10
-2.000000
20
-2.298133
30
1.928363
0
VERTEX
8
0
6
CONTINUOUS
62
252
70
192
10
-2.000000
20
-1.928363
30
2.298133
0
VERTEX
8
0
6
CONTINUOUS
62
252
70
192
10
-2.000000
20
-1.500000
30
2.598076
0
VERTEX
8
0
6
CONTINUOUS
62
252
70
192
10
-2.000000
20
-1.026060
30
2.819078
0
VERTEX
8
0
6
CONTINUOUS
62
252
70
192
10
-2.000000
20
-0.520945
30
2.954423
0
VERTEX
8
0
6
CONTINUOUS
62
252
70
192
10
-2.000000
20
0.000000
30
3.000000
0
VERTEX
8
0
6
CONTINUOUS
62
252
70
192
10
-2.000000
20
0.520945
30
2.954423
0
VERTEX
8
0
6
CONTINUOUS
62
252
70
192
10
-2.000000
20
1.026060
30
2.819078
0
VERTEX
8
0
6
CONTINUOUS
62
252
70
192
10
-2.000000
20
1.500000
30
2.598076
0
VERTEX
8
0
6
CONTINUOUS
62
252
70
192
10
-2.000000
20
1.928363
30
2.298133
0
VERTEX
8
0
6
CONTINUOUS
62
252
70
192
10
-2.000000
20
2.298133
30
1.928363
0
VERTEX
8
0
6
CONTINUOUS
62
252
70
192
10
-2.000000
20
2.598076
30
1.500000
0
VERTEX
8
0
6
CONTINUOUS
62
252
70
192
10
-2.000000
20
2.819078
30
1.026060
0
VERTEX
8
0
6
CONTINUOUS
62
252
70
192
10
-2.000000
20
2.954423
30
0.520945
0
VERTEX
8
0
6
CONTINUOUS
62
252
70
192
10
-2.000000
20
3.000000
30
-0.000000
0
VERTEX
8
0
6
CONTINUOUS
62
252
70
192
10
-2.000000
20
2.954423
30
-0.520945
0
VERTEX
8
0
6
CONTINUOUS
62
252
70
192
10
-2.000000
20
2.819078
30
-1.026060
0
VERTEX
8
0
6
CONTINUOUS
62
252
70
192
10
-2.000000
20
2.598076
30
-1.500000
0
VERTEX
8
0
6
CONTINUOUS
62
252
70
192
10
-2.000000
20
2.298133
30
-1.928363
0
VERTEX
8
0
6
CONTINUOUS
62
252
70
192
10
-2.000000
20
1.928363
30
-2.298133
0
VERTEX
8
0
6
CONTINUOUS
62
252
70
192
10
-2.000000
20
1.500000
30
-2.598076
0
VERTEX
8
0
6
CONTINUOUS
62
252
70
192
10
-2.000000
20
1.026060
30
-2.819078
0
VERTEX
8
0
6
CONTINUOUS
62
252
70
192
10
-2.000000
20
0.520945
30
-2.954423
0
VERTEX
8
0
6
CONTINUOUS
62
252
70
128
10
0.000000
20
0.000000
30
0.000000
71
2
72
55
73
1
0
VERTEX
8
0
6
CONTINUOUS
62
252
70
128
10
0.000000
20
0.000000
30
0.000000
71
1
72
55
73
56
0
VERTEX
8
0
6
CONTINUOUS
62
252
70
128
10
0.000000
20
0.000000
30
0.000000
71
1
72
56
73
36
0
VERTEX
8
0
6
CONTINUOUS
62
252
70
128
10
0.000000
20
0.000000
30
0.000000
71
36
72
56
73
57
0
VERTEX
8
0
6
CONTINUOUS
62
252
70
128
10
0.000000
20
0.000000
30
0.000000
71
36
72
57
73
35
0
VERTEX
8
0
6
CONTINUOUS
62
252
70
128
10
0.000000
20
0.000000
30
0.000000
71
35
72
57
73
58
0
VERTEX
8
0
6
CONTINUOUS
62
252
70
128
10
0.000000
20
0.000000
30
0.000000
71
35
72
58
73
34
0
VERTEX
8
0
6
CONTINUOUS
62
252
70
128
10
0.000000
20
0.000000
30
0.000000
71
34
72
58
73
59
0
VERTEX
8
0
6
CONTINUOUS
62
252
70
128
10
0.000000
20
0.000000
30
0.000000
71
34
72
59
73
33
0
VERTEX
8
0
6
CONTINUOUS
62
252
70
128
10
0.000000
20
0.000000
30
0.000000
71
33
72
59
73
60
0
VERTEX
8
0
6
CONTINUOUS
62
252
70
128
10
0.000000
20
0.000000
30
0.000000
71
33
72
60
73
32
0
VERTEX
8
0
6
CONTINUOUS
62
252
70
128
10
0.000000
20
0.000000
30
0.000000
71
32
72
60
73
61
0
VERTEX
8
0
6
CONTINUOUS
62
252
70
128
10
0.000000
20
0.000000
30
0.000000
71
32
72
61
73
31
0
VERTEX
8
0
6
CONTINUOUS
62
252
70
128
10
0.000000
20
0.000000
30
0.000000
71
31
72
61
73
62
0
VERTEX
8
0
6
CONTINUOUS
62
252
70
128
10
0.000000
20
0.000000
30
0.000000
71
31
72
62
73
30
0
VERTEX
8
0
6
CONTINUOUS
62
252
70
128
10
0.000000
20
0.000000
30
0.000000
71
30
72
62
73
63
0
VERTEX
8
0
6
CONTINUOUS
62
252
70
128
10
0.000000
20
0.000000
30
0.000000
71
30
72
63
73
29
0
VERTEX
8
0
6
CONTINUOUS
62
252
70
128
10
0.000000
20
0.000000
30
0.000000
71
29
72
63
73
64
0
VERTEX
8
0
6
CONTINUOUS
62
252
70
128
10
0.000000
20
0.000000
30
0.000000
71
29
72
64
73
28
0
VERTEX
8
0
6
CONTINUOUS
62
252
70
128
10
0.000000
20
0.000000
30
0.000000
71
28
72
64
73
65
0
VERTEX
8
0
6
CONTINUOUS
62
252
70
128
10
0.000000
20
0.000000
30
0.000000
71
28
72
65
73
27
0
VERTEX
8
0
6
CONTINUOUS
62
252
70
128
10
0.000000
20
0.000000
30
0.000000
71
27
72
65
73
66
0
VERTEX
8
0
6
CONTINUOUS
62
252
70
128
10
0.000000
20
0.000000
30
0.000000
71
27
72
66
73
26
0
VERTEX
8
0
6
CONTINUOUS
62
252
70
128
10
0.000000
20
0.000000
30
0.000000
71
26
72
66
73
67
0
VERTEX
8
0
6
CONTINUOUS
62
252
70
128
10
0.000000
20
0.000000
30
0.000000
71
26
72
67
73
25
0
VERTEX
8
0
6
CONTINUOUS
62
252
70
128
10
0.000000
20
0.000000
30
0.000000
71
25
72
67
73
68
0
VERTEX
8
0
6
CONTINUOUS
62
252
70
128
10
0.000000
20
0.000000
30
0.000000
71
25
72
68
73
24
0
VERTEX
8
0
6
CONTINUOUS
62
252
70
128
10
0.000000
20
0.000000
30
0.000000
71
24
72
68
73
69
0
VERTEX
8
0
6
CONTINUOUS
62
252
70
128
10
0.000000
20
0.000000
30
0.000000
71
24
72
69
73
23
0
VERTEX
8
0
6
CONTINUOUS
62
252
70
128
10
0.000000
20
0.000000
30
0.000000
71
23
72
69
73
70
0
VERTEX
8
0
6
CONTINUOUS
62
252
70
128
10
0.000000
20
0.000000
30
0.000000
71
23
72
70
73
22
0
VERTEX
8
0
6
CONTINUOUS
62
252
70
128
10
0.000000
20
0.000000
30
0.000000
71
22
72
70
73
71
0
VERTEX
8
0
6
CONTINUOUS
62
252
70
128
10
0.000000
20
0.000000
30
0.000000
71
22
72
71
73
21
0
VERTEX
8
0
6
CONTINUOUS
62
252
70
128
10
0.000000
20
0.000000
30
0.000000
71
21
72
71
73
72
0
VERTEX
8
0
6
CONTINUOUS
62
252
70
128
10
0.000000
20
0.000000
30
0.000000
71
21
72
72
73
20
0
VERTEX
8
0
6
CONTINUOUS
62
252
70
128
10
0.000000
20
0.000000
30
0.000000
71
20
72
72
73
37
0
VERTEX
8
0
6
CONTINUOUS
62
252
70
128
10
0.000000
20
0.000000
30
0.000000
71
20
72
37
73
19
0
VERTEX
8
0
6
CONTINUOUS
62
252
70
128
10
0.000000
20
0.000000
30
0.000000
71
19
72
37
73
18
0
VERTEX
8
0
6
CONTINUOUS
62
252
70
128
10
0.000000
20
0.000000
30
0.000000
71
18
72
37
73
38
0
VERTEX
8
0
6
CONTINUOUS
62
252
70
128
10
0.000000
20
0.000000
30
0.000000
71
18
72
38
73
17
0
VERTEX
8
0
6
CONTINUOUS
62
252
70
128
10
0.000000
20
0.000000
30
0.000000
71
17
72
38
73
39
0
VERTEX
8
0
6
CONTINUOUS
62
252
70
128
10
0.000000
20
0.000000
30
0.000000
71
17
72
39
73
40
0
VERTEX
8
0
6
CONTINUOUS
62
252
70
128
10
0.000000
20
0.000000
30
0.000000
71
55
72
2
73
54
0
VERTEX
8
0
6
CONTINUOUS
62
252
70
128
10
0.000000
20
0.000000
30
0.000000
71
54
72
2
73
3
0
VERTEX
8
0
6
CONTINUOUS
62
252
70
128
10
0.000000
20
0.000000
30
0.000000
71
54
72
3
73
53
0
VERTEX
8
0
6
CONTINUOUS
62
252
70
128
10
0.000000
20
0.000000
30
0.000000
71
53
72
3
73
4
0
VERTEX
8
0
6
CONTINUOUS
62
252
70
128
10
0.000000
20
0.000000
30
0.000000
71
53
72
4
73
52
0
VERTEX
8
0
6
CONTINUOUS
62
252
70
128
10
0.000000
20
0.000000
30
0.000000
71
52
72
4
73
5
0
VERTEX
8
0
6
CONTINUOUS
62
252
70
128
10
0.000000
20
0.000000
30
0.000000
71
52
72
5
73
51
0
VERTEX
8
0
6
CONTINUOUS
62
252
70
128
10
0.000000
20
0.000000
30
0.000000
71
51
72
5
73
6
0
VERTEX
8
0
6
CONTINUOUS
62
252
70
128
10
0.000000
20
0.000000
30
0.000000
71
51
72
6
73
50
0
VERTEX
8
0
6
CONTINUOUS
62
252
70
128
10
0.000000
20
0.000000
30
0.000000
71
50
72
6
73
7
0
VERTEX
8
0
6
CONTINUOUS
62
252
70
128
10
0.000000
20
0.000000
30
0.000000
71
50
72
7
73
49
0
VERTEX
8
0
6
CONTINUOUS
62
252
70
128
10
0.000000
20
0.000000
30
0.000000
71
49
72
7
73
8
0
VERTEX
8
0
6
CONTINUOUS
62
252
70
128
10
0.000000
20
0.000000
30
0.000000
71
49
72
8
73
48
0
VERTEX
8
0
6
CONTINUOUS
62
252
70
128
10
0.000000
20
0.000000
30
0.000000
71
48
72
8
73
9
0
VERTEX
8
0
6
CONTINUOUS
62
252
70
128
10
0.000000
20
0.000000
30
0.000000
71
48
72
9
73
47
0
VERTEX
8
0
6
CONTINUOUS
62
252
70
128
10
0.000000
20
0.000000
30
0.000000
71
47
72
9
73
10
0
VERTEX
8
0
6
CONTINUOUS
62
252
70
128
10
0.000000
20
0.000000
30
0.000000
71
47
72
10
73
46
0
VERTEX
8
0
6
CONTINUOUS
62
252
70
128
10
0.000000
20
0.000000
30
0.000000
71
46
72
10
73
11
0
VERTEX
8
0
6
CONTINUOUS
62
252
70
128
10
0.000000
20
0.000000
30
0.000000
71
46
72
11
73
45
0
VERTEX
8
0
6
CONTINUOUS
62
252
70
128
10
0.000000
20
0.000000
30
0.000000
71
45
72
11
73
12
0
VERTEX
8
0
6
CONTINUOUS
62
252
70
128
10
0.000000
20
0.000000
30
0.000000
71
45
72
12
73
44
0
VERTEX
8
0
6
CONTINUOUS
62
252
70
128
10
0.000000
20
0.000000
30
0.000000
71
44
72
12
73
13
0
VERTEX
8
0
6
CONTINUOUS
62
252
70
128
10
0.000000
20
0.000000
30
0.000000
71
44
72
13
73
43
0
VERTEX
8
0
6
CONTINUOUS
62
252
70
128
10
0.000000
20
0.000000
30
0.000000
71
43
72
13
73
14
0
VERTEX
8
0
6
CONTINUOUS
62
252
70
128
10
0.000000
20
0.000000
30
0.000000
71
43
72
14
73
42
0
VERTEX
8
0
6
CONTINUOUS
62
252
70
128
10
0.000000
20
0.000000
30
0.000000
71
42
72
14
73
15
0
VERTEX
8
0
6
CONTINUOUS
62
252
70
128
10
0.000000
20
0.000000
30
0.000000
71
42
72
15
73
41
0
VERTEX
8
0
6
CONTINUOUS
62
252
70
128
10
0.000000
20
0.000000
30
0.000000
71
41
72
15
73
16
0
VERTEX
8
0
6
CONTINUOUS
62
252
70
128
10
0.000000
20
0.000000
30
0.000000
71
41
72
16
73
40
0
VERTEX
8
0
6
CONTINUOUS
62
252
70
128
10
0.000000
20
0.000000
30
0.000000
71
40
72
16
73
17
0
SEQEND
0
POLYLINE
66
1
8
0
6
CONTINUOUS
62
252
70
64
75
0
10
0.000000
20
0.000000
30
0.000000
0
VERTEX
8
0
6
CONTINUOUS
62
252
70
192
10
-24.000000
20
0.000000
30
3.000000
0
VERTEX
8
0
6
CONTINUOUS
62
252
70
192
10
-24.000000
20
0.520945
30
2.954423
0
VERTEX
8
0
6
CONTINUOUS
62
252
70
192
10
-24.000000
20
1.026060
30
2.819078
0
VERTEX
8
0
6
CONTINUOUS
62
252
70
192
10
-24.000000
20
1.500000
30
2.598076
0
VERTEX
8
0
6
CONTINUOUS
62
252
70
192
10
-24.000000
20
1.928363
30
2.298133
0
VERTEX
8
0
6
CONTINUOUS
62
252
70
192
10
-24.000000
20
2.298133
30
1.928363
0
VERTEX
8
0
6
CONTINUOUS
62
252
70
192
10
-24.000000
20
2.598076
30
1.500000
0
VERTEX
8
0
6
CONTINUOUS
62
252
70
192
10
-24.000000
20
2.819078
30
1.026060
0
VERTEX
8
0
6
CONTINUOUS
62
252
70
192
10
-24.000000
20
2.954423
30
0.520945
0
VERTEX
8
0
6
CONTINUOUS
62
252
70
192
10
-24.000000
20
3.000000
30
-0.000000
0
VERTEX
8
0
6
CONTINUOUS
62
252
70
192
10
-24.000000
20
2.954423
30
-0.520945
0
VERTEX
8
0
6
CONTINUOUS
62
252
70
192
10
-24.000000
20
2.819078
30
-1.026060
0
VERTEX
8
0
6
CONTINUOUS
62
252
70
192
10
-24.000000
20
2.598076
30
-1.500000
0
VERTEX
8
0
6
CONTINUOUS
62
252
70
192
10
-24.000000
20
2.298133
30
-1.928363
0
VERTEX
8
0
6
CONTINUOUS
62
252
70
192
10
-24.000000
20
1.928363
30
-2.298133
0
VERTEX
8
0
6
CONTINUOUS
62
252
70
192
10
-24.000000
20
1.500000
30
-2.598076
0
VERTEX
8
0
6
CONTINUOUS
62
252
70
192
10
-24.000000
20
1.026060
30
-2.819078
0
VERTEX
8
0
6
CONTINUOUS
62
252
70
192
10
-24.000000
20
0.520945
30
-2.954423
0
VERTEX
8
0
6
CONTINUOUS
62
252
70
192
10
-24.000000
20
-0.000000
30
-3.000000
0
VERTEX
8
0
6
CONTINUOUS
62
252
70
192
10
-24.000000
20
-0.520945
30
-2.954423
0
VERTEX
8
0
6
CONTINUOUS
62
252
70
192
10
-24.000000
20
-1.026060
30
-2.819078
0
VERTEX
8
0
6
CONTINUOUS
62
252
70
192
10
-24.000000
20
-1.500000
30
-2.598076
0
VERTEX
8
0
6
CONTINUOUS
62
252
70
192
10
-24.000000
20
-1.928363
30
-2.298133
0
VERTEX
8
0
6
CONTINUOUS
62
252
70
192
10
-24.000000
20
-2.298133
30
-1.928363
0
VERTEX
8
0
6
CONTINUOUS
62
252
70
192
10
-24.000000
20
-2.598076
30
-1.500000
0
VERTEX
8
0
6
CONTINUOUS
62
252
70
192
10
-24.000000
20
-2.819078
30
-1.026060
0
VERTEX
8
0
6
CONTINUOUS
62
252
70
192
10
-24.000000
20
-2.954423
30
-0.520945
0
VERTEX
8
0
6
CONTINUOUS
62
252
70
192
10
-24.000000
20
-3.000000
30
-0.000000
0
VERTEX
8
0
6
CONTINUOUS
62
252
70
192
10
-24.000000
20
-2.954423
30
0.520945
0
VERTEX
8
0
6
CONTINUOUS
62
252
70
192
10
-24.000000
20
-2.819078
30
1.026060
0
VERTEX
8
0
6
CONTINUOUS
62
252
70
192
10
-24.000000
20
-2.598076
30
1.500000
0
VERTEX
8
0
6
CONTINUOUS
62
252
70
192
10
-24.000000
20
-2.298133
30
1.928363
0
VERTEX
8
0
6
CONTINUOUS
62
252
70
192
10
-24.000000
20
-1.928363
30
2.298133
0
VERTEX
8
0
6
CONTINUOUS
62
252
70
192
10
-24.000000
20
-1.500000
30
2.598076
0
VERTEX
8
0
6
CONTINUOUS
62
252
70
192
10
-24.000000
20
-1.026060
30
2.819078
0
VERTEX
8
0
6
CONTINUOUS
62
252
70
192
10
-24.000000
20
-0.520945
30
2.954423
0
VERTEX
8
0
6
CONTINUOUS
62
252
70
128
10
0.000000
20
0.000000
30
0.000000
71
2
72
18
73
1
0
VERTEX
8
0
6
CONTINUOUS
62
252
70
128
10
0.000000
20
0.000000
30
0.000000
71
1
72
18
73
19
0
VERTEX
8
0
6
CONTINUOUS
62
252
70
128
10
0.000000
20
0.000000
30
0.000000
71
1
72
19
73
36
0
VERTEX
8
0
6
CONTINUOUS
62
252
70
128
10
0.000000
20
0.000000
30
0.000000
71
36
72
19
73
35
0
VERTEX
8
0
6
CONTINUOUS
62
252
70
128
10
0.000000
20
0.000000
30
0.000000
71
35
72
19
73
20
0
VERTEX
8
0
6
CONTINUOUS
62
252
70
128
10
0.000000
20
0.000000
30
0.000000
71
35
72
20
73
21
0
VERTEX
8
0
6
CONTINUOUS
62
252
70
128
10
0.000000
20
0.000000
30
0.000000
71
2
72
3
73
18
0
VERTEX
8
0
6
CONTINUOUS
62
252
70
128
10
0.000000
20
0.000000
30
0.000000
71
18
72
3
73
4
0
VERTEX
8
0
6
CONTINUOUS
62
252
70
128
10
0.000000
20
0.000000
30
0.000000
71
18
72
4
73
17
0
VERTEX
8
0
6
CONTINUOUS
62
252
70
128
10
0.000000
20
0.000000
30
0.000000
71
17
72
4
73
16
0
VERTEX
8
0
6
CONTINUOUS
62
252
70
128
10
0.000000
20
0.000000
30
0.000000
71
16
72
4
73
15
0
VERTEX
8
0
6
CONTINUOUS
62
252
70
128
10
0.000000
20
0.000000
30
0.000000
71
15
72
4
73
14
0
VERTEX
8
0
6
CONTINUOUS
62
252
70
128
10
0.000000
20
0.000000
30
0.000000
71
14
72
4
73
5
0
VERTEX
8
0
6
CONTINUOUS
62
252
70
128
10
0.000000
20
0.000000
30
0.000000
71
14
72
5
73
6
0
VERTEX
8
0
6
CONTINUOUS
62
252
70
128
10
0.000000
20
0.000000
30
0.000000
71
6
72
7
73
14
0
VERTEX
8
0
6
CONTINUOUS
62
252
70
128
10
0.000000
20
0.000000
30
0.000000
71
14
72
7
73
13
0
VERTEX
8
0
6
CONTINUOUS
62
252
70
128
10
0.000000
20
0.000000
30
0.000000
71
13
72
7
73
12
0
VERTEX
8
0
6
CONTINUOUS
62
252
70
128
10
0.000000
20
0.000000
30
0.000000
71
12
72
7
73
11
0
VERTEX
8
0
6
CONTINUOUS
62
252
70
128
10
0.000000
20
0.000000
30
0.000000
71
11
72
7
73
8
0
VERTEX
8
0
6
CONTINUOUS
62
252
70
128
10
0.000000
20
0.000000
30
0.000000
71
11
72
8
73
9
0
VERTEX
8
0
6
CONTINUOUS
62
252
70
128
10
0.000000
20
0.000000
30
0.000000
71
9
72
10
73
11
0
VERTEX
8
0
6
CONTINUOUS
62
252
70
128
10
0.000000
20
0.000000
30
0.000000
71
22
72
33
73
21
0
VERTEX
8
0
6
CONTINUOUS
62
252
70
128
10
0.000000
20
0.000000
30
0.000000
71
21
72
33
73
34
0
VERTEX
8
0
6
CONTINUOUS
62
252
70
128
10
0.000000
20
0.000000
30
0.000000
71
21
72
34
73
35
0
VERTEX
8
0
6
CONTINUOUS
62
252
70
128
10
0.000000
20
0.000000
30
0.000000
71
22
72
23
73
33
0
VERTEX
8
0
6
CONTINUOUS
62
252
70
128
10
0.000000
20
0.000000
30
0.000000
71
33
72
23
73
24
0
VERTEX
8
0
6
CONTINUOUS
62
252
70
128
10
0.000000
20
0.000000
30
0.000000
71
33
72
24
73
32
0
VERTEX
8
0
6
CONTINUOUS
62
252
70
128
10
0.000000
20
0.000000
30
0.000000
71
32
72
24
73
25
0
VERTEX
8
0
6
CONTINUOUS
62
252
70
128
10
0.000000
20
0.000000
30
0.000000
71
32
72
25
73
31
0
VERTEX
8
0
6
CONTINUOUS
62
252
70
128
10
0.000000
20
0.000000
30
0.000000
71
31
72
25
73
30
0
VERTEX
8
0
6
CONTINUOUS
62
252
70
128
10
0.000000
20
0.000000
30
0.000000
71
30
72
25
73
29
0
VERTEX
8
0
6
CONTINUOUS
62
252
70
128
10
0.000000
20
0.000000
30
0.000000
71
29
72
25
73
26
0
VERTEX
8
0
6
CONTINUOUS
62
252
70
128
10
0.000000
20
0.000000
30
0.000000
71
29
72
26
73
27
0
VERTEX
8
0
6
CONTINUOUS
62
252
70
128
10
0.000000
20
0.000000
30
0.000000
71
27
72
28
73
29
0
SEQEND
0
POLYLINE
66
1
8
0
6
CONTINUOUS
62
252
70
64
75
0
10
0.000000
20
0.000000
30
0.000000
0
VERTEX
8
0
6
CONTINUOUS
62
252
70
192
10
2.000000
20
0.000000
30
-9.500000
0
VERTEX
8
0
6
CONTINUOUS
62
252
70
192
10
2.000000
20
-1.649658
30
-9.355674
0
VERTEX
8
0
6
CONTINUOUS
62
252
70
192
10
2.000000
20
-3.249191
30
-8.927080
0
VERTEX
8
0
6
CONTINUOUS
62
252
70
192
10
2.000000
20
-4.750000
30
-8.227241
0
VERTEX
8
0
6
CONTINUOUS
62
252
70
192
10
2.000000
20
-6.106482
30
-7.277422
0
VERTEX
8
0
6
CONTINUOUS
62
252
70
192
10
2.000000
20
-7.277422
30
-6.106482
0
VERTEX
8
0
6
CONTINUOUS
62
252
70
192
10
2.000000
20
-8.227241
30
-4.750000
0
VERTEX
8
0
6
CONTINUOUS
62
252
70
192
10
2.000000
20
-8.927080
30
-3.249191
0
VERTEX
8
0
6
CONTINUOUS
62
252
70
192
10
2.000000
20
-9.355674
30
-1.649658
0
VERTEX
8
0
6
CONTINUOUS
62
252
70
192
10
2.000000
20
-9.500000
30
-0.000000
0
VERTEX
8
0
6
CONTINUOUS
62
252
70
192
10
2.000000
20
-9.355674
30
1.649658
0
VERTEX
8
0
6
CONTINUOUS
62
252
70
192
10
2.000000
20
-8.927080
30
3.249191
0
VERTEX
8
0
6
CONTINUOUS
62
252
70
192
10
2.000000
20
-8.227241
30
4.750000
0
VERTEX
8
0
6
CONTINUOUS
62
252
70
192
10
2.000000
20
-7.277422
30
6.106482
0
VERTEX
8
0
6
CONTINUOUS
62
252
70
192
10
2.000000
20
-6.106482
30
7.277422
0
VERTEX
8
0
6
CONTINUOUS
62
252
70
192
10
2.000000
20
-4.750000
30
8.227241
0
VERTEX
8
0
6
CONTINUOUS
62
252
70
192
10
2.000000
20
-3.249191
30
8.927080
0
VERTEX
8
0
6
CONTINUOUS
62
252
70
192
10
2.000000
20
-1.649658
30
9.355674
0
VERTEX
8
0
6
CONTINUOUS
62
252
70
192
10
2.000000
20
-0.000000
30
9.500000
0
VERTEX
8
0
6
CONTINUOUS
62
252
70
192
10
2.000000
20
1.649658
30
9.355674
0
VERTEX
8
0
6
CONTINUOUS
62
252
70
192
10
2.000000
20
3.249191
30
8.927080
0
VERTEX
8
0
6
CONTINUOUS
62
252
70
192
10
2.000000
20
4.750000
30
8.227241
0
VERTEX
8
0
6
CONTINUOUS
62
252
70
192
10
2.000000
20
6.106482
30
7.277422
0
VERTEX
8
0
6
CONTINUOUS
62
252
70
192
10
2.000000
20
7.277422
30
6.106482
0
VERTEX
8
0
6
CONTINUOUS
62
252
70
192
10
2.000000
20
8.227241
30
4.750000
0
VERTEX
8
0
6
CONTINUOUS
62
252
70
192
10
2.000000
20
8.927080
30
3.249191
0
VERTEX
8
0
6
CONTINUOUS
62
252
70
192
10
2.000000
20
9.355674
30
1.649658
0
VERTEX
8
0
6
CONTINUOUS
62
252
70
192
10
2.000000
20
9.500000
30
0.000000
0
VERTEX
8
0
6
CONTINUOUS
62
252
70
192
10
2.000000
20
9.355674
30
-1.649658
0
VERTEX
8
0
6
CONTINUOUS
62
252
70
192
10
2.000000
20
8.927080
30
-3.249191
0
VERTEX
8
0
6
CONTINUOUS
62
252
70
192
10
2.000000
20
8.227241
30
-4.750000
0
VERTEX
8
0
6
CONTINUOUS
62
252
70
192
10
2.000000
20
7.277422
30
-6.106482
0
VERTEX
8
0
6
CONTINUOUS
62
252
70
192
10
2.000000
20
6.106482
30
-7.277422
0
VERTEX
8
0
6
CONTINUOUS
62
252
70
192
10
2.000000
20
4.750000
30
-8.227241
0
VERTEX
8
0
6
CONTINUOUS
62
252
70
192
10
2.000000
20
3.249191
30
-8.927080
0
VERTEX
8
0
6
CONTINUOUS
62
252
70
192
10
2.000000
20
1.649658
30
-9.355674
0
VERTEX
8
0
6
CONTINUOUS
62
252
70
192
10
-2.000000
20
0.000000
30
9.500000
0
VERTEX
8
0
6
CONTINUOUS
62
252
70
192
10
-2.000000
20
-1.649658
30
9.355674
0
VERTEX
8
0
6
CONTINUOUS
62
252
70
192
10
-2.000000
20
-3.249191
30
8.927080
0
VERTEX
8
0
6
CONTINUOUS
62
252
70
192
10
-2.000000
20
-4.750000
30
8.227241
0
VERTEX
8
0
6
CONTINUOUS
62
252
70
192
10
-2.000000
20
-6.106482
30
7.277422
0
VERTEX
8
0
6
CONTINUOUS
62
252
70
192
10
-2.000000
20
-7.277422
30
6.106482
0
VERTEX
8
0
6
CONTINUOUS
62
252
70
192
10
-2.000000
20
-8.227241
30
4.750000
0
VERTEX
8
0
6
CONTINUOUS
62
252
70
192
10
-2.000000
20
-8.927080
30
3.249191
0
VERTEX
8
0
6
CONTINUOUS
62
252
70
192
10
-2.000000
20
-9.355674
30
1.649658
0
VERTEX
8
0
6
CONTINUOUS
62
252
70
192
10
-2.000000
20
-9.500000
30
-0.000000
0
VERTEX
8
0
6
CONTINUOUS
62
252
70
192
10
-2.000000
20
-9.355674
30
-1.649658
0
VERTEX
8
0
6
CONTINUOUS
62
252
70
192
10
-2.000000
20
-8.927080
30
-3.249191
0
VERTEX
8
0
6
CONTINUOUS
62
252
70
192
10
-2.000000
20
-8.227241
30
-4.750000
0
VERTEX
8
0
6
CONTINUOUS
62
252
70
192
10
-2.000000
20
-7.277422
30
-6.106482
0
VERTEX
8
0
6
CONTINUOUS
62
252
70
192
10
-2.000000
20
-6.106482
30
-7.277422
0
VERTEX
8
0
6
CONTINUOUS
62
252
70
192
10
-2.000000
20
-4.750000
30
-8.227241
0
VERTEX
8
0
6
CONTINUOUS
62
252
70
192
10
-2.000000
20
-3.249191
30
-8.927080
0
VERTEX
8
0
6
CONTINUOUS
62
252
70
192
10
-2.000000
20
-1.649658
30
-9.355674
0
VERTEX
8
0
6
CONTINUOUS
62
252
70
192
10
-2.000000
20
0.000000
30
-9.500000
0
VERTEX
8
0
6
CONTINUOUS
62
252
70
192
10
-2.000000
20
1.649658
30
-9.355674
0
VERTEX
8
0
6
CONTINUOUS
62
252
70
192
10
-2.000000
20
3.249191
30
-8.927080
0
VERTEX
8
0
6
CONTINUOUS
62
252
70
192
10
-2.000000
20
4.750000
30
-8.227241
0
VERTEX
8
0
6
CONTINUOUS
62
252
70
192
10
-2.000000
20
6.106482
30
-7.277422
0
VERTEX
8
0
6
CONTINUOUS
62
252
70
192
10
-2.000000
20
7.277422
30
-6.106482
0
VERTEX
8
0
6
CONTINUOUS
62
252
70
192
10
-2.000000
20
8.227241
30
-4.750000
0
VERTEX
8
0
6
CONTINUOUS
62
252
70
192
10
-2.000000
20
8.927080
30
-3.249191
0
VERTEX
8
0
6
CONTINUOUS
62
252
70
192
10
-2.000000
20
9.355674
30
-1.649658
0
VERTEX
8
0
6
CONTINUOUS
62
252
70
192
10
-2.000000
20
9.500000
30
0.000000
0
VERTEX
8
0
6
CONTINUOUS
62
252
70
192
10
-2.000000
20
9.355674
30
1.649658
0
VERTEX
8
0
6
CONTINUOUS
62
252
70
192
10
-2.000000
20
8.927080
30
3.249191
0
VERTEX
8
0
6
CONTINUOUS
62
252
70
192
10
-2.000000
20
8.227241
30
4.750000
0
VERTEX
8
0
6
CONTINUOUS
62
252
70
192
10
-2.000000
20
7.277422
30
6.106482
0
VERTEX
8
0
6
CONTINUOUS
62
252
70
192
10
-2.000000
20
6.106482
30
7.277422
0
VERTEX
8
0
6
CONTINUOUS
62
252
70
192
10
-2.000000
20
4.750000
30
8.227241
0
VERTEX
8
0
6
CONTINUOUS
62
252
70
192
10
-2.000000
20
3.249191
30
8.927080
0
VERTEX
8
0
6
CONTINUOUS
62
252
70
192
10
-2.000000
20
1.649658
30
9.355674
0
VERTEX
8
0
6
CONTINUOUS
62
252
70
128
10
0.000000
20
0.000000
30
0.000000
71
2
72
54
73
1
0
VERTEX
8
0
6
CONTINUOUS
62
252
70
128
10
0.000000
20
0.000000
30
0.000000
71
1
72
54
73
55
0
VERTEX
8
0
6
CONTINUOUS
62
252
70
128
10
0.000000
20
0.000000
30
0.000000
71
1
72
55
73
36
0
VERTEX
8
0
6
CONTINUOUS
62
252
70
128
10
0.000000
20
0.000000
30
0.000000
71
36
72
55
73
56
0
VERTEX
8
0
6
CONTINUOUS
62
252
70
128
10
0.000000
20
0.000000
30
0.000000
71
36
72
56
73
35
0
VERTEX
8
0
6
CONTINUOUS
62
252
70
128
10
0.000000
20
0.000000
30
0.000000
71
35
72
56
73
57
0
VERTEX
8
0
6
CONTINUOUS
62
252
70
128
10
0.000000
20
0.000000
30
0.000000
71
35
72
57
73
58
0
VERTEX
8
0
6
CONTINUOUS
62
252
70
128
10
0.000000
20
0.000000
30
0.000000
71
54
72
2
73
53
0
VERTEX
8
0
6
CONTINUOUS
62
252
70
128
10
0.000000
20
0.000000
30
0.000000
71
53
72
2
73
3
0
VERTEX
8
0
6
CONTINUOUS
62
252
70
128
10
0.000000
20
0.000000
30
0.000000
71
53
72
3
73
52
0
VERTEX
8
0
6
CONTINUOUS
62
252
70
128
10
0.000000
20
0.000000
30
0.000000
71
52
72
3
73
4
0
VERTEX
8
0
6
CONTINUOUS
62
252
70
128
10
0.000000
20
0.000000
30
0.000000
71
52
72
4
73
51
0
VERTEX
8
0
6
CONTINUOUS
62
252
70
128
10
0.000000
20
0.000000
30
0.000000
71
51
72
4
73
5
0
VERTEX
8
0
6
CONTINUOUS
62
252
70
128
10
0.000000
20
0.000000
30
0.000000
71
51
72
5
73
50
0
VERTEX
8
0
6
CONTINUOUS
62
252
70
128
10
0.000000
20
0.000000
30
0.000000
71
50
72
5
73
6
0
VERTEX
8
0
6
CONTINUOUS
62
252
70
128
10
0.000000
20
0.000000
30
0.000000
71
50
72
6
73
49
0
VERTEX
8
0
6
CONTINUOUS
62
252
70
128
10
0.000000
20
0.000000
30
0.000000
71
49
72
6
73
7
0
VERTEX
8
0
6
CONTINUOUS
62
252
70
128
10
0.000000
20
0.000000
30
0.000000
71
49
72
7
73
48
0
VERTEX
8
0
6
CONTINUOUS
62
252
70
128
10
0.000000
20
0.000000
30
0.000000
71
48
72
7
73
8
0
VERTEX
8
0
6
CONTINUOUS
62
252
70
128
10
0.000000
20
0.000000
30
0.000000
71
48
72
8
73
47
0
VERTEX
8
0
6
CONTINUOUS
62
252
70
128
10
0.000000
20
0.000000
30
0.000000
71
47
72
8
73
9
0
VERTEX
8
0
6
CONTINUOUS
62
252
70
128
10
0.000000
20
0.000000
30
0.000000
71
47
72
9
73
46
0
VERTEX
8
0
6
CONTINUOUS
62
252
70
128
10
0.000000
20
0.000000
30
0.000000
71
46
72
9
73
10
0
VERTEX
8
0
6
CONTINUOUS
62
252
70
128
10
0.000000
20
0.000000
30
0.000000
71
46
72
10
73
45
0
VERTEX
8
0
6
CONTINUOUS
62
252
70
128
10
0.000000
20
0.000000
30
0.000000
71
45
72
10
73
11
0
VERTEX
8
0
6
CONTINUOUS
62
252
70
128
10
0.000000
20
0.000000
30
0.000000
71
45
72
11
73
44
0
VERTEX
8
0
6
CONTINUOUS
62
252
70
128
10
0.000000
20
0.000000
30
0.000000
71
44
72
11
73
12
0
VERTEX
8
0
6
CONTINUOUS
62
252
70
128
10
0.000000
20
0.000000
30
0.000000
71
44
72
12
73
13
0
VERTEX
8
0
6
CONTINUOUS
62
252
70
128
10
0.000000
20
0.000000
30
0.000000
71
44
72
13
73
43
0
VERTEX
8
0
6
CONTINUOUS
62
252
70
128
10
0.000000
20
0.000000
30
0.000000
71
43
72
13
73
14
0
VERTEX
8
0
6
CONTINUOUS
62
252
70
128
10
0.000000
20
0.000000
30
0.000000
71
43
72
14
73
42
0
VERTEX
8
0
6
CONTINUOUS
62
252
70
128
10
0.000000
20
0.000000
30
0.000000
71
42
72
14
73
41
0
VERTEX
8
0
6
CONTINUOUS
62
252
70
128
10
0.000000
20
0.000000
30
0.000000
71
41
72
14
73
15
0
VERTEX
8
0
6
CONTINUOUS
62
252
70
128
10
0.000000
20
0.000000
30
0.000000
71
41
72
15
73
40
0
VERTEX
8
0
6
CONTINUOUS
62
252
70
128
10
0.000000
20
0.000000
30
0.000000
71
40
72
15
73
16
0
VERTEX
8
0
6
CONTINUOUS
62
252
70
128
10
0.000000
20
0.000000
30
0.000000
71
40
72
16
73
39
0
VERTEX
8
0
6
CONTINUOUS
62
252
70
128
10
0.000000
20
0.000000
30
0.000000
71
39
72
16
73
17
0
VERTEX
8
0
6
CONTINUOUS
62
252
70
128
10
0.000000
20
0.000000
30
0.000000
71
39
72
17
73
38
0
VERTEX
8
0
6
CONTINUOUS
62
252
70
128
10
0.000000
20
0.000000
30
0.000000
71
38
72
17
73
18
0
VERTEX
8
0
6
CONTINUOUS
62
252
70
128
10
0.000000
20
0.000000
30
0.000000
71
38
72
18
73
19
0
VERTEX
8
0
6
CONTINUOUS
62
252
70
128
10
0.000000
20
0.000000
30
0.000000
71
38
72
19
73
37
0
VERTEX
8
0
6
CONTINUOUS
62
252
70
128
10
0.000000
20
0.000000
30
0.000000
71
37
72
19
73
20
0
VERTEX
8
0
6
CONTINUOUS
62
252
70
128
10
0.000000
20
0.000000
30
0.000000
71
37
72
20
73
72
0
VERTEX
8
0
6
CONTINUOUS
62
252
70
128
10
0.000000
20
0.000000
30
0.000000
71
72
72
20
73
21
0
VERTEX
8
0
6
CONTINUOUS
62
252
70
128
10
0.000000
20
0.000000
30
0.000000
71
72
72
21
73
71
0
VERTEX
8
0
6
CONTINUOUS
62
252
70
128
10
0.000000
20
0.000000
30
0.000000
71
71
72
21
73
22
0
VERTEX
8
0
6
CONTINUOUS
62
252
70
128
10
0.000000
20
0.000000
30
0.000000
71
71
72
22
73
70
0
VERTEX
8
0
6
CONTINUOUS
62
252
70
128
10
0.000000
20
0.000000
30
0.000000
71
70
72
22
73
23
0
VERTEX
8
0
6
CONTINUOUS
62
252
70
128
10
0.000000
20
0.000000
30
0.000000
71
70
72
23
73
69
0
VERTEX
8
0
6
CONTINUOUS
62
252
70
128
10
0.000000
20
0.000000
30
0.000000
71
69
72
23
73
24
0
VERTEX
8
0
6
CONTINUOUS
62
252
70
128
10
0.000000
20
0.000000
30
0.000000
71
69
72
24
73
68
0
VERTEX
8
0
6
CONTINUOUS
62
252
70
128
10
0.000000
20
0.000000
30
0.000000
71
68
72
24
73
25
0
VERTEX
8
0
6
CONTINUOUS
62
252
70
128
10
0.000000
20
0.000000
30
0.000000
71
68
72
25
73
67
0
VERTEX
8
0
6
CONTINUOUS
62
252
70
128
10
0.000000
20
0.000000
30
0.000000
71
67
72
25
73
26
0
VERTEX
8
0
6
CONTINUOUS
62
252
70
128
10
0.000000
20
0.000000
30
0.000000
71
67
72
26
73
66
0
VERTEX
8
0
6
CONTINUOUS
62
252
70
128
10
0.000000
20
0.000000
30
0.000000
71
66
72
26
73
27
0
VERTEX
8
0
6
CONTINUOUS
62
252
70
128
10
0.000000
20
0.000000
30
0.000000
71
66
72
27
73
65
0
VERTEX
8
0
6
CONTINUOUS
62
252
70
128
10
0.000000
20
0.000000
30
0.000000
71
65
72
27
73
64
0
VERTEX
8
0
6
CONTINUOUS
62
252
70
128
10
0.000000
20
0.000000
30
0.000000
71
64
72
27
73
28
0
VERTEX
8
0
6
CONTINUOUS
62
252
70
128
10
0.000000
20
0.000000
30
0.000000
71
64
72
28
73
29
0
VERTEX
8
0
6
CONTINUOUS
62
252
70
128
10
0.000000
20
0.000000
30
0.000000
71
64
72
29
73
63
0
VERTEX
8
0
6
CONTINUOUS
62
252
70
128
10
0.000000
20
0.000000
30
0.000000
71
63
72
29
73
30
0
VERTEX
8
0
6
CONTINUOUS
62
252
70
128
10
0.000000
20
0.000000
30
0.000000
71
63
72
30
73
62
0
VERTEX
8
0
6
CONTINUOUS
62
252
70
128
10
0.000000
20
0.000000
30
0.000000
71
62
72
30
73
61
0
VERTEX
8
0
6
CONTINUOUS
62
252
70
128
10
0.000000
20
0.000000
30
0.000000
71
61
72
30
73
31
0
VERTEX
8
0
6
CONTINUOUS
62
252
70
128
10
0.000000
20
0.000000
30
0.000000
71
61
72
31
73
60
0
VERTEX
8
0
6
CONTINUOUS
62
252
70
128
10
0.000000
20
0.000000
30
0.000000
71
60
72
31
73
32
0
VERTEX
8
0
6
CONTINUOUS
62
252
70
128
10
0.000000
20
0.000000
30
0.000000
71
60
72
32
73
59
0
VERTEX
8
0
6
CONTINUOUS
62
252
70
128
10
0.000000
20
0.000000
30
0.000000
71
59
72
32
73
33
0
VERTEX
8
0
6
CONTINUOUS
62
252
70
128
10
0.000000
20
0.000000
30
0.000000
71
59
72
33
73
34
0
VERTEX
8
0
6
CONTINUOUS
62
252
70
128
10
0.000000
20
0.000000
30
0.000000
71
59
72
34
73
58
0
VERTEX
8
0
6
CONTINUOUS
62
252
70
128
10
0.000000
20
0.000000
30
0.000000
71
58
72
34
73
35
0
SEQEND
0
POLYLINE
66
1
8
0
6
CONTINUOUS
62
252
70
64
75
0
10
0.000000
20
0.000000
30
0.000000
0
VERTEX
8
0
6
CONTINUOUS
62
252
70
192
10
-2.000000
20
0.000000
30
-3.000000
0
VERTEX
8
0
6
CONTINUOUS
62
252
70
192
10
-2.000000
20
0.520945
30
-2.954423
0
VERTEX
8
0
6
CONTINUOUS
62
252
70
192
10
-2.000000
20
1.026060
30
-2.819078
0
VERTEX
8
0
6
CONTINUOUS
62
252
70
192
10
-2.000000
20
1.500000
30
-2.598076
0
VERTEX
8
0
6
CONTINUOUS
62
252
70
192
10
-2.000000
20
1.928363
30
-2.298133
0
VERTEX
8
0
6
CONTINUOUS
62
252
70
192
10
-2.000000
20
2.298133
30
-1.928363
0
VERTEX
8
0
6
CONTINUOUS
62
252
70
192
10
-2.000000
20
2.598076
30
-1.500000
0
VERTEX
8
0
6
CONTINUOUS
62
252
70
192
10
-2.000000
20
2.819078
30
-1.026060
0
VERTEX
8
0
6
CONTINUOUS
62
252
70
192
10
-2.000000
20
2.954423
30
-0.520945
0
VERTEX
8
0
6
CONTINUOUS
62
252
70
192
10
-2.000000
20
3.000000
30
-0.000000
0
VERTEX
8
0
6
CONTINUOUS
62
252
70
192
10
-2.000000
20
2.954423
30
0.520945
0
VERTEX
8
0
6
CONTINUOUS
62
252
70
192
10
-2.000000
20
2.819078
30
1.026060
0
VERTEX
8
0
6
CONTINUOUS
62
252
70
192
10
-2.000000
20
2.598076
30
1.500000
0
VERTEX
8
0
6
CONTINUOUS
62
252
70
192
10
-2.000000
20
2.298133
30
1.928363
0
VERTEX
8
0
6
CONTINUOUS
62
252
70
192
10
-2.000000
20
1.928363
30
2.298133
0
VERTEX
8
0
6
CONTINUOUS
62
252
70
192
10
-2.000000
20
1.500000
30
2.598076
0
VERTEX
8
0
6
CONTINUOUS
62
252
70
192
10
-2.000000
20
1.026060
30
2.819078
0
VERTEX
8
0
6
CONTINUOUS
62
252
70
192
10
-2.000000
20
0.520945
30
2.954423
0
VERTEX
8
0
6
CONTINUOUS
62
252
70
192
10
-2.000000
20
0.000000
30
3.000000
0
VERTEX
8
0
6
CONTINUOUS
62
252
70
192
10
-2.000000
20
-0.520945
30
2.954423
0
VERTEX
8
0
6
CONTINUOUS
62
252
70
192
10
-2.000000
20
-1.026060
30
2.819078
0
VERTEX
8
0
6
CONTINUOUS
62
252
70
192
10
-2.000000
20
-1.500000
30
2.598076
0
VERTEX
8
0
6
CONTINUOUS
62
252
70
192
10
-2.000000
20
-1.928363
30
2.298133
0
VERTEX
8
0
6
CONTINUOUS
62
252
70
192
10
-2.000000
20
-2.298133
30
1.928363
0
VERTEX
8
0
6
CONTINUOUS
62
252
70
192
10
-2.000000
20
-2.598076
30
1.500000
0
VERTEX
8
0
6
CONTINUOUS
62
252
70
192
10
-2.000000
20
-2.819078
30
1.026060
0
VERTEX
8
0
6
CONTINUOUS
62
252
70
192
10
-2.000000
20
-2.954423
30
0.520945
0
VERTEX
8
0
6
CONTINUOUS
62
252
70
192
10
-2.000000
20
-3.000000
30
-0.000000
0
VERTEX
8
0
6
CONTINUOUS
62
252
70
192
10
-2.000000
20
-2.954423
30
-0.520945
0
VERTEX
8
0
6
CONTINUOUS
62
252
70
192
10
-2.000000
20
-2.819078
30
-1.026060
0
VERTEX
8
0
6
CONTINUOUS
62
252
70
192
10
-2.000000
20
-2.598076
30
-1.500000
0
VERTEX
8
0
6
CONTINUOUS
62
252
70
192
10
-2.000000
20
-2.298133
30
-1.928363
0
VERTEX
8
0
6
CONTINUOUS
62
252
70
192
10
-2.000000
20
-1.928363
30
-2.298133
0
VERTEX
8
0
6
CONTINUOUS
62
252
70
192
10
-2.000000
20
-1.500000
30
-2.598076
0
VERTEX
8
0
6
CONTINUOUS
62
252
70
192
10
-2.000000
20
-1.026060
30
-2.819078
0
VERTEX
8
0
6
CONTINUOUS
62
252
70
192
10
-2.000000
20
-0.520945
30
-2.954423
0
VERTEX
8
0
6
CONTINUOUS
62
252
70
192
10
-2.000000
20
0.000000
30
9.500000
0
VERTEX
8
0
6
CONTINUOUS
62
252
70
192
10
-2.000000
20
1.649658
30
9.355674
0
VERTEX
8
0
6
CONTINUOUS
62
252
70
192
10
-2.000000
20
3.249191
30
8.927080
0
VERTEX
8
0
6
CONTINUOUS
62
252
70
192
10
-2.000000
20
4.750000
30
8.227241
0
VERTEX
8
0
6
CONTINUOUS
62
252
70
192
10
-2.000000
20
6.106482
30
7.277422
0
VERTEX
8
0
6
CONTINUOUS
62
252
70
192
10
-2.000000
20
7.277422
30
6.106482
0
VERTEX
8
0
6
CONTINUOUS
62
252
70
192
10
-2.000000
20
8.227241
30
4.750000
0
VERTEX
8
0
6
CONTINUOUS
62
252
70
192
10
-2.000000
20
8.927080
30
3.249191
0
VERTEX
8
0
6
CONTINUOUS
62
252
70
192
10
-2.000000
20
9.355674
30
1.649658
0
VERTEX
8
0
6
CONTINUOUS
62
252
70
192
10
-2.000000
20
9.500000
30
0.000000
0
VERTEX
8
0
6
CONTINUOUS
62
252
70
192
10
-2.000000
20
9.355674
30
-1.649658
0
VERTEX
8
0
6
CONTINUOUS
62
252
70
192
10
-2.000000
20
8.927080
30
-3.249191
0
VERTEX
8
0
6
CONTINUOUS
62
252
70
192
10
-2.000000
20
8.227241
30
-4.750000
0
VERTEX
8
0
6
CONTINUOUS
62
252
70
192
10
-2.000000
20
7.277422
30
-6.106482
0
VERTEX
8
0
6
CONTINUOUS
62
252
70
192
10
-2.000000
20
6.106482
30
-7.277422
0
VERTEX
8
0
6
CONTINUOUS
62
252
70
192
10
-2.000000
20
4.750000
30
-8.227241
0
VERTEX
8
0
6
CONTINUOUS
62
252
70
192
10
-2.000000
20
3.249191
30
-8.927080
0
VERTEX
8
0
6
CONTINUOUS
62
252
70
192
10
-2.000000
20
1.649658
30
-9.355674
0
VERTEX
8
0
6
CONTINUOUS
62
252
70
192
10
-2.000000
20
0.000000
30
-9.500000
0
VERTEX
8
0
6
CONTINUOUS
62
252
70
192
10
-2.000000
20
-1.649658
30
-9.355674
0
VERTEX
8
0
6
CONTINUOUS
62
252
70
192
10
-2.000000
20
-3.249191
30
-8.927080
0
VERTEX
8
0
6
CONTINUOUS
62
252
70
192
10
-2.000000
20
-4.750000
30
-8.227241
0
VERTEX
8
0
6
CONTINUOUS
62
252
70
192
10
-2.000000
20
-6.106482
30
-7.277422
0
VERTEX
8
0
6
CONTINUOUS
62
252
70
192
10
-2.000000
20
-7.277422
30
-6.106482
0
VERTEX
8
0
6
CONTINUOUS
62
252
70
192
10
-2.000000
20
-8.227241
30
-4.750000
0
VERTEX
8
0
6
CONTINUOUS
62
252
70
192
10
-2.000000
20
-8.927080
30
-3.249191
0
VERTEX
8
0
6
CONTINUOUS
62
252
70
192
10
-2.000000
20
-9.355674
30
-1.649658
0
VERTEX
8
0
6
CONTINUOUS
62
252
70
192
10
-2.000000
20
-9.500000
30
-0.000000
0
VERTEX
8
0
6
CONTINUOUS
62
252
70
192
10
-2.000000
20
-9.355674
30
1.649658
0
VERTEX
8
0
6
CONTINUOUS
62
252
70
192
10
-2.000000
20
-8.927080
30
3.249191
0
VERTEX
8
0
6
CONTINUOUS
62
252
70
192
10
-2.000000
20
-8.227241
30
4.750000
0
VERTEX
8
0
6
CONTINUOUS
62
252
70
192
10
-2.000000
20
-7.277422
30
6.106482
0
VERTEX
8
0
6
CONTINUOUS
62
252
70
192
10
-2.000000
20
-6.106482
30
7.277422
0
VERTEX
8
0
6
CONTINUOUS
62
252
70
192
10
-2.000000
20
-4.750000
30
8.227241
0
VERTEX
8
0
6
CONTINUOUS
62
252
70
192
10
-2.000000
20
-3.249191
30
8.927080
0
VERTEX
8
0
6
CONTINUOUS
62
252
70
192
10
-2.000000
20
-1.649658
30
9.355674
0
VERTEX
8
0
6
CONTINUOUS
62
252
70
128
10
0.000000
20
0.000000
30
0.000000
71
2
72
55
73
1
0
VERTEX
8
0
6
CONTINUOUS
62
252
70
128
10
0.000000
20
0.000000
30
0.000000
71
1
72
55
73
56
0
VERTEX
8
0
6
CONTINUOUS
62
252
70
128
10
0.000000
20
0.000000
30
0.000000
71
1
72
56
73
36
0
VERTEX
8
0
6
CONTINUOUS
62
252
70
128
10
0.000000
20
0.000000
30
0.000000
71
36
72
56
73
35
0
VERTEX
8
0
6
CONTINUOUS
62
252
70
128
10
0.000000
20
0.000000
30
0.000000
71
35
72
56
73
57
0
VERTEX
8
0
6
CONTINUOUS
62
252
70
128
10
0.000000
20
0.000000
30
0.000000
71
35
72
57
73
58
0
VERTEX
8
0
6
CONTINUOUS
62
252
70
128
10
0.000000
20
0.000000
30
0.000000
71
3
72
53
73
2
0
VERTEX
8
0
6
CONTINUOUS
62
252
70
128
10
0.000000
20
0.000000
30
0.000000
71
2
72
53
73
54
0
VERTEX
8
0
6
CONTINUOUS
62
252
70
128
10
0.000000
20
0.000000
30
0.000000
71
2
72
54
73
55
0
VERTEX
8
0
6
CONTINUOUS
62
252
70
128
10
0.000000
20
0.000000
30
0.000000
71
3
72
4
73
53
0
VERTEX
8
0
6
CONTINUOUS
62
252
70
128
10
0.000000
20
0.000000
30
0.000000
71
53
72
4
73
52
0
VERTEX
8
0
6
CONTINUOUS
62
252
70
128
10
0.000000
20
0.000000
30
0.000000
71
52
72
4
73
5
0
VERTEX
8
0
6
CONTINUOUS
62
252
70
128
10
0.000000
20
0.000000
30
0.000000
71
52
72
5
73
51
0
VERTEX
8
0
6
CONTINUOUS
62
252
70
128
10
0.000000
20
0.000000
30
0.000000
71
51
72
5
73
6
0
VERTEX
8
0
6
CONTINUOUS
62
252
70
128
10
0.000000
20
0.000000
30
0.000000
71
51
72
6
73
50
0
VERTEX
8
0
6
CONTINUOUS
62
252
70
128
10
0.000000
20
0.000000
30
0.000000
71
50
72
6
73
7
0
VERTEX
8
0
6
CONTINUOUS
62
252
70
128
10
0.000000
20
0.000000
30
0.000000
71
50
72
7
73
49
0
VERTEX
8
0
6
CONTINUOUS
62
252
70
128
10
0.000000
20
0.000000
30
0.000000
71
49
72
7
73
8
0
VERTEX
8
0
6
CONTINUOUS
62
252
70
128
10
0.000000
20
0.000000
30
0.000000
71
49
72
8
73
48
0
VERTEX
8
0
6
CONTINUOUS
62
252
70
128
10
0.000000
20
0.000000
30
0.000000
71
48
72
8
73
47
0
VERTEX
8
0
6
CONTINUOUS
62
252
70
128
10
0.000000
20
0.000000
30
0.000000
71
47
72
8
73
9
0
VERTEX
8
0
6
CONTINUOUS
62
252
70
128
10
0.000000
20
0.000000
30
0.000000
71
47
72
9
73
46
0
VERTEX
8
0
6
CONTINUOUS
62
252
70
128
10
0.000000
20
0.000000
30
0.000000
71
46
72
9
73
10
0
VERTEX
8
0
6
CONTINUOUS
62
252
70
128
10
0.000000
20
0.000000
30
0.000000
71
46
72
10
73
45
0
VERTEX
8
0
6
CONTINUOUS
62
252
70
128
10
0.000000
20
0.000000
30
0.000000
71
45
72
10
73
11
0
VERTEX
8
0
6
CONTINUOUS
62
252
70
128
10
0.000000
20
0.000000
30
0.000000
71
45
72
11
73
44
0
VERTEX
8
0
6
CONTINUOUS
62
252
70
128
10
0.000000
20
0.000000
30
0.000000
71
44
72
11
73
12
0
VERTEX
8
0
6
CONTINUOUS
62
252
70
128
10
0.000000
20
0.000000
30
0.000000
71
44
72
12
73
13
0
VERTEX
8
0
6
CONTINUOUS
62
252
70
128
10
0.000000
20
0.000000
30
0.000000
71
14
72
42
73
13
0
VERTEX
8
0
6
CONTINUOUS
62
252
70
128
10
0.000000
20
0.000000
30
0.000000
71
13
72
42
73
43
0
VERTEX
8
0
6
CONTINUOUS
62
252
70
128
10
0.000000
20
0.000000
30
0.000000
71
13
72
43
73
44
0
VERTEX
8
0
6
CONTINUOUS
62
252
70
128
10
0.000000
20
0.000000
30
0.000000
71
42
72
14
73
41
0
VERTEX
8
0
6
CONTINUOUS
62
252
70
128
10
0.000000
20
0.000000
30
0.000000
71
41
72
14
73
15
0
VERTEX
8
0
6
CONTINUOUS
62
252
70
128
10
0.000000
20
0.000000
30
0.000000
71
41
72
15
73
16
0
VERTEX
8
0
6
CONTINUOUS
62
252
70
128
10
0.000000
20
0.000000
30
0.000000
71
17
72
39
73
16
0
VERTEX
8
0
6
CONTINUOUS
62
252
70
128
10
0.000000
20
0.000000
30
0.000000
71
16
72
39
73
40
0
VERTEX
8
0
6
CONTINUOUS
62
252
70
128
10
0.000000
20
0.000000
30
0.000000
71
16
72
40
73
41
0
VERTEX
8
0
6
CONTINUOUS
62
252
70
128
10
0.000000
20
0.000000
30
0.000000
71
39
72
17
73
38
0
VERTEX
8
0
6
CONTINUOUS
62
252
70
128
10
0.000000
20
0.000000
30
0.000000
71
38
72
17
73
18
0
VERTEX
8
0
6
CONTINUOUS
62
252
70
128
10
0.000000
20
0.000000
30
0.000000
71
38
72
18
73
37
0
VERTEX
8
0
6
CONTINUOUS
62
252
70
128
10
0.000000
20
0.000000
30
0.000000
71
37
72
18
73
19
0
VERTEX
8
0
6
CONTINUOUS
62
252
70
128
10
0.000000
20
0.000000
30
0.000000
71
37
72
19
73
72
0
VERTEX
8
0
6
CONTINUOUS
62
252
70
128
10
0.000000
20
0.000000
30
0.000000
71
72
72
19
73
20
0
VERTEX
8
0
6
CONTINUOUS
62
252
70
128
10
0.000000
20
0.000000
30
0.000000
71
72
72
20
73
21
0
VERTEX
8
0
6
CONTINUOUS
62
252
70
128
10
0.000000
20
0.000000
30
0.000000
71
72
72
21
73
71
0
VERTEX
8
0
6
CONTINUOUS
62
252
70
128
10
0.000000
20
0.000000
30
0.000000
71
71
72
21
73
22
0
VERTEX
8
0
6
CONTINUOUS
62
252
70
128
10
0.000000
20
0.000000
30
0.000000
71
71
72
22
73
70
0
VERTEX
8
0
6
CONTINUOUS
62
252
70
128
10
0.000000
20
0.000000
30
0.000000
71
70
72
22
73
23
0
VERTEX
8
0
6
CONTINUOUS
62
252
70
128
10
0.000000
20
0.000000
30
0.000000
71
70
72
23
73
69
0
VERTEX
8
0
6
CONTINUOUS
62
252
70
128
10
0.000000
20
0.000000
30
0.000000
71
69
72
23
73
24
0
VERTEX
8
0
6
CONTINUOUS
62
252
70
128
10
0.000000
20
0.000000
30
0.000000
71
69
72
24
73
68
0
VERTEX
8
0
6
CONTINUOUS
62
252
70
128
10
0.000000
20
0.000000
30
0.000000
71
68
72
24
73
25
0
VERTEX
8
0
6
CONTINUOUS
62
252
70
128
10
0.000000
20
0.000000
30
0.000000
71
68
72
25
73
67
0
VERTEX
8
0
6
CONTINUOUS
62
252
70
128
10
0.000000
20
0.000000
30
0.000000
71
67
72
25
73
26
0
VERTEX
8
0
6
CONTINUOUS
62
252
70
128
10
0.000000
20
0.000000
30
0.000000
71
67
72
26
73
66
0
VERTEX
8
0
6
CONTINUOUS
62
252
70
128
10
0.000000
20
0.000000
30
0.000000
71
66
72
26
73
27
0
VERTEX
8
0
6
CONTINUOUS
62
252
70
128
10
0.000000
20
0.000000
30
0.000000
71
66
72
27
73
65
0
VERTEX
8
0
6
CONTINUOUS
62
252
70
128
10
0.000000
20
0.000000
30
0.000000
71
65
72
27
73
28
0
VERTEX
8
0
6
CONTINUOUS
62
252
70
128
10
0.000000
20
0.000000
30
0.000000
71
65
72
28
73
64
0
VERTEX
8
0
6
CONTINUOUS
62
252
70
128
10
0.000000
20
0.000000
30
0.000000
71
64
72
28
73
29
0
VERTEX
8
0
6
CONTINUOUS
62
252
70
128
10
0.000000
20
0.000000
30
0.000000
71
64
72
29
73
63
0
VERTEX
8
0
6
CONTINUOUS
62
252
70
128
10
0.000000
20
0.000000
30
0.000000
71
63
72
29
73
62
0
VERTEX
8
0
6
CONTINUOUS
62
252
70
128
10
0.000000
20
0.000000
30
0.000000
71
62
72
29
73
30
0
VERTEX
8
0
6
CONTINUOUS
62
252
70
128
10
0.000000
20
0.000000
30
0.000000
71
62
72
30
73
31
0
VERTEX
8
0
6
CONTINUOUS
62
252
70
128
10
0.000000
20
0.000000
30
0.000000
71
62
72
31
73
61
0
VERTEX
8
0
6
CONTINUOUS
62
252
70
128
10
0.000000
20
0.000000
30
0.000000
71
61
72
31
73
32
0
VERTEX
8
0
6
CONTINUOUS
62
252
70
128
10
0.000000
20
0.000000
30
0.000000
71
61
72
32
73
60
0
VERTEX
8
0
6
CONTINUOUS
62
252
70
128
10
0.000000
20
0.000000
30
0.000000
71
60
72
32
73
59
0
VERTEX
8
0
6
CONTINUOUS
62
252
70
128
10
0.000000
20
0.000000
30
0.000000
71
59
72
32
73
33
0
VERTEX
8
0
6
CONTINUOUS
62
252
70
128
10
0.000000
20
0.000000
30
0.000000
71
59
72
33
73
34
0
VERTEX
8
0
6
CONTINUOUS
62
252
70
128
10
0.000000
20
0.000000
30
0.000000
71
59
72
34
73
58
0
VERTEX
8
0
6
CONTINUOUS
62
252
70
128
10
0.000000
20
0.000000
30
0.000000
71
58
72
34
73
35
0
SEQEND
0
POLYLINE
66
1
8
0
6
CONTINUOUS
62
252
70
64
75
0
10
0.000000
20
0.000000
30
0.000000
0
VERTEX
8
0
6
CONTINUOUS
62
252
70
192
10
0.000000
20
24.750000
30
-27.000000
0
VERTEX
8
0
6
CONTINUOUS
62
252
70
192
10
0.000000
20
24.359292
30
-26.965817
0
VERTEX
8
0
6
CONTINUOUS
62
252
70
192
10
0.000000
20
23.980455
30
-26.864308
0
VERTEX
8
0
6
CONTINUOUS
62
252
70
192
10
0.000000
20
23.625000
30
-26.698557
0
VERTEX
8
0
6
CONTINUOUS
62
252
70
192
10
0.000000
20
23.303728
30
-26.473600
0
VERTEX
8
0
6
CONTINUOUS
62
252
70
192
10
0.000000
20
23.026400
30
-26.196272
0
VERTEX
8
0
6
CONTINUOUS
62
252
70
192
10
0.000000
20
22.801443
30
-25.875000
0
VERTEX
8
0
6
CONTINUOUS
62
252
70
192
10
0.000000
20
22.635692
30
-25.519545
0
VERTEX
8
0
6
CONTINUOUS
62
252
70
192
10
0.000000
20
22.534183
30
-25.140708
0
VERTEX
8
0
6
CONTINUOUS
62
252
70
192
10
0.000000
20
22.500000
30
-24.750000
0
VERTEX
8
0
6
CONTINUOUS
62
252
70
192
10
0.000000
20
22.534183
30
-24.359292
0
VERTEX
8
0
6
CONTINUOUS
62
252
70
192
10
0.000000
20
22.635692
30
-23.980455
0
VERTEX
8
0
6
CONTINUOUS
62
252
70
192
10
0.000000
20
22.801443
30
-23.625000
0
VERTEX
8
0
6
CONTINUOUS
62
252
70
192
10
0.000000
20
23.026400
30
-23.303728
0
VERTEX
8
0
6
CONTINUOUS
62
252
70
192
10
0.000000
20
23.303728
30
-23.026400
0
VERTEX
8
0
6
CONTINUOUS
62
252
70
192
10
0.000000
20
23.625000
30
-22.801443
0
VERTEX
8
0
6
CONTINUOUS
62
252
70
192
10
0.000000
20
23.980455
30
-22.635692
0
VERTEX
8
0
6
CONTINUOUS
62
252
70
192
10
0.000000
20
24.359292
30
-22.534183
0
VERTEX
8
0
6
CONTINUOUS
62
252
70
192
10
0.000000
20
24.750000
30
-22.500000
0
VERTEX
8
0
6
CONTINUOUS
62
252
70
192
10
0.000000
20
25.140708
30
-22.534183
0
VERTEX
8
0
6
CONTINUOUS
62
252
70
192
10
0.000000
20
25.519545
30
-22.635692
0
VERTEX
8
0
6
CONTINUOUS
62
252
70
192
10
0.000000
20
25.875000
30
-22.801443
0
VERTEX
8
0
6
CONTINUOUS
62
252
70
192
10
0.000000
20
26.196272
30
-23.026400
0
VERTEX
8
0
6
CONTINUOUS
62
252
70
192
10
0.000000
20
26.473600
30
-23.303728
0
VERTEX
8
0
6
CONTINUOUS
62
252
70
192
10
0.000000
20
26.698557
30
-23.625000
0
VERTEX
8
0
6
CONTINUOUS
62
252
70
192
10
0.000000
20
26.864308
30
-23.980455
0
VERTEX
8
0
6
CONTINUOUS
62
252
70
192
10
0.000000
20
26.965817
30
-24.359292
0
VERTEX
8
0
6
CONTINUOUS
62
252
70
192
10
0.000000
20
27.000000
30
-24.750000
0
VERTEX
8
0
6
CONTINUOUS
62
252
70
192
10
0.000000
20
26.965817
30
-25.140708
0
VERTEX
8
0
6
CONTINUOUS
62
252
70
192
10
0.000000
20
26.864308
30
-25.519545
0
VERTEX
8
0
6
CONTINUOUS
62
252
70
192
10
0.000000
20
26.698557
30
-25.875000
0
VERTEX
8
0
6
CONTINUOUS
62
252
70
192
10
0.000000
20
26.473600
30
-26.196272
0
VERTEX
8
0
6
CONTINUOUS
62
252
70
192
10
0.000000
20
26.196272
30
-26.473600
0
VERTEX
8
0
6
CONTINUOUS
62
252
70
192
10
0.000000
20
25.875000
30
-26.698557
0
VERTEX
8
0
6
CONTINUOUS
62
252
70
192
10
0.000000
20
25.519545
30
-26.864308
0
VERTEX
8
0
6
CONTINUOUS
62
252
70
192
10
0.000000
20
25.140708
30
-26.965817
0
VERTEX
8
0
6
CONTINUOUS
62
252
70
192
10
6.000000
20
24.750000
30
-27.000000
0
VERTEX
8
0
6
CONTINUOUS
62
252
70
192
10
6.000000
20
25.140708
30
-26.965817
0
VERTEX
8
0
6
CONTINUOUS
62
252
70
192
10
6.000000
20
25.519545
30
-26.864308
0
VERTEX
8
0
6
CONTINUOUS
62
252
70
192
10
6.000000
20
25.875000
30
-26.698557
0
VERTEX
8
0
6
CONTINUOUS
62
252
70
192
10
6.000000
20
26.196272
30
-26.473600
0
VERTEX
8
0
6
CONTINUOUS
62
252
70
192
10
6.000000
20
26.473600
30
-26.196272
0
VERTEX
8
0
6
CONTINUOUS
62
252
70
192
10
6.000000
20
26.698557
30
-25.875000
0
VERTEX
8
0
6
CONTINUOUS
62
252
70
192
10
6.000000
20
26.864308
30
-25.519545
0
VERTEX
8
0
6
CONTINUOUS
62
252
70
192
10
6.000000
20
26.965817
30
-25.140708
0
VERTEX
8
0
6
CONTINUOUS
62
252
70
192
10
6.000000
20
27.000000
30
-24.750000
0
VERTEX
8
0
6
CONTINUOUS
62
252
70
192
10
6.000000
20
26.965817
30
-24.359292
0
VERTEX
8
0
6
CONTINUOUS
62
252
70
192
10
6.000000
20
26.864308
30
-23.980455
0
VERTEX
8
0
6
CONTINUOUS
62
252
70
192
10
6.000000
20
26.698557
30
-23.625000
0
VERTEX
8
0
6
CONTINUOUS
62
252
70
192
10
6.000000
20
26.473600
30
-23.303728
0
VERTEX
8
0
6
CONTINUOUS
62
252
70
192
10
6.000000
20
26.196272
30
-23.026400
0
VERTEX
8
0
6
CONTINUOUS
62
252
70
192
10
6.000000
20
25.875000
30
-22.801443
0
VERTEX
8
0
6
CONTINUOUS
62
252
70
192
10
6.000000
20
25.519545
30
-22.635692
0
VERTEX
8
0
6
CONTINUOUS
62
252
70
192
10
6.000000
20
25.140708
30
-22.534183
0
VERTEX
8
0
6
CONTINUOUS
62
252
70
192
10
6.000000
20
24.750000
30
-22.500000
0
VERTEX
8
0
6
CONTINUOUS
62
252
70
192
10
6.000000
20
24.359292
30
-22.534183
0
VERTEX
8
0
6
CONTINUOUS
62
252
70
192
10
6.000000
20
23.980455
30
-22.635692
0
VERTEX
8
0
6
CONTINUOUS
62
252
70
192
10
6.000000
20
23.625000
30
-22.801443
0
VERTEX
8
0
6
CONTINUOUS
62
252
70
192
10
6.000000
20
23.303728
30
-23.026400
0
VERTEX
8
0
6
CONTINUOUS
62
252
70
192
10
6.000000
20
23.026400
30
-23.303728
0
VERTEX
8
0
6
CONTINUOUS
62
252
70
192
10
6.000000
20
22.801443
30
-23.625000
0
VERTEX
8
0
6
CONTINUOUS
62
252
70
192
10
6.000000
20
22.635692
30
-23.980455
0
VERTEX
8
0
6
CONTINUOUS
62
252
70
192
10
6.000000
20
22.534183
30
-24.359292
0
VERTEX
8
0
6
CONTINUOUS
62
252
70
192
10
6.000000
20
22.500000
30
-24.750000
0
VERTEX
8
0
6
CONTINUOUS
62
252
70
192
10
6.000000
20
22.534183
30
-25.140708
0
VERTEX
8
0
6
CONTINUOUS
62
252
70
192
10
6.000000
20
22.635692
30
-25.519545
0
VERTEX
8
0
6
CONTINUOUS
62
252
70
192
10
6.000000
20
22.801443
30
-25.875000
0
VERTEX
8
0
6
CONTINUOUS
62
252
70
192
10
6.000000
20
23.026400
30
-26.196272
0
VERTEX
8
0
6
CONTINUOUS
62
252
70
192
10
6.000000
20
23.303728
30
-26.473600
0
VERTEX
8
0
6
CONTINUOUS
62
252
70
192
10
6.000000
20
23.625000
30
-26.698557
0
VERTEX
8
0
6
CONTINUOUS
62
252
70
192
10
6.000000
20
23.980455
30
-26.864308
0
VERTEX
8
0
6
CONTINUOUS
62
252
70
192
10
6.000000
20
24.359292
30
-26.965817
0
VERTEX
8
0
6
CONTINUOUS
62
252
70
128
10
0.000000
20
0.000000
30
0.000000
71
2
72
72
73
1
0
VERTEX
8
0
6
CONTINUOUS
62
252
70
128
10
0.000000
20
0.000000
30
0.000000
71
1
72
72
73
37
0
VERTEX
8
0
6
CONTINUOUS
62
252
70
128
10
0.000000
20
0.000000
30
0.000000
71
1
72
37
73
38
0
VERTEX
8
0
6
CONTINUOUS
62
252
70
128
10
0.000000
20
0.000000
30
0.000000
71
72
72
2
73
71
0
VERTEX
8
0
6
CONTINUOUS
62
252
70
128
10
0.000000
20
0.000000
30
0.000000
71
71
72
2
73
3
0
VERTEX
8
0
6
CONTINUOUS
62
252
70
128
10
0.000000
20
0.000000
30
0.000000
71
71
72
3
73
70
0
VERTEX
8
0
6
CONTINUOUS
62
252
70
128
10
0.000000
20
0.000000
30
0.000000
71
70
72
3
73
4
0
VERTEX
8
0
6
CONTINUOUS
62
252
70
128
10
0.000000
20
0.000000
30
0.000000
71
70
72
4
73
69
0
VERTEX
8
0
6
CONTINUOUS
62
252
70
128
10
0.000000
20
0.000000
30
0.000000
71
69
72
4
73
5
0
VERTEX
8
0
6
CONTINUOUS
62
252
70
128
10
0.000000
20
0.000000
30
0.000000
71
69
72
5
73
68
0
VERTEX
8
0
6
CONTINUOUS
62
252
70
128
10
0.000000
20
0.000000
30
0.000000
71
68
72
5
73
6
0
VERTEX
8
0
6
CONTINUOUS
62
252
70
128
10
0.000000
20
0.000000
30
0.000000
71
68
72
6
73
67
0
VERTEX
8
0
6
CONTINUOUS
62
252
70
128
10
0.000000
20
0.000000
30
0.000000
71
67
72
6
73
7
0
VERTEX
8
0
6
CONTINUOUS
62
252
70
128
10
0.000000
20
0.000000
30
0.000000
71
67
72
7
73
66
0
VERTEX
8
0
6
CONTINUOUS
62
252
70
128
10
0.000000
20
0.000000
30
0.000000
71
66
72
7
73
8
0
VERTEX
8
0
6
CONTINUOUS
62
252
70
128
10
0.000000
20
0.000000
30
0.000000
71
66
72
8
73
65
0
VERTEX
8
0
6
CONTINUOUS
62
252
70
128
10
0.000000
20
0.000000
30
0.000000
71
65
72
8
73
9
0
VERTEX
8
0
6
CONTINUOUS
62
252
70
128
10
0.000000
20
0.000000
30
0.000000
71
65
72
9
73
64
0
VERTEX
8
0
6
CONTINUOUS
62
252
70
128
10
0.000000
20
0.000000
30
0.000000
71
64
72
9
73
10
0
VERTEX
8
0
6
CONTINUOUS
62
252
70
128
10
0.000000
20
0.000000
30
0.000000
71
64
72
10
73
63
0
VERTEX
8
0
6
CONTINUOUS
62
252
70
128
10
0.000000
20
0.000000
30
0.000000
71
63
72
10
73
11
0
VERTEX
8
0
6
CONTINUOUS
62
252
70
128
10
0.000000
20
0.000000
30
0.000000
71
63
72
11
73
62
0
VERTEX
8
0
6
CONTINUOUS
62
252
70
128
10
0.000000
20
0.000000
30
0.000000
71
62
72
11
73
12
0
VERTEX
8
0
6
CONTINUOUS
62
252
70
128
10
0.000000
20
0.000000
30
0.000000
71
62
72
12
73
61
0
VERTEX
8
0
6
CONTINUOUS
62
252
70
128
10
0.000000
20
0.000000
30
0.000000
71
61
72
12
73
13
0
VERTEX
8
0
6
CONTINUOUS
62
252
70
128
10
0.000000
20
0.000000
30
0.000000
71
61
72
13
73
60
0
VERTEX
8
0
6
CONTINUOUS
62
252
70
128
10
0.000000
20
0.000000
30
0.000000
71
60
72
13
73
14
0
VERTEX
8
0
6
CONTINUOUS
62
252
70
128
10
0.000000
20
0.000000
30
0.000000
71
60
72
14
73
59
0
VERTEX
8
0
6
CONTINUOUS
62
252
70
128
10
0.000000
20
0.000000
30
0.000000
71
59
72
14
73
15
0
VERTEX
8
0
6
CONTINUOUS
62
252
70
128
10
0.000000
20
0.000000
30
0.000000
71
59
72
15
73
58
0
VERTEX
8
0
6
CONTINUOUS
62
252
70
128
10
0.000000
20
0.000000
30
0.000000
71
58
72
15
73
16
0
VERTEX
8
0
6
CONTINUOUS
62
252
70
128
10
0.000000
20
0.000000
30
0.000000
71
58
72
16
73
57
0
VERTEX
8
0
6
CONTINUOUS
62
252
70
128
10
0.000000
20
0.000000
30
0.000000
71
57
72
16
73
17
0
VERTEX
8
0
6
CONTINUOUS
62
252
70
128
10
0.000000
20
0.000000
30
0.000000
71
57
72
17
73
56
0
VERTEX
8
0
6
CONTINUOUS
62
252
70
128
10
0.000000
20
0.000000
30
0.000000
71
56
72
17
73
18
0
VERTEX
8
0
6
CONTINUOUS
62
252
70
128
10
0.000000
20
0.000000
30
0.000000
71
56
72
18
73
55
0
VERTEX
8
0
6
CONTINUOUS
62
252
70
128
10
0.000000
20
0.000000
30
0.000000
71
55
72
18
73
19
0
VERTEX
8
0
6
CONTINUOUS
62
252
70
128
10
0.000000
20
0.000000
30
0.000000
71
55
72
19
73
54
0
VERTEX
8
0
6
CONTINUOUS
62
252
70
128
10
0.000000
20
0.000000
30
0.000000
71
54
72
19
73
20
0
VERTEX
8
0
6
CONTINUOUS
62
252
70
128
10
0.000000
20
0.000000
30
0.000000
71
54
72
20
73
53
0
VERTEX
8
0
6
CONTINUOUS
62
252
70
128
10
0.000000
20
0.000000
30
0.000000
71
53
72
20
73
21
0
VERTEX
8
0
6
CONTINUOUS
62
252
70
128
10
0.000000
20
0.000000
30
0.000000
71
53
72
21
73
52
0
VERTEX
8
0
6
CONTINUOUS
62
252
70
128
10
0.000000
20
0.000000
30
0.000000
71
52
72
21
73
22
0
VERTEX
8
0
6
CONTINUOUS
62
252
70
128
10
0.000000
20
0.000000
30
0.000000
71
52
72
22
73
23
0
VERTEX
8
0
6
CONTINUOUS
62
252
70
128
10
0.000000
20
0.000000
30
0.000000
71
52
72
23
73
51
0
VERTEX
8
0
6
CONTINUOUS
62
252
70
128
10
0.000000
20
0.000000
30
0.000000
71
51
72
23
73
24
0
VERTEX
8
0
6
CONTINUOUS
62
252
70
128
10
0.000000
20
0.000000
30
0.000000
71
51
72
24
73
50
0
VERTEX
8
0
6
CONTINUOUS
62
252
70
128
10
0.000000
20
0.000000
30
0.000000
71
50
72
24
73
25
0
VERTEX
8
0
6
CONTINUOUS
62
252
70
128
10
0.000000
20
0.000000
30
0.000000
71
50
72
25
73
49
0
VERTEX
8
0
6
CONTINUOUS
62
252
70
128
10
0.000000
20
0.000000
30
0.000000
71
49
72
25
73
26
0
VERTEX
8
0
6
CONTINUOUS
62
252
70
128
10
0.000000
20
0.000000
30
0.000000
71
49
72
26
73
48
0
VERTEX
8
0
6
CONTINUOUS
62
252
70
128
10
0.000000
20
0.000000
30
0.000000
71
48
72
26
73
27
0
VERTEX
8
0
6
CONTINUOUS
62
252
70
128
10
0.000000
20
0.000000
30
0.000000
71
48
72
27
73
47
0
VERTEX
8
0
6
CONTINUOUS
62
252
70
128
10
0.000000
20
0.000000
30
0.000000
71
47
72
27
73
28
0
VERTEX
8
0
6
CONTINUOUS
62
252
70
128
10
0.000000
20
0.000000
30
0.000000
71
47
72
28
73
46
0
VERTEX
8
0
6
CONTINUOUS
62
252
70
128
10
0.000000
20
0.000000
30
0.000000
71
46
72
28
73
29
0
VERTEX
8
0
6
CONTINUOUS
62
252
70
128
10
0.000000
20
0.000000
30
0.000000
71
46
72
29
73
45
0
VERTEX
8
0
6
CONTINUOUS
62
252
70
128
10
0.000000
20
0.000000
30
0.000000
71
45
72
29
73
44
0
VERTEX
8
0
6
CONTINUOUS
62
252
70
128
10
0.000000
20
0.000000
30
0.000000
71
44
72
29
73
30
0
VERTEX
8
0
6
CONTINUOUS
62
252
70
128
10
0.000000
20
0.000000
30
0.000000
71
44
72
30
73
43
0
VERTEX
8
0
6
CONTINUOUS
62
252
70
128
10
0.000000
20
0.000000
30
0.000000
71
43
72
30
73
31
0
VERTEX
8
0
6
CONTINUOUS
62
252
70
128
10
0.000000
20
0.000000
30
0.000000
71
43
72
31
73
32
0
VERTEX
8
0
6
CONTINUOUS
62
252
70
128
10
0.000000
20
0.000000
30
0.000000
71
43
72
32
73
42
0
VERTEX
8
0
6
CONTINUOUS
62
252
70
128
10
0.000000
20
0.000000
30
0.000000
71
42
72
32
73
33
0
VERTEX
8
0
6
CONTINUOUS
62
252
70
128
10
0.000000
20
0.000000
30
0.000000
71
42
72
33
73
41
0
VERTEX
8
0
6
CONTINUOUS
62
252
70
128
10
0.000000
20
0.000000
30
0.000000
71
41
72
33
73
34
0
VERTEX
8
0
6
CONTINUOUS
62
252
70
128
10
0.000000
20
0.000000
30
0.000000
71
41
72
34
73
40
0
VERTEX
8
0
6
CONTINUOUS
62
252
70
128
10
0.000000
20
0.000000
30
0.000000
71
40
72
34
73
35
0
VERTEX
8
0
6
CONTINUOUS
62
252
70
128
10
0.000000
20
0.000000
30
0.000000
71
40
72
35
73
39
0
VERTEX
8
0
6
CONTINUOUS
62
252
70
128
10
0.000000
20
0.000000
30
0.000000
71
39
72
35
73
38
0
VERTEX
8
0
6
CONTINUOUS
62
252
70
128
10
0.000000
20
0.000000
30
0.000000
71
38
72
35
73
36
0
VERTEX
8
0
6
CONTINUOUS
62
252
70
128
10
0.000000
20
0.000000
30
0.000000
71
38
72
36
73
1
0
SEQEND
0
POLYLINE
66
1
8
0
6
CONTINUOUS
62
252
70
64
75
0
10
0.000000
20
0.000000
30
0.000000
0
VERTEX
8
0
6
CONTINUOUS
62
252
70
192
10
0.000000
20
-24.750000
30
-27.000000
0
VERTEX
8
0
6
CONTINUOUS
62
252
70
192
10
0.000000
20
-25.140708
30
-26.965817
0
VERTEX
8
0
6
CONTINUOUS
62
252
70
192
10
0.000000
20
-25.519545
30
-26.864308
0
VERTEX
8
0
6
CONTINUOUS
62
252
70
192
10
0.000000
20
-25.875000
30
-26.698557
0
VERTEX
8
0
6
CONTINUOUS
62
252
70
192
10
0.000000
20
-26.196272
30
-26.473600
0
VERTEX
8
0
6
CONTINUOUS
62
252
70
192
10
0.000000
20
-26.473600
30
-26.196272
0
VERTEX
8
0
6
CONTINUOUS
62
252
70
192
10
0.000000
20
-26.698557
30
-25.875000
0
VERTEX
8
0
6
CONTINUOUS
62
252
70
192
10
0.000000
20
-26.864308
30
-25.519545
0
VERTEX
8
0
6
CONTINUOUS
62
252
70
192
10
0.000000
20
-26.965817
30
-25.140708
0
VERTEX
8
0
6
CONTINUOUS
62
252
70
192
10
0.000000
20
-27.000000
30
-24.750000
0
VERTEX
8
0
6
CONTINUOUS
62
252
70
192
10
0.000000
20
-26.965817
30
-24.359292
0
VERTEX
8
0
6
CONTINUOUS
62
252
70
192
10
0.000000
20
-26.864308
30
-23.980455
0
VERTEX
8
0
6
CONTINUOUS
62
252
70
192
10
0.000000
20
-26.698557
30
-23.625000
0
VERTEX
8
0
6
CONTINUOUS
62
252
70
192
10
0.000000
20
-26.473600
30
-23.303728
0
VERTEX
8
0
6
CONTINUOUS
62
252
70
192
10
0.000000
20
-26.196272
30
-23.026400
0
VERTEX
8
0
6
CONTINUOUS
62
252
70
192
10
0.000000
20
-25.875000
30
-22.801443
0
VERTEX
8
0
6
CONTINUOUS
62
252
70
192
10
0.000000
20
-25.519545
30
-22.635692
0
VERTEX
8
0
6
CONTINUOUS
62
252
70
192
10
0.000000
20
-25.140708
30
-22.534183
0
VERTEX
8
0
6
CONTINUOUS
62
252
70
192
10
0.000000
20
-24.750000
30
-22.500000
0
VERTEX
8
0
6
CONTINUOUS
62
252
70
192
10
0.000000
20
-24.359292
30
-22.534183
0
VERTEX
8
0
6
CONTINUOUS
62
252
70
192
10
0.000000
20
-23.980455
30
-22.635692
0
VERTEX
8
0
6
CONTINUOUS
62
252
70
192
10
0.000000
20
-23.625000
30
-22.801443
0
VERTEX
8
0
6
CONTINUOUS
62
252
70
192
10
0.000000
20
-23.303728
30
-23.026400
0
VERTEX
8
0
6
CONTINUOUS
62
252
70
192
10
0.000000
20
-23.026400
30
-23.303728
0
VERTEX
8
0
6
CONTINUOUS
62
252
70
192
10
0.000000
20
-22.801443
30
-23.625000
0
VERTEX
8
0
6
CONTINUOUS
62
252
70
192
10
0.000000
20
-22.635692
30
-23.980455
0
VERTEX
8
0
6
CONTINUOUS
62
252
70
192
10
0.000000
20
-22.534183
30
-24.359292
0
VERTEX
8
0
6
CONTINUOUS
62
252
70
192
10
0.000000
20
-22.500000
30
-24.750000
0
VERTEX
8
0
6
CONTINUOUS
62
252
70
192
10
0.000000
20
-22.534183
30
-25.140708
0
VERTEX
8
0
6
CONTINUOUS
62
252
70
192
10
0.000000
20
-22.635692
30
-25.519545
0
VERTEX
8
0
6
CONTINUOUS
62
252
70
192
10
0.000000
20
-22.801443
30
-25.875000
0
VERTEX
8
0
6
CONTINUOUS
62
252
70
192
10
0.000000
20
-23.026400
30
-26.196272
0
VERTEX
8
0
6
CONTINUOUS
62
252
70
192
10
0.000000
20
-23.303728
30
-26.473600
0
VERTEX
8
0
6
CONTINUOUS
62
252
70
192
10
0.000000
20
-23.625000
30
-26.698557
0
VERTEX
8
0
6
CONTINUOUS
62
252
70
192
10
0.000000
20
-23.980455
30
-26.864308
0
VERTEX
8
0
6
CONTINUOUS
62
252
70
192
10
0.000000
20
-24.359292
30
-26.965817
0
VERTEX
8
0
6
CONTINUOUS
62
252
70
192
10
6.000000
20
-24.750000
30
-27.000000
0
VERTEX
8
0
6
CONTINUOUS
62
252
70
192
10
6.000000
20
-24.359292
30
-26.965817
0
VERTEX
8
0
6
CONTINUOUS
62
252
70
192
10
6.000000
20
-23.980455
30
-26.864308
0
VERTEX
8
0
6
CONTINUOUS
62
252
70
192
10
6.000000
20
-23.625000
30
-26.698557
0
VERTEX
8
0
6
CONTINUOUS
62
252
70
192
10
6.000000
20
-23.303728
30
-26.473600
0
VERTEX
8
0
6
CONTINUOUS
62
252
70
192
10
6.000000
20
-23.026400
30
-26.196272
0
VERTEX
8
0
6
CONTINUOUS
62
252
70
192
10
6.000000
20
-22.801443
30
-25.875000
0
VERTEX
8
0
6
CONTINUOUS
62
252
70
192
10
6.000000
20
-22.635692
30
-25.519545
0
VERTEX
8
0
6
CONTINUOUS
62
252
70
192
10
6.000000
20
-22.534183
30
-25.140708
0
VERTEX
8
0
6
CONTINUOUS
62
252
70
192
10
6.000000
20
-22.500000
30
-24.750000
0
VERTEX
8
0
6
CONTINUOUS
62
252
70
192
10
6.000000
20
-22.534183
30
-24.359292
0
VERTEX
8
0
6
CONTINUOUS
62
252
70
192
10
6.000000
20
-22.635692
30
-23.980455
0
VERTEX
8
0
6
CONTINUOUS
62
252
70
192
10
6.000000
20
-22.801443
30
-23.625000
0
VERTEX
8
0
6
CONTINUOUS
62
252
70
192
10
6.000000
20
-23.026400
30
-23.303728
0
VERTEX
8
0
6
CONTINUOUS
62
252
70
192
10
6.000000
20
-23.303728
30
-23.026400
0
VERTEX
8
0
6
CONTINUOUS
62
252
70
192
10
6.000000
20
-23.625000
30
-22.801443
0
VERTEX
8
0
6
CONTINUOUS
62
252
70
192
10
6.000000
20
-23.980455
30
-22.635692
0
VERTEX
8
0
6
CONTINUOUS
62
252
70
192
10
6.000000
20
-24.359292
30
-22.534183
0
VERTEX
8
0
6
CONTINUOUS
62
252
70
192
10
6.000000
20
-24.750000
30
-22.500000
0
VERTEX
8
0
6
CONTINUOUS
62
252
70
192
10
6.000000
20
-25.140708
30
-22.534183
0
VERTEX
8
0
6
CONTINUOUS
62
252
70
192
10
6.000000
20
-25.519545
30
-22.635692
0
VERTEX
8
0
6
CONTINUOUS
62
252
70
192
10
6.000000
20
-25.875000
30
-22.801443
0
VERTEX
8
0
6
CONTINUOUS
62
252
70
192
10
6.000000
20
-26.196272
30
-23.026400
0
VERTEX
8
0
6
CONTINUOUS
62
252
70
192
10
6.000000
20
-26.473600
30
-23.303728
0
VERTEX
8
0
6
CONTINUOUS
62
252
70
192
10
6.000000
20
-26.698557
30
-23.625000
0
VERTEX
8
0
6
CONTINUOUS
62
252
70
192
10
6.000000
20
-26.864308
30
-23.980455
0
VERTEX
8
0
6
CONTINUOUS
62
252
70
192
10
6.000000
20
-26.965817
30
-24.359292
0
VERTEX
8
0
6
CONTINUOUS
62
252
70
192
10
6.000000
20
-27.000000
30
-24.750000
0
VERTEX
8
0
6
CONTINUOUS
62
252
70
192
10
6.000000
20
-26.965817
30
-25.140708
0
VERTEX
8
0
6
CONTINUOUS
62
252
70
192
10
6.000000
20
-26.864308
30
-25.519545
0
VERTEX
8
0
6
CONTINUOUS
62
252
70
192
10
6.000000
20
-26.698557
30
-25.875000
0
VERTEX
8
0
6
CONTINUOUS
62
252
70
192
10
6.000000
20
-26.473600
30
-26.196272
0
VERTEX
8
0
6
CONTINUOUS
62
252
70
192
10
6.000000
20
-26.196272
30
-26.473600
0
VERTEX
8
0
6
CONTINUOUS
62
252
70
192
10
6.000000
20
-25.875000
30
-26.698557
0
VERTEX
8
0
6
CONTINUOUS
62
252
70
192
10
6.000000
20
-25.519545
30
-26.864308
0
VERTEX
8
0
6
CONTINUOUS
62
252
70
192
10
6.000000
20
-25.140708
30
-26.965817
0
VERTEX
8
0
6
CONTINUOUS
62
252
70
128
10
0.000000
20
0.000000
30
0.000000
71
2
72
72
73
1
0
VERTEX
8
0
6
CONTINUOUS
62
252
70
128
10
0.000000
20
0.000000
30
0.000000
71
1
72
72
73
37
0
VERTEX
8
0
6
CONTINUOUS
62
252
70
128
10
0.000000
20
0.000000
30
0.000000
71
1
72
37
73
38
0
VERTEX
8
0
6
CONTINUOUS
62
252
70
128
10
0.000000
20
0.000000
30
0.000000
71
72
72
2
73
71
0
VERTEX
8
0
6
CONTINUOUS
62
252
70
128
10
0.000000
20
0.000000
30
0.000000
71
71
72
2
73
3
0
VERTEX
8
0
6
CONTINUOUS
62
252
70
128
10
0.000000
20
0.000000
30
0.000000
71
71
72
3
73
70
0
VERTEX
8
0
6
CONTINUOUS
62
252
70
128
10
0.000000
20
0.000000
30
0.000000
71
70
72
3
73
4
0
VERTEX
8
0
6
CONTINUOUS
62
252
70
128
10
0.000000
20
0.000000
30
0.000000
71
70
72
4
73
69
0
VERTEX
8
0
6
CONTINUOUS
62
252
70
128
10
0.000000
20
0.000000
30
0.000000
71
69
72
4
73
5
0
VERTEX
8
0
6
CONTINUOUS
62
252
70
128
10
0.000000
20
0.000000
30
0.000000
71
69
72
5
73
68
0
VERTEX
8
0
6
CONTINUOUS
62
252
70
128
10
0.000000
20
0.000000
30
0.000000
71
68
72
5
73
6
0
VERTEX
8
0
6
CONTINUOUS
62
252
70
128
10
0.000000
20
0.000000
30
0.000000
71
68
72
6
73
67
0
VERTEX
8
0
6
CONTINUOUS
62
252
70
128
10
0.000000
20
0.000000
30
0.000000
71
67
72
6
73
7
0
VERTEX
8
0
6
CONTINUOUS
62
252
70
128
10
0.000000
20
0.000000
30
0.000000
71
67
72
7
73
66
0
VERTEX
8
0
6
CONTINUOUS
62
252
70
128
10
0.000000
20
0.000000
30
0.000000
71
66
72
7
73
8
0
VERTEX
8
0
6
CONTINUOUS
62
252
70
128
10
0.000000
20
0.000000
30
0.000000
71
66
72
8
73
65
0
VERTEX
8
0
6
CONTINUOUS
62
252
70
128
10
0.000000
20
0.000000
30
0.000000
71
65
72
8
73
9
0
VERTEX
8
0
6
CONTINUOUS
62
252
70
128
10
0.000000
20
0.000000
30
0.000000
71
65
72
9
73
64
0
VERTEX
8
0
6
CONTINUOUS
62
252
70
128
10
0.000000
20
0.000000
30
0.000000
71
64
72
9
73
10
0
VERTEX
8
0
6
CONTINUOUS
62
252
70
128
10
0.000000
20
0.000000
30
0.000000
71
64
72
10
73
63
0
VERTEX
8
0
6
CONTINUOUS
62
252
70
128
10
0.000000
20
0.000000
30
0.000000
71
63
72
10
73
11
0
VERTEX
8
0
6
CONTINUOUS
62
252
70
128
10
0.000000
20
0.000000
30
0.000000
71
63
72
11
73
62
0
VERTEX
8
0
6
CONTINUOUS
62
252
70
128
10
0.000000
20
0.000000
30
0.000000
71
62
72
11
73
12
0
VERTEX
8
0
6
CONTINUOUS
62
252
70
128
10
0.000000
20
0.000000
30
0.000000
71
62
72
12
73
61
0
VERTEX
8
0
6
CONTINUOUS
62
252
70
128
10
0.000000
20
0.000000
30
0.000000
71
61
72
12
73
13
0
VERTEX
8
0
6
CONTINUOUS
62
252
70
128
10
0.000000
20
0.000000
30
0.000000
71
61
72
13
73
60
0
VERTEX
8
0
6
CONTINUOUS
62
252
70
128
10
0.000000
20
0.000000
30
0.000000
71
60
72
13
73
14
0
VERTEX
8
0
6
CONTINUOUS
62
252
70
128
10
0.000000
20
0.000000
30
0.000000
71
60
72
14
73
59
0
VERTEX
8
0
6
CONTINUOUS
62
252
70
128
10
0.000000
20
0.000000
30
0.000000
71
59
72
14
73
15
0
VERTEX
8
0
6
CONTINUOUS
62
252
70
128
10
0.000000
20
0.000000
30
0.000000
71
59
72
15
73
58
0
VERTEX
8
0
6
CONTINUOUS
62
252
70
128
10
0.000000
20
0.000000
30
0.000000
71
58
72
15
73
16
0
VERTEX
8
0
6
CONTINUOUS
62
252
70
128
10
0.000000
20
0.000000
30
0.000000
71
58
72
16
73
57
0
VERTEX
8
0
6
CONTINUOUS
62
252
70
128
10
0.000000
20
0.000000
30
0.000000
71
57
72
16
73
17
0
VERTEX
8
0
6
CONTINUOUS
62
252
70
128
10
0.000000
20
0.000000
30
0.000000
71
57
72
17
73
56
0
VERTEX
8
0
6
CONTINUOUS
62
252
70
128
10
0.000000
20
0.000000
30
0.000000
71
56
72
17
73
18
0
VERTEX
8
0
6
CONTINUOUS
62
252
70
128
10
0.000000
20
0.000000
30
0.000000
71
56
72
18
73
55
0
VERTEX
8
0
6
CONTINUOUS
62
252
70
128
10
0.000000
20
0.000000
30
0.000000
71
55
72
18
73
19
0
VERTEX
8
0
6
CONTINUOUS
62
252
70
128
10
0.000000
20
0.000000
30
0.000000
71
55
72
19
73
54
0
VERTEX
8
0
6
CONTINUOUS
62
252
70
128
10
0.000000
20
0.000000
30
0.000000
71
54
72
19
73
20
0
VERTEX
8
0
6
CONTINUOUS
62
252
70
128
10
0.000000
20
0.000000
30
0.000000
71
54
72
20
73
53
0
VERTEX
8
0
6
CONTINUOUS
62
252
70
128
10
0.000000
20
0.000000
30
0.000000
71
53
72
20
73
21
0
VERTEX
8
0
6
CONTINUOUS
62
252
70
128
10
0.000000
20
0.000000
30
0.000000
71
53
72
21
73
52
0
VERTEX
8
0
6
CONTINUOUS
62
252
70
128
10
0.000000
20
0.000000
30
0.000000
71
52
72
21
73
22
0
VERTEX
8
0
6
CONTINUOUS
62
252
70
128
10
0.000000
20
0.000000
30
0.000000
71
52
72
22
73
23
0
VERTEX
8
0
6
CONTINUOUS
62
252
70
128
10
0.000000
20
0.000000
30
0.000000
71
52
72
23
73
51
0
VERTEX
8
0
6
CONTINUOUS
62
252
70
128
10
0.000000
20
0.000000
30
0.000000
71
51
72
23
73
24
0
VERTEX
8
0
6
CONTINUOUS
62
252
70
128
10
0.000000
20
0.000000
30
0.000000
71
51
72
24
73
50
0
VERTEX
8
0
6
CONTINUOUS
62
252
70
128
10
0.000000
20
0.000000
30
0.000000
71
50
72
24
73
25
0
VERTEX
8
0
6
CONTINUOUS
62
252
70
128
10
0.000000
20
0.000000
30
0.000000
71
50
72
25
73
49
0
VERTEX
8
0
6
CONTINUOUS
62
252
70
128
10
0.000000
20
0.000000
30
0.000000
71
49
72
25
73
26
0
VERTEX
8
0
6
CONTINUOUS
62
252
70
128
10
0.000000
20
0.000000
30
0.000000
71
49
72
26
73
48
0
VERTEX
8
0
6
CONTINUOUS
62
252
70
128
10
0.000000
20
0.000000
30
0.000000
71
48
72
26
73
27
0
VERTEX
8
0
6
CONTINUOUS
62
252
70
128
10
0.000000
20
0.000000
30
0.000000
71
48
72
27
73
47
0
VERTEX
8
0
6
CONTINUOUS
62
252
70
128
10
0.000000
20
0.000000
30
0.000000
71
47
72
27
73
28
0
VERTEX
8
0
6
CONTINUOUS
62
252
70
128
10
0.000000
20
0.000000
30
0.000000
71
47
72
28
73
46
0
VERTEX
8
0
6
CONTINUOUS
62
252
70
128
10
0.000000
20
0.000000
30
0.000000
71
46
72
28
73
29
0
VERTEX
8
0
6
CONTINUOUS
62
252
70
128
10
0.000000
20
0.000000
30
0.000000
71
46
72
29
73
45
0
VERTEX
8
0
6
CONTINUOUS
62
252
70
128
10
0.000000
20
0.000000
30
0.000000
71
45
72
29
73
44
0
VERTEX
8
0
6
CONTINUOUS
62
252
70
128
10
0.000000
20
0.000000
30
0.000000
71
44
72
29
73
30
0
VERTEX
8
0
6
CONTINUOUS
62
252
70
128
10
0.000000
20
0.000000
30
0.000000
71
44
72
30
73
43
0
VERTEX
8
0
6
CONTINUOUS
62
252
70
128
10
0.000000
20
0.000000
30
0.000000
71
43
72
30
73
31
0
VERTEX
8
0
6
CONTINUOUS
62
252
70
128
10
0.000000
20
0.000000
30
0.000000
71
43
72
31
73
32
0
VERTEX
8
0
6
CONTINUOUS
62
252
70
128
10
0.000000
20
0.000000
30
0.000000
71
43
72
32
73
42
0
VERTEX
8
0
6
CONTINUOUS
62
252
70
128
10
0.000000
20
0.000000
30
0.000000
71
42
72
32
73
33
0
VERTEX
8
0
6
CONTINUOUS
62
252
70
128
10
0.000000
20
0.000000
30
0.000000
71
42
72
33
73
41
0
VERTEX
8
0
6
CONTINUOUS
62
252
70
128
10
0.000000
20
0.000000
30
0.000000
71
41
72
33
73
34
0
VERTEX
8
0
6
CONTINUOUS
62
252
70
128
10
0.000000
20
0.000000
30
0.000000
71
41
72
34
73
40
0
VERTEX
8
0
6
CONTINUOUS
62
252
70
128
10
0.000000
20
0.000000
30
0.000000
71
40
72
34
73
35
0
VERTEX
8
0
6
CONTINUOUS
62
252
70
128
10
0.000000
20
0.000000
30
0.000000
71
40
72
35
73
39
0
VERTEX
8
0
6
CONTINUOUS
62
252
70
128
10
0.000000
20
0.000000
30
0.000000
71
39
72
35
73
38
0
VERTEX
8
0
6
CONTINUOUS
62
252
70
128
10
0.000000
20
0.000000
30
0.000000
71
38
72
35
73
36
0
VERTEX
8
0
6
CONTINUOUS
62
252
70
128
10
0.000000
20
0.000000
30
0.000000
71
38
72
36
73
1
0
SEQEND
0
POLYLINE
66
1
8
0
6
CONTINUOUS
62
252
70
64
75
0
10
0.000000
20
0.000000
30
0.000000
0
VERTEX
8
0
6
CONTINUOUS
62
252
70
192
10
-0.000000
20
24.750000
30
22.500000
0
VERTEX
8
0
6
CONTINUOUS
62
252
70
192
10
-0.000000
20
24.359292
30
22.534183
0
VERTEX
8
0
6
CONTINUOUS
62
252
70
192
10
-0.000000
20
23.980455
30
22.635692
0
VERTEX
8
0
6
CONTINUOUS
62
252
70
192
10
-0.000000
20
23.625000
30
22.801443
0
VERTEX
8
0
6
CONTINUOUS
62
252
70
192
10
-0.000000
20
23.303728
30
23.026400
0
VERTEX
8
0
6
CONTINUOUS
62
252
70
192
10
-0.000000
20
23.026400
30
23.303728
0
VERTEX
8
0
6
CONTINUOUS
62
252
70
192
10
-0.000000
20
22.801443
30
23.625000
0
VERTEX
8
0
6
CONTINUOUS
62
252
70
192
10
-0.000000
20
22.635692
30
23.980455
0
VERTEX
8
0
6
CONTINUOUS
62
252
70
192
10
-0.000000
20
22.534183
30
24.359292
0
VERTEX
8
0
6
CONTINUOUS
62
252
70
192
10
-0.000000
20
22.500000
30
24.750000
0
VERTEX
8
0
6
CONTINUOUS
62
252
70
192
10
-0.000000
20
22.534183
30
25.140708
0
VERTEX
8
0
6
CONTINUOUS
62
252
70
192
10
-0.000000
20
22.635692
30
25.519545
0
VERTEX
8
0
6
CONTINUOUS
62
252
70
192
10
-0.000000
20
22.801443
30
25.875000
0
VERTEX
8
0
6
CONTINUOUS
62
252
70
192
10
-0.000000
20
23.026400
30
26.196272
0
VERTEX
8
0
6
CONTINUOUS
62
252
70
192
10
-0.000000
20
23.303728
30
26.473600
0
VERTEX
8
0
6
CONTINUOUS
62
252
70
192
10
-0.000000
20
23.625000
30
26.698557
0
VERTEX
8
0
6
CONTINUOUS
62
252
70
192
10
-0.000000
20
23.980455
30
26.864308
0
VERTEX
8
0
6
CONTINUOUS
62
252
70
192
10
-0.000000
20
24.359292
30
26.965817
0
VERTEX
8
0
6
CONTINUOUS
62
252
70
192
10
-0.000000
20
24.750000
30
27.000000
0
VERTEX
8
0
6
CONTINUOUS
62
252
70
192
10
-0.000000
20
25.140708
30
26.965817
0
VERTEX
8
0
6
CONTINUOUS
62
252
70
192
10
-0.000000
20
25.519545
30
26.864308
0
VERTEX
8
0
6
CONTINUOUS
62
252
70
192
10
-0.000000
20
25.875000
30
26.698557
0
VERTEX
8
0
6
CONTINUOUS
62
252
70
192
10
-0.000000
20
26.196272
30
26.473600
0
VERTEX
8
0
6
CONTINUOUS
62
252
70
192
10
-0.000000
20
26.473600
30
26.196272
0
VERTEX
8
0
6
CONTINUOUS
62
252
70
192
10
-0.000000
20
26.698557
30
25.875000
0
VERTEX
8
0
6
CONTINUOUS
62
252
70
192
10
-0.000000
20
26.864308
30
25.519545
0
VERTEX
8
0
6
CONTINUOUS
62
252
70
192
10
-0.000000
20
26.965817
30
25.140708
0
VERTEX
8
0
6
CONTINUOUS
62
252
70
192
10
-0.000000
20
27.000000
30
24.750000
0
VERTEX
8
0
6
CONTINUOUS
62
252
70
192
10
-0.000000
20
26.965817
30
24.359292
0
VERTEX
8
0
6
CONTINUOUS
62
252
70
192
10
-0.000000
20
26.864308
30
23.980455
0
VERTEX
8
0
6
CONTINUOUS
62
252
70
192
10
-0.000000
20
26.698557
30
23.625000
0
VERTEX
8
0
6
CONTINUOUS
62
252
70
192
10
-0.000000
20
26.473600
30
23.303728
0
VERTEX
8
0
6
CONTINUOUS
62
252
70
192
10
-0.000000
20
26.196272
30
23.026400
0
VERTEX
8
0
6
CONTINUOUS
62
252
70
192
10
-0.000000
20
25.875000
30
22.801443
0
VERTEX
8
0
6
CONTINUOUS
62
252
70
192
10
-0.000000
20
25.519545
30
22.635692
0
VERTEX
8
0
6
CONTINUOUS
62
252
70
192
10
-0.000000
20
25.140708
30
22.534183
0
VERTEX
8
0
6
CONTINUOUS
62
252
70
192
10
6.000000
20
24.750000
30
22.500000
0
VERTEX
8
0
6
CONTINUOUS
62
252
70
192
10
6.000000
20
25.140708
30
22.534183
0
VERTEX
8
0
6
CONTINUOUS
62
252
70
192
10
6.000000
20
25.519545
30
22.635692
0
VERTEX
8
0
6
CONTINUOUS
62
252
70
192
10
6.000000
20
25.875000
30
22.801443
0
VERTEX
8
0
6
CONTINUOUS
62
252
70
192
10
6.000000
20
26.196272
30
23.026400
0
VERTEX
8
0
6
CONTINUOUS
62
252
70
192
10
6.000000
20
26.473600
30
23.303728
0
VERTEX
8
0
6
CONTINUOUS
62
252
70
192
10
6.000000
20
26.698557
30
23.625000
0
VERTEX
8
0
6
CONTINUOUS
62
252
70
192
10
6.000000
20
26.864308
30
23.980455
0
VERTEX
8
0
6
CONTINUOUS
62
252
70
192
10
6.000000
20
26.965817
30
24.359292
0
VERTEX
8
0
6
CONTINUOUS
62
252
70
192
10
6.000000
20
27.000000
30
24.750000
0
VERTEX
8
0
6
CONTINUOUS
62
252
70
192
10
6.000000
20
26.965817
30
25.140708
0
VERTEX
8
0
6
CONTINUOUS
62
252
70
192
10
6.000000
20
26.864308
30
25.519545
0
VERTEX
8
0
6
CONTINUOUS
62
252
70
192
10
6.000000
20
26.698557
30
25.875000
0
VERTEX
8
0
6
CONTINUOUS
62
252
70
192
10
6.000000
20
26.473600
30
26.196272
0
VERTEX
8
0
6
CONTINUOUS
62
252
70
192
10
6.000000
20
26.196272
30
26.473600
0
VERTEX
8
0
6
CONTINUOUS
62
252
70
192
10
6.000000
20
25.875000
30
26.698557
0
VERTEX
8
0
6
CONTINUOUS
62
252
70
192
10
6.000000
20
25.519545
30
26.864308
0
VERTEX
8
0
6
CONTINUOUS
62
252
70
192
10
6.000000
20
25.140708
30
26.965817
0
VERTEX
8
0
6
CONTINUOUS
62
252
70
192
10
6.000000
20
24.750000
30
27.000000
0
VERTEX
8
0
6
CONTINUOUS
62
252
70
192
10
6.000000
20
24.359292
30
26.965817
0
VERTEX
8
0
6
CONTINUOUS
62
252
70
192
10
6.000000
20
23.980455
30
26.864308
0
VERTEX
8
0
6
CONTINUOUS
62
252
70
192
10
6.000000
20
23.625000
30
26.698557
0
VERTEX
8
0
6
CONTINUOUS
62
252
70
192
10
6.000000
20
23.303728
30
26.473600
0
VERTEX
8
0
6
CONTINUOUS
62
252
70
192
10
6.000000
20
23.026400
30
26.196272
0
VERTEX
8
0
6
CONTINUOUS
62
252
70
192
10
6.000000
20
22.801443
30
25.875000
0
VERTEX
8
0
6
CONTINUOUS
62
252
70
192
10
6.000000
20
22.635692
30
25.519545
0
VERTEX
8
0
6
CONTINUOUS
62
252
70
192
10
6.000000
20
22.534183
30
25.140708
0
VERTEX
8
0
6
CONTINUOUS
62
252
70
192
10
6.000000
20
22.500000
30
24.750000
0
VERTEX
8
0
6
CONTINUOUS
62
252
70
192
10
6.000000
20
22.534183
30
24.359292
0
VERTEX
8
0
6
CONTINUOUS
62
252
70
192
10
6.000000
20
22.635692
30
23.980455
0
VERTEX
8
0
6
CONTINUOUS
62
252
70
192
10
6.000000
20
22.801443
30
23.625000
0
VERTEX
8
0
6
CONTINUOUS
62
252
70
192
10
6.000000
20
23.026400
30
23.303728
0
VERTEX
8
0
6
CONTINUOUS
62
252
70
192
10
6.000000
20
23.303728
30
23.026400
0
VERTEX
8
0
6
CONTINUOUS
62
252
70
192
10
6.000000
20
23.625000
30
22.801443
0
VERTEX
8
0
6
CONTINUOUS
62
252
70
192
10
6.000000
20
23.980455
30
22.635692
0
VERTEX
8
0
6
CONTINUOUS
62
252
70
192
10
6.000000
20
24.359292
30
22.534183
0
VERTEX
8
0
6
CONTINUOUS
62
252
70
128
10
0.000000
20
0.000000
30
0.000000
71
2
72
72
73
1
0
VERTEX
8
0
6
CONTINUOUS
62
252
70
128
10
0.000000
20
0.000000
30
0.000000
71
1
72
72
73
37
0
VERTEX
8
0
6
CONTINUOUS
62
252
70
128
10
0.000000
20
0.000000
30
0.000000
71
1
72
37
73
36
0
VERTEX
8
0
6
CONTINUOUS
62
252
70
128
10
0.000000
20
0.000000
30
0.000000
71
36
72
37
73
38
0
VERTEX
8
0
6
CONTINUOUS
62
252
70
128
10
0.000000
20
0.000000
30
0.000000
71
36
72
38
73
35
0
VERTEX
8
0
6
CONTINUOUS
62
252
70
128
10
0.000000
20
0.000000
30
0.000000
71
35
72
38
73
39
0
VERTEX
8
0
6
CONTINUOUS
62
252
70
128
10
0.000000
20
0.000000
30
0.000000
71
35
72
39
73
40
0
VERTEX
8
0
6
CONTINUOUS
62
252
70
128
10
0.000000
20
0.000000
30
0.000000
71
72
72
2
73
71
0
VERTEX
8
0
6
CONTINUOUS
62
252
70
128
10
0.000000
20
0.000000
30
0.000000
71
71
72
2
73
3
0
VERTEX
8
0
6
CONTINUOUS
62
252
70
128
10
0.000000
20
0.000000
30
0.000000
71
71
72
3
73
70
0
VERTEX
8
0
6
CONTINUOUS
62
252
70
128
10
0.000000
20
0.000000
30
0.000000
71
70
72
3
73
4
0
VERTEX
8
0
6
CONTINUOUS
62
252
70
128
10
0.000000
20
0.000000
30
0.000000
71
70
72
4
73
69
0
VERTEX
8
0
6
CONTINUOUS
62
252
70
128
10
0.000000
20
0.000000
30
0.000000
71
69
72
4
73
5
0
VERTEX
8
0
6
CONTINUOUS
62
252
70
128
10
0.000000
20
0.000000
30
0.000000
71
69
72
5
73
68
0
VERTEX
8
0
6
CONTINUOUS
62
252
70
128
10
0.000000
20
0.000000
30
0.000000
71
68
72
5
73
6
0
VERTEX
8
0
6
CONTINUOUS
62
252
70
128
10
0.000000
20
0.000000
30
0.000000
71
68
72
6
73
67
0
VERTEX
8
0
6
CONTINUOUS
62
252
70
128
10
0.000000
20
0.000000
30
0.000000
71
67
72
6
73
7
0
VERTEX
8
0
6
CONTINUOUS
62
252
70
128
10
0.000000
20
0.000000
30
0.000000
71
67
72
7
73
66
0
VERTEX
8
0
6
CONTINUOUS
62
252
70
128
10
0.000000
20
0.000000
30
0.000000
71
66
72
7
73
8
0
VERTEX
8
0
6
CONTINUOUS
62
252
70
128
10
0.000000
20
0.000000
30
0.000000
71
66
72
8
73
65
0
VERTEX
8
0
6
CONTINUOUS
62
252
70
128
10
0.000000
20
0.000000
30
0.000000
71
65
72
8
73
9
0
VERTEX
8
0
6
CONTINUOUS
62
252
70
128
10
0.000000
20
0.000000
30
0.000000
71
65
72
9
73
64
0
VERTEX
8
0
6
CONTINUOUS
62
252
70
128
10
0.000000
20
0.000000
30
0.000000
71
64
72
9
73
10
0
VERTEX
8
0
6
CONTINUOUS
62
252
70
128
10
0.000000
20
0.000000
30
0.000000
71
64
72
10
73
63
0
VERTEX
8
0
6
CONTINUOUS
62
252
70
128
10
0.000000
20
0.000000
30
0.000000
71
63
72
10
73
11
0
VERTEX
8
0
6
CONTINUOUS
62
252
70
128
10
0.000000
20
0.000000
30
0.000000
71
63
72
11
73
62
0
VERTEX
8
0
6
CONTINUOUS
62
252
70
128
10
0.000000
20
0.000000
30
0.000000
71
62
72
11
73
12
0
VERTEX
8
0
6
CONTINUOUS
62
252
70
128
10
0.000000
20
0.000000
30
0.000000
71
62
72
12
73
61
0
VERTEX
8
0
6
CONTINUOUS
62
252
70
128
10
0.000000
20
0.000000
30
0.000000
71
61
72
12
73
13
0
VERTEX
8
0
6
CONTINUOUS
62
252
70
128
10
0.000000
20
0.000000
30
0.000000
71
61
72
13
73
60
0
VERTEX
8
0
6
CONTINUOUS
62
252
70
128
10
0.000000
20
0.000000
30
0.000000
71
60
72
13
73
14
0
VERTEX
8
0
6
CONTINUOUS
62
252
70
128
10
0.000000
20
0.000000
30
0.000000
71
60
72
14
73
59
0
VERTEX
8
0
6
CONTINUOUS
62
252
70
128
10
0.000000
20
0.000000
30
0.000000
71
59
72
14
73
15
0
VERTEX
8
0
6
CONTINUOUS
62
252
70
128
10
0.000000
20
0.000000
30
0.000000
71
59
72
15
73
58
0
VERTEX
8
0
6
CONTINUOUS
62
252
70
128
10
0.000000
20
0.000000
30
0.000000
71
58
72
15
73
16
0
VERTEX
8
0
6
CONTINUOUS
62
252
70
128
10
0.000000
20
0.000000
30
0.000000
71
58
72
16
73
57
0
VERTEX
8
0
6
CONTINUOUS
62
252
70
128
10
0.000000
20
0.000000
30
0.000000
71
57
72
16
73
17
0
VERTEX
8
0
6
CONTINUOUS
62
252
70
128
10
0.000000
20
0.000000
30
0.000000
71
57
72
17
73
56
0
VERTEX
8
0
6
CONTINUOUS
62
252
70
128
10
0.000000
20
0.000000
30
0.000000
71
56
72
17
73
18
0
VERTEX
8
0
6
CONTINUOUS
62
252
70
128
10
0.000000
20
0.000000
30
0.000000
71
56
72
18
73
55
0
VERTEX
8
0
6
CONTINUOUS
62
252
70
128
10
0.000000
20
0.000000
30
0.000000
71
55
72
18
73
19
0
VERTEX
8
0
6
CONTINUOUS
62
252
70
128
10
0.000000
20
0.000000
30
0.000000
71
55
72
19
73
54
0
VERTEX
8
0
6
CONTINUOUS
62
252
70
128
10
0.000000
20
0.000000
30
0.000000
71
54
72
19
73
20
0
VERTEX
8
0
6
CONTINUOUS
62
252
70
128
10
0.000000
20
0.000000
30
0.000000
71
54
72
20
73
53
0
VERTEX
8
0
6
CONTINUOUS
62
252
70
128
10
0.000000
20
0.000000
30
0.000000
71
53
72
20
73
21
0
VERTEX
8
0
6
CONTINUOUS
62
252
70
128
10
0.000000
20
0.000000
30
0.000000
71
53
72
21
73
52
0
VERTEX
8
0
6
CONTINUOUS
62
252
70
128
10
0.000000
20
0.000000
30
0.000000
71
52
72
21
73
22
0
VERTEX
8
0
6
CONTINUOUS
62
252
70
128
10
0.000000
20
0.000000
30
0.000000
71
52
72
22
73
23
0
VERTEX
8
0
6
CONTINUOUS
62
252
70
128
10
0.000000
20
0.000000
30
0.000000
71
52
72
23
73
51
0
VERTEX
8
0
6
CONTINUOUS
62
252
70
128
10
0.000000
20
0.000000
30
0.000000
71
51
72
23
73
24
0
VERTEX
8
0
6
CONTINUOUS
62
252
70
128
10
0.000000
20
0.000000
30
0.000000
71
51
72
24
73
50
0
VERTEX
8
0
6
CONTINUOUS
62
252
70
128
10
0.000000
20
0.000000
30
0.000000
71
50
72
24
73
25
0
VERTEX
8
0
6
CONTINUOUS
62
252
70
128
10
0.000000
20
0.000000
30
0.000000
71
50
72
25
73
49
0
VERTEX
8
0
6
CONTINUOUS
62
252
70
128
10
0.000000
20
0.000000
30
0.000000
71
49
72
25
73
26
0
VERTEX
8
0
6
CONTINUOUS
62
252
70
128
10
0.000000
20
0.000000
30
0.000000
71
49
72
26
73
48
0
VERTEX
8
0
6
CONTINUOUS
62
252
70
128
10
0.000000
20
0.000000
30
0.000000
71
48
72
26
73
27
0
VERTEX
8
0
6
CONTINUOUS
62
252
70
128
10
0.000000
20
0.000000
30
0.000000
71
48
72
27
73
47
0
VERTEX
8
0
6
CONTINUOUS
62
252
70
128
10
0.000000
20
0.000000
30
0.000000
71
47
72
27
73
28
0
VERTEX
8
0
6
CONTINUOUS
62
252
70
128
10
0.000000
20
0.000000
30
0.000000
71
47
72
28
73
46
0
VERTEX
8
0
6
CONTINUOUS
62
252
70
128
10
0.000000
20
0.000000
30
0.000000
71
46
72
28
73
29
0
VERTEX
8
0
6
CONTINUOUS
62
252
70
128
10
0.000000
20
0.000000
30
0.000000
71
46
72
29
73
45
0
VERTEX
8
0
6
CONTINUOUS
62
252
70
128
10
0.000000
20
0.000000
30
0.000000
71
45
72
29
73
44
0
VERTEX
8
0
6
CONTINUOUS
62
252
70
128
10
0.000000
20
0.000000
30
0.000000
71
44
72
29
73
30
0
VERTEX
8
0
6
CONTINUOUS
62
252
70
128
10
0.000000
20
0.000000
30
0.000000
71
44
72
30
73
43
0
VERTEX
8
0
6
CONTINUOUS
62
252
70
128
10
0.000000
20
0.000000
30
0.000000
71
43
72
30
73
31
0
VERTEX
8
0
6
CONTINUOUS
62
252
70
128
10
0.000000
20
0.000000
30
0.000000
71
43
72
31
73
32
0
VERTEX
8
0
6
CONTINUOUS
62
252
70
128
10
0.000000
20
0.000000
30
0.000000
71
43
72
32
73
42
0
VERTEX
8
0
6
CONTINUOUS
62
252
70
128
10
0.000000
20
0.000000
30
0.000000
71
42
72
32
73
33
0
VERTEX
8
0
6
CONTINUOUS
62
252
70
128
10
0.000000
20
0.000000
30
0.000000
71
42
72
33
73
41
0
VERTEX
8
0
6
CONTINUOUS
62
252
70
128
10
0.000000
20
0.000000
30
0.000000
71
41
72
33
73
34
0
VERTEX
8
0
6
CONTINUOUS
62
252
70
128
10
0.000000
20
0.000000
30
0.000000
71
41
72
34
73
40
0
VERTEX
8
0
6
CONTINUOUS
62
252
70
128
10
0.000000
20
0.000000
30
0.000000
71
40
72
34
73
35
0
SEQEND
0
POLYLINE
66
1
8
0
6
CONTINUOUS
62
252
70
64
75
0
10
0.000000
20
0.000000
30
0.000000
0
VERTEX
8
0
6
CONTINUOUS
62
252
70
192
10
-0.000000
20
-24.750000
30
22.500000
0
VERTEX
8
0
6
CONTINUOUS
62
252
70
192
10
-0.000000
20
-25.140708
30
22.534183
0
VERTEX
8
0
6
CONTINUOUS
62
252
70
192
10
-0.000000
20
-25.519545
30
22.635692
0
VERTEX
8
0
6
CONTINUOUS
62
252
70
192
10
-0.000000
20
-25.875000
30
22.801443
0
VERTEX
8
0
6
CONTINUOUS
62
252
70
192
10
-0.000000
20
-26.196272
30
23.026400
0
VERTEX
8
0
6
CONTINUOUS
62
252
70
192
10
-0.000000
20
-26.473600
30
23.303728
0
VERTEX
8
0
6
CONTINUOUS
62
252
70
192
10
-0.000000
20
-26.698557
30
23.625000
0
VERTEX
8
0
6
CONTINUOUS
62
252
70
192
10
-0.000000
20
-26.864308
30
23.980455
0
VERTEX
8
0
6
CONTINUOUS
62
252
70
192
10
-0.000000
20
-26.965817
30
24.359292
0
VERTEX
8
0
6
CONTINUOUS
62
252
70
192
10
-0.000000
20
-27.000000
30
24.750000
0
VERTEX
8
0
6
CONTINUOUS
62
252
70
192
10
-0.000000
20
-26.965817
30
25.140708
0
VERTEX
8
0
6
CONTINUOUS
62
252
70
192
10
-0.000000
20
-26.864308
30
25.519545
0
VERTEX
8
0
6
CONTINUOUS
62
252
70
192
10
-0.000000
20
-26.698557
30
25.875000
0
VERTEX
8
0
6
CONTINUOUS
62
252
70
192
10
-0.000000
20
-26.473600
30
26.196272
0
VERTEX
8
0
6
CONTINUOUS
62
252
70
192
10
-0.000000
20
-26.196272
30
26.473600
0
VERTEX
8
0
6
CONTINUOUS
62
252
70
192
10
-0.000000
20
-25.875000
30
26.698557
0
VERTEX
8
0
6
CONTINUOUS
62
252
70
192
10
-0.000000
20
-25.519545
30
26.864308
0
VERTEX
8
0
6
CONTINUOUS
62
252
70
192
10
-0.000000
20
-25.140708
30
26.965817
0
VERTEX
8
0
6
CONTINUOUS
62
252
70
192
10
-0.000000
20
-24.750000
30
27.000000
0
VERTEX
8
0
6
CONTINUOUS
62
252
70
192
10
-0.000000
20
-24.359292
30
26.965817
0
VERTEX
8
0
6
CONTINUOUS
62
252
70
192
10
-0.000000
20
-23.980455
30
26.864308
0
VERTEX
8
0
6
CONTINUOUS
62
252
70
192
10
-0.000000
20
-23.625000
30
26.698557
0
VERTEX
8
0
6
CONTINUOUS
62
252
70
192
10
-0.000000
20
-23.303728
30
26.473600
0
VERTEX
8
0
6
CONTINUOUS
62
252
70
192
10
-0.000000
20
-23.026400
30
26.196272
0
VERTEX
8
0
6
CONTINUOUS
62
252
70
192
10
-0.000000
20
-22.801443
30
25.875000
0
VERTEX
8
0
6
CONTINUOUS
62
252
70
192
10
-0.000000
20
-22.635692
30
25.519545
0
VERTEX
8
0
6
CONTINUOUS
62
252
70
192
10
-0.000000
20
-22.534183
30
25.140708
0
VERTEX
8
0
6
CONTINUOUS
62
252
70
192
10
-0.000000
20
-22.500000
30
24.750000
0
VERTEX
8
0
6
CONTINUOUS
62
252
70
192
10
-0.000000
20
-22.534183
30
24.359292
0
VERTEX
8
0
6
CONTINUOUS
62
252
70
192
10
-0.000000
20
-22.635692
30
23.980455
0
VERTEX
8
0
6
CONTINUOUS
62
252
70
192
10
-0.000000
20
-22.801443
30
23.625000
0
VERTEX
8
0
6
CONTINUOUS
62
252
70
192
10
-0.000000
20
-23.026400
30
23.303728
0
VERTEX
8
0
6
CONTINUOUS
62
252
70
192
10
-0.000000
20
-23.303728
30
23.026400
0
VERTEX
8
0
6
CONTINUOUS
62
252
70
192
10
-0.000000
20
-23.625000
30
22.801443
0
VERTEX
8
0
6
CONTINUOUS
62
252
70
192
10
-0.000000
20
-23.980455
30
22.635692
0
VERTEX
8
0
6
CONTINUOUS
62
252
70
192
10
-0.000000
20
-24.359292
30
22.534183
0
VERTEX
8
0
6
CONTINUOUS
62
252
70
192
10
6.000000
20
-24.750000
30
22.500000
0
VERTEX
8
0
6
CONTINUOUS
62
252
70
192
10
6.000000
20
-24.359292
30
22.534183
0
VERTEX
8
0
6
CONTINUOUS
62
252
70
192
10
6.000000
20
-23.980455
30
22.635692
0
VERTEX
8
0
6
CONTINUOUS
62
252
70
192
10
6.000000
20
-23.625000
30
22.801443
0
VERTEX
8
0
6
CONTINUOUS
62
252
70
192
10
6.000000
20
-23.303728
30
23.026400
0
VERTEX
8
0
6
CONTINUOUS
62
252
70
192
10
6.000000
20
-23.026400
30
23.303728
0
VERTEX
8
0
6
CONTINUOUS
62
252
70
192
10
6.000000
20
-22.801443
30
23.625000
0
VERTEX
8
0
6
CONTINUOUS
62
252
70
192
10
6.000000
20
-22.635692
30
23.980455
0
VERTEX
8
0
6
CONTINUOUS
62
252
70
192
10
6.000000
20
-22.534183
30
24.359292
0
VERTEX
8
0
6
CONTINUOUS
62
252
70
192
10
6.000000
20
-22.500000
30
24.750000
0
VERTEX
8
0
6
CONTINUOUS
62
252
70
192
10
6.000000
20
-22.534183
30
25.140708
0
VERTEX
8
0
6
CONTINUOUS
62
252
70
192
10
6.000000
20
-22.635692
30
25.519545
0
VERTEX
8
0
6
CONTINUOUS
62
252
70
192
10
6.000000
20
-22.801443
30
25.875000
0
VERTEX
8
0
6
CONTINUOUS
62
252
70
192
10
6.000000
20
-23.026400
30
26.196272
0
VERTEX
8
0
6
CONTINUOUS
62
252
70
192
10
6.000000
20
-23.303728
30
26.473600
0
VERTEX
8
0
6
CONTINUOUS
62
252
70
192
10
6.000000
20
-23.625000
30
26.698557
0
VERTEX
8
0
6
CONTINUOUS
62
252
70
192
10
6.000000
20
-23.980455
30
26.864308
0
VERTEX
8
0
6
CONTINUOUS
62
252
70
192
10
6.000000
20
-24.359292
30
26.965817
0
VERTEX
8
0
6
CONTINUOUS
62
252
70
192
10
6.000000
20
-24.750000
30
27.000000
0
VERTEX
8
0
6
CONTINUOUS
62
252
70
192
10
6.000000
20
-25.140708
30
26.965817
0
VERTEX
8
0
6
CONTINUOUS
62
252
70
192
10
6.000000
20
-25.519545
30
26.864308
0
VERTEX
8
0
6
CONTINUOUS
62
252
70
192
10
6.000000
20
-25.875000
30
26.698557
0
VERTEX
8
0
6
CONTINUOUS
62
252
70
192
10
6.000000
20
-26.196272
30
26.473600
0
VERTEX
8
0
6
CONTINUOUS
62
252
70
192
10
6.000000
20
-26.473600
30
26.196272
0
VERTEX
8
0
6
CONTINUOUS
62
252
70
192
10
6.000000
20
-26.698557
30
25.875000
0
VERTEX
8
0
6
CONTINUOUS
62
252
70
192
10
6.000000
20
-26.864308
30
25.519545
0
VERTEX
8
0
6
CONTINUOUS
62
252
70
192
10
6.000000
20
-26.965817
30
25.140708
0
VERTEX
8
0
6
CONTINUOUS
62
252
70
192
10
6.000000
20
-27.000000
30
24.750000
0
VERTEX
8
0
6
CONTINUOUS
62
252
70
192
10
6.000000
20
-26.965817
30
24.359292
0
VERTEX
8
0
6
CONTINUOUS
62
252
70
192
10
6.000000
20
-26.864308
30
23.980455
0
VERTEX
8
0
6
CONTINUOUS
62
252
70
192
10
6.000000
20
-26.698557
30
23.625000
0
VERTEX
8
0
6
CONTINUOUS
62
252
70
192
10
6.000000
20
-26.473600
30
23.303728
0
VERTEX
8
0
6
CONTINUOUS
62
252
70
192
10
6.000000
20
-26.196272
30
23.026400
0
VERTEX
8
0
6
CONTINUOUS
62
252
70
192
10
6.000000
20
-25.875000
30
22.801443
0
VERTEX
8
0
6
CONTINUOUS
62
252
70
192
10
6.000000
20
-25.519545
30
22.635692
0
VERTEX
8
0
6
CONTINUOUS
62
252
70
192
10
6.000000
20
-25.140708
30
22.534183
0
VERTEX
8
0
6
CONTINUOUS
62
252
70
128
10
0.000000
20
0.000000
30
0.000000
71
2
72
72
73
1
0
VERTEX
8
0
6
CONTINUOUS
62
252
70
128
10
0.000000
20
0.000000
30
0.000000
71
1
72
72
73
37
0
VERTEX
8
0
6
CONTINUOUS
62
252
70
128
10
0.000000
20
0.000000
30
0.000000
71
1
72
37
73
36
0
VERTEX
8
0
6
CONTINUOUS
62
252
70
128
10
0.000000
20
0.000000
30
0.000000
71
36
72
37
73
38
0
VERTEX
8
0
6
CONTINUOUS
62
252
70
128
10
0.000000
20
0.000000
30
0.000000
71
36
72
38
73
35
0
VERTEX
8
0
6
CONTINUOUS
62
252
70
128
10
0.000000
20
0.000000
30
0.000000
71
35
72
38
73
39
0
VERTEX
8
0
6
CONTINUOUS
62
252
70
128
10
0.000000
20
0.000000
30
0.000000
71
35
72
39
73
40
0
VERTEX
8
0
6
CONTINUOUS
62
252
70
128
10
0.000000
20
0.000000
30
0.000000
71
72
72
2
73
71
0
VERTEX
8
0
6
CONTINUOUS
62
252
70
128
10
0.000000
20
0.000000
30
0.000000
71
71
72
2
73
3
0
VERTEX
8
0
6
CONTINUOUS
62
252
70
128
10
0.000000
20
0.000000
30
0.000000
71
71
72
3
73
70
0
VERTEX
8
0
6
CONTINUOUS
62
252
70
128
10
0.000000
20
0.000000
30
0.000000
71
70
72
3
73
4
0
VERTEX
8
0
6
CONTINUOUS
62
252
70
128
10
0.000000
20
0.000000
30
0.000000
71
70
72
4
73
69
0
VERTEX
8
0
6
CONTINUOUS
62
252
70
128
10
0.000000
20
0.000000
30
0.000000
71
69
72
4
73
5
0
VERTEX
8
0
6
CONTINUOUS
62
252
70
128
10
0.000000
20
0.000000
30
0.000000
71
69
72
5
73
68
0
VERTEX
8
0
6
CONTINUOUS
62
252
70
128
10
0.000000
20
0.000000
30
0.000000
71
68
72
5
73
6
0
VERTEX
8
0
6
CONTINUOUS
62
252
70
128
10
0.000000
20
0.000000
30
0.000000
71
68
72
6
73
67
0
VERTEX
8
0
6
CONTINUOUS
62
252
70
128
10
0.000000
20
0.000000
30
0.000000
71
67
72
6
73
7
0
VERTEX
8
0
6
CONTINUOUS
62
252
70
128
10
0.000000
20
0.000000
30
0.000000
71
67
72
7
73
66
0
VERTEX
8
0
6
CONTINUOUS
62
252
70
128
10
0.000000
20
0.000000
30
0.000000
71
66
72
7
73
8
0
VERTEX
8
0
6
CONTINUOUS
62
252
70
128
10
0.000000
20
0.000000
30
0.000000
71
66
72
8
73
65
0
VERTEX
8
0
6
CONTINUOUS
62
252
70
128
10
0.000000
20
0.000000
30
0.000000
71
65
72
8
73
9
0
VERTEX
8
0
6
CONTINUOUS
62
252
70
128
10
0.000000
20
0.000000
30
0.000000
71
65
72
9
73
64
0
VERTEX
8
0
6
CONTINUOUS
62
252
70
128
10
0.000000
20
0.000000
30
0.000000
71
64
72
9
73
10
0
VERTEX
8
0
6
CONTINUOUS
62
252
70
128
10
0.000000
20
0.000000
30
0.000000
71
64
72
10
73
63
0
VERTEX
8
0
6
CONTINUOUS
62
252
70
128
10
0.000000
20
0.000000
30
0.000000
71
63
72
10
73
11
0
VERTEX
8
0
6
CONTINUOUS
62
252
70
128
10
0.000000
20
0.000000
30
0.000000
71
63
72
11
73
62
0
VERTEX
8
0
6
CONTINUOUS
62
252
70
128
10
0.000000
20
0.000000
30
0.000000
71
62
72
11
73
12
0
VERTEX
8
0
6
CONTINUOUS
62
252
70
128
10
0.000000
20
0.000000
30
0.000000
71
62
72
12
73
61
0
VERTEX
8
0
6
CONTINUOUS
62
252
70
128
10
0.000000
20
0.000000
30
0.000000
71
61
72
12
73
13
0
VERTEX
8
0
6
CONTINUOUS
62
252
70
128
10
0.000000
20
0.000000
30
0.000000
71
61
72
13
73
60
0
VERTEX
8
0
6
CONTINUOUS
62
252
70
128
10
0.000000
20
0.000000
30
0.000000
71
60
72
13
73
14
0
VERTEX
8
0
6
CONTINUOUS
62
252
70
128
10
0.000000
20
0.000000
30
0.000000
71
60
72
14
73
59
0
VERTEX
8
0
6
CONTINUOUS
62
252
70
128
10
0.000000
20
0.000000
30
0.000000
71
59
72
14
73
15
0
VERTEX
8
0
6
CONTINUOUS
62
252
70
128
10
0.000000
20
0.000000
30
0.000000
71
59
72
15
73
58
0
VERTEX
8
0
6
CONTINUOUS
62
252
70
128
10
0.000000
20
0.000000
30
0.000000
71
58
72
15
73
16
0
VERTEX
8
0
6
CONTINUOUS
62
252
70
128
10
0.000000
20
0.000000
30
0.000000
71
58
72
16
73
57
0
VERTEX
8
0
6
CONTINUOUS
62
252
70
128
10
0.000000
20
0.000000
30
0.000000
71
57
72
16
73
17
0
VERTEX
8
0
6
CONTINUOUS
62
252
70
128
10
0.000000
20
0.000000
30
0.000000
71
57
72
17
73
56
0
VERTEX
8
0
6
CONTINUOUS
62
252
70
128
10
0.000000
20
0.000000
30
0.000000
71
56
72
17
73
18
0
VERTEX
8
0
6
CONTINUOUS
62
252
70
128
10
0.000000
20
0.000000
30
0.000000
71
56
72
18
73
55
0
VERTEX
8
0
6
CONTINUOUS
62
252
70
128
10
0.000000
20
0.000000
30
0.000000
71
55
72
18
73
19
0
VERTEX
8
0
6
CONTINUOUS
62
252
70
128
10
0.000000
20
0.000000
30
0.000000
71
55
72
19
73
54
0
VERTEX
8
0
6
CONTINUOUS
62
252
70
128
10
0.000000
20
0.000000
30
0.000000
71
54
72
19
73
20
0
VERTEX
8
0
6
CONTINUOUS
62
252
70
128
10
0.000000
20
0.000000
30
0.000000
71
54
72
20
73
53
0
VERTEX
8
0
6
CONTINUOUS
62
252
70
128
10
0.000000
20
0.000000
30
0.000000
71
53
72
20
73
21
0
VERTEX
8
0
6
CONTINUOUS
62
252
70
128
10
0.000000
20
0.000000
30
0.000000
71
53
72
21
73
52
0
VERTEX
8
0
6
CONTINUOUS
62
252
70
128
10
0.000000
20
0.000000
30
0.000000
71
52
72
21
73
22
0
VERTEX
8
0
6
CONTINUOUS
62
252
70
128
10
0.000000
20
0.000000
30
0.000000
71
52
72
22
73
23
0
VERTEX
8
0
6
CONTINUOUS
62
252
70
128
10
0.000000
20
0.000000
30
0.000000
71
52
72
23
73
51
0
VERTEX
8
0
6
CONTINUOUS
62
252
70
128
10
0.000000
20
0.000000
30
0.000000
71
51
72
23
73
24
0
VERTEX
8
0
6
CONTINUOUS
62
252
70
128
10
0.000000
20
0.000000
30
0.000000
71
51
72
24
73
50
0
VERTEX
8
0
6
CONTINUOUS
62
252
70
128
10
0.000000
20
0.000000
30
0.000000
71
50
72
24
73
25
0
VERTEX
8
0
6
CONTINUOUS
62
252
70
128
10
0.000000
20
0.000000
30
0.000000
71
50
72
25
73
49
0
VERTEX
8
0
6
CONTINUOUS
62
252
70
128
10
0.000000
20
0.000000
30
0.000000
71
49
72
25
73
26
0
VERTEX
8
0
6
CONTINUOUS
62
252
70
128
10
0.000000
20
0.000000
30
0.000000
71
49
72
26
73
48
0
VERTEX
8
0
6
CONTINUOUS
62
252
70
128
10
0.000000
20
0.000000
30
0.000000
71
48
72
26
73
27
0
VERTEX
8
0
6
CONTINUOUS
62
252
70
128
10
0.000000
20
0.000000
30
0.000000
71
48
72
27
73
47
0
VERTEX
8
0
6
CONTINUOUS
62
252
70
128
10
0.000000
20
0.000000
30
0.000000
71
47
72
27
73
28
0
VERTEX
8
0
6
CONTINUOUS
62
252
70
128
10
0.000000
20
0.000000
30
0.000000
71
47
72
28
73
46
0
VERTEX
8
0
6
CONTINUOUS
62
252
70
128
10
0.000000
20
0.000000
30
0.000000
71
46
72
28
73
29
0
VERTEX
8
0
6
CONTINUOUS
62
252
70
128
10
0.000000
20
0.000000
30
0.000000
71
46
72
29
73
45
0
VERTEX
8
0
6
CONTINUOUS
62
252
70
128
10
0.000000
20
0.000000
30
0.000000
71
45
72
29
73
44
0
VERTEX
8
0
6
CONTINUOUS
62
252
70
128
10
0.000000
20
0.000000
30
0.000000
71
44
72
29
73
30
0
VERTEX
8
0
6
CONTINUOUS
62
252
70
128
10
0.000000
20
0.000000
30
0.000000
71
44
72
30
73
43
0
VERTEX
8
0
6
CONTINUOUS
62
252
70
128
10
0.000000
20
0.000000
30
0.000000
71
43
72
30
73
31
0
VERTEX
8
0
6
CONTINUOUS
62
252
70
128
10
0.000000
20
0.000000
30
0.000000
71
43
72
31
73
32
0
VERTEX
8
0
6
CONTINUOUS
62
252
70
128
10
0.000000
20
0.000000
30
0.000000
71
43
72
32
73
42
0
VERTEX
8
0
6
CONTINUOUS
62
252
70
128
10
0.000000
20
0.000000
30
0.000000
71
42
72
32
73
33
0
VERTEX
8
0
6
CONTINUOUS
62
252
70
128
10
0.000000
20
0.000000
30
0.000000
71
42
72
33
73
41
0
VERTEX
8
0
6
CONTINUOUS
62
252
70
128
10
0.000000
20
0.000000
30
0.000000
71
41
72
33
73
34
0
VERTEX
8
0
6
CONTINUOUS
62
252
70
128
10
0.000000
20
0.000000
30
0.000000
71
41
72
34
73
40
0
VERTEX
8
0
6
CONTINUOUS
62
252
70
128
10
0.000000
20
0.000000
30
0.000000
71
40
72
34
73
35
0
SEQEND
0
POLYLINE
66
1
8
0
6
CONTINUOUS
62
252
70
64
75
0
10
0.000000
20
0.000000
30
0.000000
0
VERTEX
8
0
6
CONTINUOUS
62
252
70
192
10
6.000000
20
-25.000000
30
30.500000
0
VERTEX
8
0
6
CONTINUOUS
62
252
70
192
10
6.000000
20
25.000000
30
30.500000
0
VERTEX
8
0
6
CONTINUOUS
62
252
70
192
10
0.000000
20
25.000000
30
30.500000
0
VERTEX
8
0
6
CONTINUOUS
62
252
70
192
10
0.000000
20
-25.000000
30
30.500000
0
VERTEX
8
0
6
CONTINUOUS
62
252
70
128
10
0.000000
20
0.000000
30
0.000000
71
2
72
3
73
1
0
VERTEX
8
0
6
CONTINUOUS
62
252
70
128
10
0.000000
20
0.000000
30
0.000000
71
1
72
3
73
4
0
SEQEND
0
POLYLINE
66
1
8
0
6
CONTINUOUS
62
252
70
64
75
0
10
0.000000
20
0.000000
30
0.000000
0
VERTEX
8
0
6
CONTINUOUS
62
252
70
192
10
6.000000
20
25.000000
30
30.500000
0
VERTEX
8
0
6
CONTINUOUS
62
252
70
192
10
6.000000
20
25.955065
30
30.416443
0
VERTEX
8
0
6
CONTINUOUS
62
252
70
192
10
6.000000
20
26.881111
30
30.168309
0
VERTEX
8
0
6
CONTINUOUS
62
252
70
192
10
6.000000
20
27.750000
30
29.763140
0
VERTEX
8
0
6
CONTINUOUS
62
252
70
192
10
6.000000
20
28.535332
30
29.213244
0
VERTEX
8
0
6
CONTINUOUS
62
252
70
192
10
6.000000
20
29.213244
30
28.535332
0
VERTEX
8
0
6
CONTINUOUS
62
252
70
192
10
6.000000
20
29.763140
30
27.750000
0
VERTEX
8
0
6
CONTINUOUS
62
252
70
192
10
6.000000
20
30.168309
30
26.881111
0
VERTEX
8
0
6
CONTINUOUS
62
252
70
192
10
6.000000
20
30.416443
30
25.955065
0
VERTEX
8
0
6
CONTINUOUS
62
252
70
192
10
6.000000
20
30.500000
30
25.000000
0
VERTEX
8
0
6
CONTINUOUS
62
252
70
192
10
0.000000
20
30.500000
30
25.000000
0
VERTEX
8
0
6
CONTINUOUS
62
252
70
192
10
0.000000
20
30.416443
30
25.955065
0
VERTEX
8
0
6
CONTINUOUS
62
252
70
192
10
0.000000
20
30.168309
30
26.881111
0
VERTEX
8
0
6
CONTINUOUS
62
252
70
192
10
0.000000
20
29.763140
30
27.750000
0
VERTEX
8
0
6
CONTINUOUS
62
252
70
192
10
0.000000
20
29.213244
30
28.535332
0
VERTEX
8
0
6
CONTINUOUS
62
252
70
192
10
0.000000
20
28.535332
30
29.213244
0
VERTEX
8
0
6
CONTINUOUS
62
252
70
192
10
0.000000
20
27.750000
30
29.763140
0
VERTEX
8
0
6
CONTINUOUS
62
252
70
192
10
0.000000
20
26.881111
30
30.168309
0
VERTEX
8
0
6
CONTINUOUS
62
252
70
192
10
0.000000
20
25.955065
30
30.416443
0
VERTEX
8
0
6
CONTINUOUS
62
252
70
192
10
0.000000
20
25.000000
30
30.500000
0
VERTEX
8
0
6
CONTINUOUS
62
252
70
128
10
0.000000
20
0.000000
30
0.000000
71
20
72
1
73
19
0
VERTEX
8
0
6
CONTINUOUS
62
252
70
128
10
0.000000
20
0.000000
30
0.000000
71
19
72
1
73
2
0
VERTEX
8
0
6
CONTINUOUS
62
252
70
128
10
0.000000
20
0.000000
30
0.000000
71
19
72
2
73
18
0
VERTEX
8
0
6
CONTINUOUS
62
252
70
128
10
0.000000
20
0.000000
30
0.000000
71
18
72
2
73
3
0
VERTEX
8
0
6
CONTINUOUS
62
252
70
128
10
0.000000
20
0.000000
30
0.000000
71
18
72
3
73
4
0
VERTEX
8
0
6
CONTINUOUS
62
252
70
128
10
0.000000
20
0.000000
30
0.000000
71
18
72
4
73
17
0
VERTEX
8
0
6
CONTINUOUS
62
252
70
128
10
0.000000
20
0.000000
30
0.000000
71
17
72
4
73
5
0
VERTEX
8
0
6
CONTINUOUS
62
252
70
128
10
0.000000
20
0.000000
30
0.000000
71
17
72
5
73
16
0
VERTEX
8
0
6
CONTINUOUS
62
252
70
128
10
0.000000
20
0.000000
30
0.000000
71
16
72
5
73
15
0
VERTEX
8
0
6
CONTINUOUS
62
252
70
128
10
0.000000
20
0.000000
30
0.000000
71
15
72
5
73
6
0
VERTEX
8
0
6
CONTINUOUS
62
252
70
128
10
0.000000
20
0.000000
30
0.000000
71
15
72
6
73
7
0
VERTEX
8
0
6
CONTINUOUS
62
252
70
128
10
0.000000
20
0.000000
30
0.000000
71
15
72
7
73
14
0
VERTEX
8
0
6
CONTINUOUS
62
252
70
128
10
0.000000
20
0.000000
30
0.000000
71
14
72
7
73
8
0
VERTEX
8
0
6
CONTINUOUS
62
252
70
128
10
0.000000
20
0.000000
30
0.000000
71
14
72
8
73
13
0
VERTEX
8
0
6
CONTINUOUS
62
252
70
128
10
0.000000
20
0.000000
30
0.000000
71
13
72
8
73
12
0
VERTEX
8
0
6
CONTINUOUS
62
252
70
128
10
0.000000
20
0.000000
30
0.000000
71
12
72
8
73
9
0
VERTEX
8
0
6
CONTINUOUS
62
252
70
128
10
0.000000
20
0.000000
30
0.000000
71
12
72
9
73
11
0
VERTEX
8
0
6
CONTINUOUS
62
252
70
128
10
0.000000
20
0.000000
30
0.000000
71
11
72
9
73
10
0
SEQEND
0
POLYLINE
66
1
8
0
6
CONTINUOUS
62
252
70
64
75
0
10
0.000000
20
0.000000
30
0.000000
0
VERTEX
8
0
6
CONTINUOUS
62
252
70
192
10
6.000000
20
30.500000
30
25.000000
0
VERTEX
8
0
6
CONTINUOUS
62
252
70
192
10
6.000000
20
30.500000
30
-25.000000
0
VERTEX
8
0
6
CONTINUOUS
62
252
70
192
10
0.000000
20
30.500000
30
-25.000000
0
VERTEX
8
0
6
CONTINUOUS
62
252
70
192
10
0.000000
20
30.500000
30
25.000000
0
VERTEX
8
0
6
CONTINUOUS
62
252
70
128
10
0.000000
20
0.000000
30
0.000000
71
2
72
3
73
1
0
VERTEX
8
0
6
CONTINUOUS
62
252
70
128
10
0.000000
20
0.000000
30
0.000000
71
1
72
3
73
4
0
SEQEND
0
POLYLINE
66
1
8
0
6
CONTINUOUS
62
252
70
64
75
0
10
0.000000
20
0.000000
30
0.000000
0
VERTEX
8
0
6
CONTINUOUS
62
252
70
192
10
6.000000
20
30.500000
30
-25.000000
0
VERTEX
8
0
6
CONTINUOUS
62
252
70
192
10
6.000000
20
30.416443
30
-25.955065
0
VERTEX
8
0
6
CONTINUOUS
62
252
70
192
10
6.000000
20
30.168309
30
-26.881111
0
VERTEX
8
0
6
CONTINUOUS
62
252
70
192
10
6.000000
20
29.763140
30
-27.750000
0
VERTEX
8
0
6
CONTINUOUS
62
252
70
192
10
6.000000
20
29.213244
30
-28.535332
0
VERTEX
8
0
6
CONTINUOUS
62
252
70
192
10
6.000000
20
28.535332
30
-29.213244
0
VERTEX
8
0
6
CONTINUOUS
62
252
70
192
10
6.000000
20
27.750000
30
-29.763140
0
VERTEX
8
0
6
CONTINUOUS
62
252
70
192
10
6.000000
20
26.881111
30
-30.168309
0
VERTEX
8
0
6
CONTINUOUS
62
252
70
192
10
6.000000
20
25.955065
30
-30.416443
0
VERTEX
8
0
6
CONTINUOUS
62
252
70
192
10
6.000000
20
25.000000
30
-30.500000
0
VERTEX
8
0
6
CONTINUOUS
62
252
70
192
10
0.000000
20
25.000000
30
-30.500000
0
VERTEX
8
0
6
CONTINUOUS
62
252
70
192
10
0.000000
20
25.955065
30
-30.416443
0
VERTEX
8
0
6
CONTINUOUS
62
252
70
192
10
0.000000
20
26.881111
30
-30.168309
0
VERTEX
8
0
6
CONTINUOUS
62
252
70
192
10
0.000000
20
27.750000
30
-29.763140
0
VERTEX
8
0
6
CONTINUOUS
62
252
70
192
10
0.000000
20
28.535332
30
-29.213244
0
VERTEX
8
0
6
CONTINUOUS
62
252
70
192
10
0.000000
20
29.213244
30
-28.535332
0
VERTEX
8
0
6
CONTINUOUS
62
252
70
192
10
0.000000
20
29.763140
30
-27.750000
0
VERTEX
8
0
6
CONTINUOUS
62
252
70
192
10
0.000000
20
30.168309
30
-26.881111
0
VERTEX
8
0
6
CONTINUOUS
62
252
70
192
10
0.000000
20
30.416443
30
-25.955065
0
VERTEX
8
0
6
CONTINUOUS
62
252
70
192
10
0.000000
20
30.500000
30
-25.000000
0
VERTEX
8
0
6
CONTINUOUS
62
252
70
128
10
0.000000
20
0.000000
30
0.000000
71
20
72
1
73
19
0
VERTEX
8
0
6
CONTINUOUS
62
252
70
128
10
0.000000
20
0.000000
30
0.000000
71
19
72
1
73
2
0
VERTEX
8
0
6
CONTINUOUS
62
252
70
128
10
0.000000
20
0.000000
30
0.000000
71
19
72
2
73
18
0
VERTEX
8
0
6
CONTINUOUS
62
252
70
128
10
0.000000
20
0.000000
30
0.000000
71
18
72
2
73
3
0
VERTEX
8
0
6
CONTINUOUS
62
252
70
128
10
0.000000
20
0.000000
30
0.000000
71
18
72
3
73
17
0
VERTEX
8
0
6
CONTINUOUS
62
252
70
128
10
0.000000
20
0.000000
30
0.000000
71
17
72
3
73
4
0
VERTEX
8
0
6
CONTINUOUS
62
252
70
128
10
0.000000
20
0.000000
30
0.000000
71
17
72
4
73
16
0
VERTEX
8
0
6
CONTINUOUS
62
252
70
128
10
0.000000
20
0.000000
30
0.000000
71
16
72
4
73
5
0
VERTEX
8
0
6
CONTINUOUS
62
252
70
128
10
0.000000
20
0.000000
30
0.000000
71
16
72
5
73
15
0
VERTEX
8
0
6
CONTINUOUS
62
252
70
128
10
0.000000
20
0.000000
30
0.000000
71
15
72
5
73
6
0
VERTEX
8
0
6
CONTINUOUS
62
252
70
128
10
0.000000
20
0.000000
30
0.000000
71
15
72
6
73
14
0
VERTEX
8
0
6
CONTINUOUS
62
252
70
128
10
0.000000
20
0.000000
30
0.000000
71
14
72
6
73
7
0
VERTEX
8
0
6
CONTINUOUS
62
252
70
128
10
0.000000
20
0.000000
30
0.000000
71
14
72
7
73
13
0
VERTEX
8
0
6
CONTINUOUS
62
252
70
128
10
0.000000
20
0.000000
30
0.000000
71
13
72
7
73
8
0
VERTEX
8
0
6
CONTINUOUS
62
252
70
128
10
0.000000
20
0.000000
30
0.000000
71
13
72
8
73
12
0
VERTEX
8
0
6
CONTINUOUS
62
252
70
128
10
0.000000
20
0.000000
30
0.000000
71
12
72
8
73
9
0
VERTEX
8
0
6
CONTINUOUS
62
252
70
128
10
0.000000
20
0.000000
30
0.000000
71
12
72
9
73
11
0
VERTEX
8
0
6
CONTINUOUS
62
252
70
128
10
0.000000
20
0.000000
30
0.000000
71
11
72
9
73
10
0
SEQEND
0
POLYLINE
66
1
8
0
6
CONTINUOUS
62
252
70
64
75
0
10
0.000000
20
0.000000
30
0.000000
0
VERTEX
8
0
6
CONTINUOUS
62
252
70
192
10
6.000000
20
25.000000
30
-30.500000
0
VERTEX
8
0
6
CONTINUOUS
62
252
70
192
10
6.000000
20
-25.000000
30
-30.500000
0
VERTEX
8
0
6
CONTINUOUS
62
252
70
192
10
0.000000
20
-25.000000
30
-30.500000
0
VERTEX
8
0
6
CONTINUOUS
62
252
70
192
10
0.000000
20
25.000000
30
-30.500000
0
VERTEX
8
0
6
CONTINUOUS
62
252
70
128
10
0.000000
20
0.000000
30
0.000000
71
2
72
3
73
1
0
VERTEX
8
0
6
CONTINUOUS
62
252
70
128
10
0.000000
20
0.000000
30
0.000000
71
1
72
3
73
4
0
SEQEND
0
POLYLINE
66
1
8
0
6
CONTINUOUS
62
252
70
64
75
0
10
0.000000
20
0.000000
30
0.000000
0
VERTEX
8
0
6
CONTINUOUS
62
252
70
192
10
6.000000
20
-25.000000
30
-30.500000
0
VERTEX
8
0
6
CONTINUOUS
62
252
70
192
10
6.000000
20
-25.955065
30
-30.416443
0
VERTEX
8
0
6
CONTINUOUS
62
252
70
192
10
6.000000
20
-26.881111
30
-30.168309
0
VERTEX
8
0
6
CONTINUOUS
62
252
70
192
10
6.000000
20
-27.750000
30
-29.763140
0
VERTEX
8
0
6
CONTINUOUS
62
252
70
192
10
6.000000
20
-28.535332
30
-29.213244
0
VERTEX
8
0
6
CONTINUOUS
62
252
70
192
10
6.000000
20
-29.213244
30
-28.535332
0
VERTEX
8
0
6
CONTINUOUS
62
252
70
192
10
6.000000
20
-29.763140
30
-27.750000
0
VERTEX
8
0
6
CONTINUOUS
62
252
70
192
10
6.000000
20
-30.168309
30
-26.881111
0
VERTEX
8
0
6
CONTINUOUS
62
252
70
192
10
6.000000
20
-30.416443
30
-25.955065
0
VERTEX
8
0
6
CONTINUOUS
62
252
70
192
10
6.000000
20
-30.500000
30
-25.000000
0
VERTEX
8
0
6
CONTINUOUS
62
252
70
192
10
0.000000
20
-30.500000
30
-25.000000
0
VERTEX
8
0
6
CONTINUOUS
62
252
70
192
10
0.000000
20
-30.416443
30
-25.955065
0
VERTEX
8
0
6
CONTINUOUS
62
252
70
192
10
0.000000
20
-30.168309
30
-26.881111
0
VERTEX
8
0
6
CONTINUOUS
62
252
70
192
10
0.000000
20
-29.763140
30
-27.750000
0
VERTEX
8
0
6
CONTINUOUS
62
252
70
192
10
0.000000
20
-29.213244
30
-28.535332
0
VERTEX
8
0
6
CONTINUOUS
62
252
70
192
10
0.000000
20
-28.535332
30
-29.213244
0
VERTEX
8
0
6
CONTINUOUS
62
252
70
192
10
0.000000
20
-27.750000
30
-29.763140
0
VERTEX
8
0
6
CONTINUOUS
62
252
70
192
10
0.000000
20
-26.881111
30
-30.168309
0
VERTEX
8
0
6
CONTINUOUS
62
252
70
192
10
0.000000
20
-25.955065
30
-30.416443
0
VERTEX
8
0
6
CONTINUOUS
62
252
70
192
10
0.000000
20
-25.000000
30
-30.500000
0
VERTEX
8
0
6
CONTINUOUS
62
252
70
128
10
0.000000
20
0.000000
30
0.000000
71
20
72
1
73
19
0
VERTEX
8
0
6
CONTINUOUS
62
252
70
128
10
0.000000
20
0.000000
30
0.000000
71
19
72
1
73
2
0
VERTEX
8
0
6
CONTINUOUS
62
252
70
128
10
0.000000
20
0.000000
30
0.000000
71
19
72
2
73
18
0
VERTEX
8
0
6
CONTINUOUS
62
252
70
128
10
0.000000
20
0.000000
30
0.000000
71
18
72
2
73
3
0
VERTEX
8
0
6
CONTINUOUS
62
252
70
128
10
0.000000
20
0.000000
30
0.000000
71
18
72
3
73
17
0
VERTEX
8
0
6
CONTINUOUS
62
252
70
128
10
0.000000
20
0.000000
30
0.000000
71
17
72
3
73
4
0
VERTEX
8
0
6
CONTINUOUS
62
252
70
128
10
0.000000
20
0.000000
30
0.000000
71
17
72
4
73
5
0
VERTEX
8
0
6
CONTINUOUS
62
252
70
128
10
0.000000
20
0.000000
30
0.000000
71
17
72
5
73
16
0
VERTEX
8
0
6
CONTINUOUS
62
252
70
128
10
0.000000
20
0.000000
30
0.000000
71
16
72
5
73
6
0
VERTEX
8
0
6
CONTINUOUS
62
252
70
128
10
0.000000
20
0.000000
30
0.000000
71
16
72
6
73
15
0
VERTEX
8
0
6
CONTINUOUS
62
252
70
128
10
0.000000
20
0.000000
30
0.000000
71
15
72
6
73
7
0
VERTEX
8
0
6
CONTINUOUS
62
252
70
128
10
0.000000
20
0.000000
30
0.000000
71
15
72
7
73
14
0
VERTEX
8
0
6
CONTINUOUS
62
252
70
128
10
0.000000
20
0.000000
30
0.000000
71
14
72
7
73
8
0
VERTEX
8
0
6
CONTINUOUS
62
252
70
128
10
0.000000
20
0.000000
30
0.000000
71
14
72
8
73
13
0
VERTEX
8
0
6
CONTINUOUS
62
252
70
128
10
0.000000
20
0.000000
30
0.000000
71
13
72
8
73
9
0
VERTEX
8
0
6
CONTINUOUS
62
252
70
128
10
0.000000
20
0.000000
30
0.000000
71
13
72
9
73
12
0
VERTEX
8
0
6
CONTINUOUS
62
252
70
128
10
0.000000
20
0.000000
30
0.000000
71
12
72
9
73
10
0
VERTEX
8
0
6
CONTINUOUS
62
252
70
128
10
0.000000
20
0.000000
30
0.000000
71
12
72
10
73
11
0
SEQEND
0
POLYLINE
66
1
8
0
6
CONTINUOUS
62
252
70
64
75
0
10
0.000000
20
0.000000
30
0.000000
0
VERTEX
8
0
6
CONTINUOUS
62
252
70
192
10
6.000000
20
-30.500000
30
-25.000000
0
VERTEX
8
0
6
CONTINUOUS
62
252
70
192
10
6.000000
20
-30.500000
30
25.000000
0
VERTEX
8
0
6
CONTINUOUS
62
252
70
192
10
0.000000
20
-30.500000
30
25.000000
0
VERTEX
8
0
6
CONTINUOUS
62
252
70
192
10
0.000000
20
-30.500000
30
-25.000000
0
VERTEX
8
0
6
CONTINUOUS
62
252
70
128
10
0.000000
20
0.000000
30
0.000000
71
1
72
2
73
4
0
VERTEX
8
0
6
CONTINUOUS
62
252
70
128
10
0.000000
20
0.000000
30
0.000000
71
4
72
2
73
3
0
SEQEND
0
POLYLINE
66
1
8
0
6
CONTINUOUS
62
252
70
64
75
0
10
0.000000
20
0.000000
30
0.000000
0
VERTEX
8
0
6
CONTINUOUS
62
252
70
192
10
6.000000
20
-30.500000
30
25.000000
0
VERTEX
8
0
6
CONTINUOUS
62
252
70
192
10
6.000000
20
-30.416443
30
25.955065
0
VERTEX
8
0
6
CONTINUOUS
62
252
70
192
10
6.000000
20
-30.168309
30
26.881111
0
VERTEX
8
0
6
CONTINUOUS
62
252
70
192
10
6.000000
20
-29.763140
30
27.750000
0
VERTEX
8
0
6
CONTINUOUS
62
252
70
192
10
6.000000
20
-29.213244
30
28.535332
0
VERTEX
8
0
6
CONTINUOUS
62
252
70
192
10
6.000000
20
-28.535332
30
29.213244
0
VERTEX
8
0
6
CONTINUOUS
62
252
70
192
10
6.000000
20
-27.750000
30
29.763140
0
VERTEX
8
0
6
CONTINUOUS
62
252
70
192
10
6.000000
20
-26.881111
30
30.168309
0
VERTEX
8
0
6
CONTINUOUS
62
252
70
192
10
6.000000
20
-25.955065
30
30.416443
0
VERTEX
8
0
6
CONTINUOUS
62
252
70
192
10
6.000000
20
-25.000000
30
30.500000
0
VERTEX
8
0
6
CONTINUOUS
62
252
70
192
10
0.000000
20
-25.000000
30
30.500000
0
VERTEX
8
0
6
CONTINUOUS
62
252
70
192
10
0.000000
20
-25.955065
30
30.416443
0
VERTEX
8
0
6
CONTINUOUS
62
252
70
192
10
0.000000
20
-26.881111
30
30.168309
0
VERTEX
8
0
6
CONTINUOUS
62
252
70
192
10
0.000000
20
-27.750000
30
29.763140
0
VERTEX
8
0
6
CONTINUOUS
62
252
70
192
10
0.000000
20
-28.535332
30
29.213244
0
VERTEX
8
0
6
CONTINUOUS
62
252
70
192
10
0.000000
20
-29.213244
30
28.535332
0
VERTEX
8
0
6
CONTINUOUS
62
252
70
192
10
0.000000
20
-29.763140
30
27.750000
0
VERTEX
8
0
6
CONTINUOUS
62
252
70
192
10
0.000000
20
-30.168309
30
26.881111
0
VERTEX
8
0
6
CONTINUOUS
62
252
70
192
10
0.000000
20
-30.416443
30
25.955065
0
VERTEX
8
0
6
CONTINUOUS
62
252
70
192
10
0.000000
20
-30.500000
30
25.000000
0
VERTEX
8
0
6
CONTINUOUS
62
252
70
128
10
0.000000
20
0.000000
30
0.000000
71
1
72
2
73
20
0
VERTEX
8
0
6
CONTINUOUS
62
252
70
128
10
0.000000
20
0.000000
30
0.000000
71
20
72
2
73
19
0
VERTEX
8
0
6
CONTINUOUS
62
252
70
128
10
0.000000
20
0.000000
30
0.000000
71
19
72
2
73
3
0
VERTEX
8
0
6
CONTINUOUS
62
252
70
128
10
0.000000
20
0.000000
30
0.000000
71
19
72
3
73
18
0
VERTEX
8
0
6
CONTINUOUS
62
252
70
128
10
0.000000
20
0.000000
30
0.000000
71
18
72
3
73
4
0
VERTEX
8
0
6
CONTINUOUS
62
252
70
128
10
0.000000
20
0.000000
30
0.000000
71
18
72
4
73
17
0
VERTEX
8
0
6
CONTINUOUS
62
252
70
128
10
0.000000
20
0.000000
30
0.000000
71
17
72
4
73
16
0
VERTEX
8
0
6
CONTINUOUS
62
252
70
128
10
0.000000
20
0.000000
30
0.000000
71
16
72
4
73
5
0
VERTEX
8
0
6
CONTINUOUS
62
252
70
128
10
0.000000
20
0.000000
30
0.000000
71
16
72
5
73
6
0
VERTEX
8
0
6
CONTINUOUS
62
252
70
128
10
0.000000
20
0.000000
30
0.000000
71
16
72
6
73
15
0
VERTEX
8
0
6
CONTINUOUS
62
252
70
128
10
0.000000
20
0.000000
30
0.000000
71
15
72
6
73
7
0
VERTEX
8
0
6
CONTINUOUS
62
252
70
128
10
0.000000
20
0.000000
30
0.000000
71
15
72
7
73
14
0
VERTEX
8
0
6
CONTINUOUS
62
252
70
128
10
0.000000
20
0.000000
30
0.000000
71
14
72
7
73
8
0
VERTEX
8
0
6
CONTINUOUS
62
252
70
128
10
0.000000
20
0.000000
30
0.000000
71
14
72
8
73
13
0
VERTEX
8
0
6
CONTINUOUS
62
252
70
128
10
0.000000
20
0.000000
30
0.000000
71
13
72
8
73
9
0
VERTEX
8
0
6
CONTINUOUS
62
252
70
128
10
0.000000
20
0.000000
30
0.000000
71
13
72
9
73
12
0
VERTEX
8
0
6
CONTINUOUS
62
252
70
128
10
0.000000
20
0.000000
30
0.000000
71
12
72
9
73
10
0
VERTEX
8
0
6
CONTINUOUS
62
252
70
128
10
0.000000
20
0.000000
30
0.000000
71
12
72
10
73
11
0
SEQEND
0
POLYLINE
66
1
8
0
6
CONTINUOUS
62
252
70
64
75
0
10
0.000000
20
0.000000
30
0.000000
0
VERTEX
8
0
6
CONTINUOUS
62
252
70
192
10
-0.000000
20
0.000000
30
24.000000
0
VERTEX
8
0
6
CONTINUOUS
62
252
70
192
10
-0.000000
20
-4.167556
30
23.635386
0
VERTEX
8
0
6
CONTINUOUS
62
252
70
192
10
-0.000000
20
-8.208483
30
22.552623
0
VERTEX
8
0
6
CONTINUOUS
62
252
70
192
10
-0.000000
20
-12.000000
30
20.784610
0
VERTEX
8
0
6
CONTINUOUS
62
252
70
192
10
-0.000000
20
-15.426903
30
18.385067
0
VERTEX
8
0
6
CONTINUOUS
62
252
70
192
10
-0.000000
20
-18.385067
30
15.426903
0
VERTEX
8
0
6
CONTINUOUS
62
252
70
192
10
-0.000000
20
-20.784610
30
12.000000
0
VERTEX
8
0
6
CONTINUOUS
62
252
70
192
10
-0.000000
20
-22.552623
30
8.208483
0
VERTEX
8
0
6
CONTINUOUS
62
252
70
192
10
-0.000000
20
-23.635386
30
4.167556
0
VERTEX
8
0
6
CONTINUOUS
62
252
70
192
10
-0.000000
20
-24.000000
30
0.000000
0
VERTEX
8
0
6
CONTINUOUS
62
252
70
192
10
0.000000
20
-23.635386
30
-4.167556
0
VERTEX
8
0
6
CONTINUOUS
62
252
70
192
10
0.000000
20
-22.552623
30
-8.208483
0
VERTEX
8
0
6
CONTINUOUS
62
252
70
192
10
0.000000
20
-20.784610
30
-12.000000
0
VERTEX
8
0
6
CONTINUOUS
62
252
70
192
10
0.000000
20
-18.385067
30
-15.426903
0
VERTEX
8
0
6
CONTINUOUS
62
252
70
192
10
0.000000
20
-15.426903
30
-18.385067
0
VERTEX
8
0
6
CONTINUOUS
62
252
70
192
10
0.000000
20
-12.000000
30
-20.784610
0
VERTEX
8
0
6
CONTINUOUS
62
252
70
192
10
0.000000
20
-8.208483
30
-22.552623
0
VERTEX
8
0
6
CONTINUOUS
62
252
70
192
10
0.000000
20
-4.167556
30
-23.635386
0
VERTEX
8
0
6
CONTINUOUS
62
252
70
192
10
0.000000
20
-0.000000
30
-24.000000
0
VERTEX
8
0
6
CONTINUOUS
62
252
70
192
10
0.000000
20
4.167556
30
-23.635386
0
VERTEX
8
0
6
CONTINUOUS
62
252
70
192
10
0.000000
20
8.208483
30
-22.552623
0
VERTEX
8
0
6
CONTINUOUS
62
252
70
192
10
0.000000
20
12.000000
30
-20.784610
0
VERTEX
8
0
6
CONTINUOUS
62
252
70
192
10
0.000000
20
15.426903
30
-18.385067
0
VERTEX
8
0
6
CONTINUOUS
62
252
70
192
10
0.000000
20
18.385067
30
-15.426903
0
VERTEX
8
0
6
CONTINUOUS
62
252
70
192
10
0.000000
20
20.784610
30
-12.000000
0
VERTEX
8
0
6
CONTINUOUS
62
252
70
192
10
0.000000
20
22.552623
30
-8.208483
0
VERTEX
8
0
6
CONTINUOUS
62
252
70
192
10
0.000000
20
23.635386
30
-4.167556
0
VERTEX
8
0
6
CONTINUOUS
62
252
70
192
10
0.000000
20
24.000000
30
-0.000000
0
VERTEX
8
0
6
CONTINUOUS
62
252
70
192
10
-0.000000
20
23.635386
30
4.167556
0
VERTEX
8
0
6
CONTINUOUS
62
252
70
192
10
-0.000000
20
22.552623
30
8.208483
0
VERTEX
8
0
6
CONTINUOUS
62
252
70
192
10
-0.000000
20
20.784610
30
12.000000
0
VERTEX
8
0
6
CONTINUOUS
62
252
70
192
10
-0.000000
20
18.385067
30
15.426903
0
VERTEX
8
0
6
CONTINUOUS
62
252
70
192
10
-0.000000
20
15.426903
30
18.385067
0
VERTEX
8
0
6
CONTINUOUS
62
252
70
192
10
-0.000000
20
12.000000
30
20.784610
0
VERTEX
8
0
6
CONTINUOUS
62
252
70
192
10
-0.000000
20
8.208483
30
22.552623
0
VERTEX
8
0
6
CONTINUOUS
62
252
70
192
10
-0.000000
20
4.167556
30
23.635386
0
VERTEX
8
0
6
CONTINUOUS
62
252
70
192
10
-2.000000
20
0.000000
30
24.000000
0
VERTEX
8
0
6
CONTINUOUS
62
252
70
192
10
-2.000000
20
4.167556
30
23.635386
0
VERTEX
8
0
6
CONTINUOUS
62
252
70
192
10
-2.000000
20
8.208483
30
22.552623
0
VERTEX
8
0
6
CONTINUOUS
62
252
70
192
10
-2.000000
20
12.000000
30
20.784610
0
VERTEX
8
0
6
CONTINUOUS
62
252
70
192
10
-2.000000
20
15.426903
30
18.385067
0
VERTEX
8
0
6
CONTINUOUS
62
252
70
192
10
-2.000000
20
18.385067
30
15.426903
0
VERTEX
8
0
6
CONTINUOUS
62
252
70
192
10
-2.000000
20
20.784610
30
12.000000
0
VERTEX
8
0
6
CONTINUOUS
62
252
70
192
10
-2.000000
20
22.552623
30
8.208483
0
VERTEX
8
0
6
CONTINUOUS
62
252
70
192
10
-2.000000
20
23.635386
30
4.167556
0
VERTEX
8
0
6
CONTINUOUS
62
252
70
192
10
-2.000000
20
24.000000
30
-0.000000
0
VERTEX
8
0
6
CONTINUOUS
62
252
70
192
10
-2.000000
20
23.635386
30
-4.167556
0
VERTEX
8
0
6
CONTINUOUS
62
252
70
192
10
-2.000000
20
22.552623
30
-8.208483
0
VERTEX
8
0
6
CONTINUOUS
62
252
70
192
10
-2.000000
20
20.784610
30
-12.000000
0
VERTEX
8
0
6
CONTINUOUS
62
252
70
192
10
-2.000000
20
18.385067
30
-15.426903
0
VERTEX
8
0
6
CONTINUOUS
62
252
70
192
10
-2.000000
20
15.426903
30
-18.385067
0
VERTEX
8
0
6
CONTINUOUS
62
252
70
192
10
-2.000000
20
12.000000
30
-20.784610
0
VERTEX
8
0
6
CONTINUOUS
62
252
70
192
10
-2.000000
20
8.208483
30
-22.552623
0
VERTEX
8
0
6
CONTINUOUS
62
252
70
192
10
-2.000000
20
4.167556
30
-23.635386
0
VERTEX
8
0
6
CONTINUOUS
62
252
70
192
10
-2.000000
20
-0.000000
30
-24.000000
0
VERTEX
8
0
6
CONTINUOUS
62
252
70
192
10
-2.000000
20
-4.167556
30
-23.635386
0
VERTEX
8
0
6
CONTINUOUS
62
252
70
192
10
-2.000000
20
-8.208483
30
-22.552623
0
VERTEX
8
0
6
CONTINUOUS
62
252
70
192
10
-2.000000
20
-12.000000
30
-20.784610
0
VERTEX
8
0
6
CONTINUOUS
62
252
70
192
10
-2.000000
20
-15.426903
30
-18.385067
0
VERTEX
8
0
6
CONTINUOUS
62
252
70
192
10
-2.000000
20
-18.385067
30
-15.426903
0
VERTEX
8
0
6
CONTINUOUS
62
252
70
192
10
-2.000000
20
-20.784610
30
-12.000000
0
VERTEX
8
0
6
CONTINUOUS
62
252
70
192
10
-2.000000
20
-22.552623
30
-8.208483
0
VERTEX
8
0
6
CONTINUOUS
62
252
70
192
10
-2.000000
20
-23.635386
30
-4.167556
0
VERTEX
8
0
6
CONTINUOUS
62
252
70
192
10
-2.000000
20
-24.000000
30
0.000000
0
VERTEX
8
0
6
CONTINUOUS
62
252
70
192
10
-2.000000
20
-23.635386
30
4.167556
0
VERTEX
8
0
6
CONTINUOUS
62
252
70
192
10
-2.000000
20
-22.552623
30
8.208483
0
VERTEX
8
0
6
CONTINUOUS
62
252
70
192
10
-2.000000
20
-20.784610
30
12.000000
0
VERTEX
8
0
6
CONTINUOUS
62
252
70
192
10
-2.000000
20
-18.385067
30
15.426903
0
VERTEX
8
0
6
CONTINUOUS
62
252
70
192
10
-2.000000
20
-15.426903
30
18.385067
0
VERTEX
8
0
6
CONTINUOUS
62
252
70
192
10
-2.000000
20
-12.000000
30
20.784610
0
VERTEX
8
0
6
CONTINUOUS
62
252
70
192
10
-2.000000
20
-8.208483
30
22.552623
0
VERTEX
8
0
6
CONTINUOUS
62
252
70
192
10
-2.000000
20
-4.167556
30
23.635386
0
VERTEX
8
0
6
CONTINUOUS
62
252
70
128
10
0.000000
20
0.000000
30
0.000000
71
2
72
72
73
1
0
VERTEX
8
0
6
CONTINUOUS
62
252
70
128
10
0.000000
20
0.000000
30
0.000000
71
1
72
72
73
37
0
VERTEX
8
0
6
CONTINUOUS
62
252
70
128
10
0.000000
20
0.000000
30
0.000000
71
1
72
37
73
36
0
VERTEX
8
0
6
CONTINUOUS
62
252
70
128
10
0.000000
20
0.000000
30
0.000000
71
36
72
37
73
38
0
VERTEX
8
0
6
CONTINUOUS
62
252
70
128
10
0.000000
20
0.000000
30
0.000000
71
36
72
38
73
35
0
VERTEX
8
0
6
CONTINUOUS
62
252
70
128
10
0.000000
20
0.000000
30
0.000000
71
35
72
38
73
39
0
VERTEX
8
0
6
CONTINUOUS
62
252
70
128
10
0.000000
20
0.000000
30
0.000000
71
35
72
39
73
34
0
VERTEX
8
0
6
CONTINUOUS
62
252
70
128
10
0.000000
20
0.000000
30
0.000000
71
34
72
39
73
40
0
VERTEX
8
0
6
CONTINUOUS
62
252
70
128
10
0.000000
20
0.000000
30
0.000000
71
34
72
40
73
33
0
VERTEX
8
0
6
CONTINUOUS
62
252
70
128
10
0.000000
20
0.000000
30
0.000000
71
33
72
40
73
41
0
VERTEX
8
0
6
CONTINUOUS
62
252
70
128
10
0.000000
20
0.000000
30
0.000000
71
33
72
41
73
32
0
VERTEX
8
0
6
CONTINUOUS
62
252
70
128
10
0.000000
20
0.000000
30
0.000000
71
32
72
41
73
42
0
VERTEX
8
0
6
CONTINUOUS
62
252
70
128
10
0.000000
20
0.000000
30
0.000000
71
32
72
42
73
31
0
VERTEX
8
0
6
CONTINUOUS
62
252
70
128
10
0.000000
20
0.000000
30
0.000000
71
31
72
42
73
43
0
VERTEX
8
0
6
CONTINUOUS
62
252
70
128
10
0.000000
20
0.000000
30
0.000000
71
31
72
43
73
30
0
VERTEX
8
0
6
CONTINUOUS
62
252
70
128
10
0.000000
20
0.000000
30
0.000000
71
30
72
43
73
44
0
VERTEX
8
0
6
CONTINUOUS
62
252
70
128
10
0.000000
20
0.000000
30
0.000000
71
30
72
44
73
29
0
VERTEX
8
0
6
CONTINUOUS
62
252
70
128
10
0.000000
20
0.000000
30
0.000000
71
29
72
44
73
45
0
VERTEX
8
0
6
CONTINUOUS
62
252
70
128
10
0.000000
20
0.000000
30
0.000000
71
29
72
45
73
28
0
VERTEX
8
0
6
CONTINUOUS
62
252
70
128
10
0.000000
20
0.000000
30
0.000000
71
28
72
45
73
46
0
VERTEX
8
0
6
CONTINUOUS
62
252
70
128
10
0.000000
20
0.000000
30
0.000000
71
28
72
46
73
27
0
VERTEX
8
0
6
CONTINUOUS
62
252
70
128
10
0.000000
20
0.000000
30
0.000000
71
27
72
46
73
47
0
VERTEX
8
0
6
CONTINUOUS
62
252
70
128
10
0.000000
20
0.000000
30
0.000000
71
27
72
47
73
26
0
VERTEX
8
0
6
CONTINUOUS
62
252
70
128
10
0.000000
20
0.000000
30
0.000000
71
26
72
47
73
48
0
VERTEX
8
0
6
CONTINUOUS
62
252
70
128
10
0.000000
20
0.000000
30
0.000000
71
26
72
48
73
25
0
VERTEX
8
0
6
CONTINUOUS
62
252
70
128
10
0.000000
20
0.000000
30
0.000000
71
25
72
48
73
49
0
VERTEX
8
0
6
CONTINUOUS
62
252
70
128
10
0.000000
20
0.000000
30
0.000000
71
25
72
49
73
24
0
VERTEX
8
0
6
CONTINUOUS
62
252
70
128
10
0.000000
20
0.000000
30
0.000000
71
24
72
49
73
50
0
VERTEX
8
0
6
CONTINUOUS
62
252
70
128
10
0.000000
20
0.000000
30
0.000000
71
24
72
50
73
23
0
VERTEX
8
0
6
CONTINUOUS
62
252
70
128
10
0.000000
20
0.000000
30
0.000000
71
23
72
50
73
51
0
VERTEX
8
0
6
CONTINUOUS
62
252
70
128
10
0.000000
20
0.000000
30
0.000000
71
23
72
51
73
22
0
VERTEX
8
0
6
CONTINUOUS
62
252
70
128
10
0.000000
20
0.000000
30
0.000000
71
22
72
51
73
52
0
VERTEX
8
0
6
CONTINUOUS
62
252
70
128
10
0.000000
20
0.000000
30
0.000000
71
22
72
52
73
21
0
VERTEX
8
0
6
CONTINUOUS
62
252
70
128
10
0.000000
20
0.000000
30
0.000000
71
21
72
52
73
53
0
VERTEX
8
0
6
CONTINUOUS
62
252
70
128
10
0.000000
20
0.000000
30
0.000000
71
21
72
53
73
20
0
VERTEX
8
0
6
CONTINUOUS
62
252
70
128
10
0.000000
20
0.000000
30
0.000000
71
20
72
53
73
54
0
VERTEX
8
0
6
CONTINUOUS
62
252
70
128
10
0.000000
20
0.000000
30
0.000000
71
20
72
54
73
19
0
VERTEX
8
0
6
CONTINUOUS
62
252
70
128
10
0.000000
20
0.000000
30
0.000000
71
19
72
54
73
55
0
VERTEX
8
0
6
CONTINUOUS
62
252
70
128
10
0.000000
20
0.000000
30
0.000000
71
19
72
55
73
18
0
VERTEX
8
0
6
CONTINUOUS
62
252
70
128
10
0.000000
20
0.000000
30
0.000000
71
18
72
55
73
56
0
VERTEX
8
0
6
CONTINUOUS
62
252
70
128
10
0.000000
20
0.000000
30
0.000000
71
18
72
56
73
17
0
VERTEX
8
0
6
CONTINUOUS
62
252
70
128
10
0.000000
20
0.000000
30
0.000000
71
17
72
56
73
57
0
VERTEX
8
0
6
CONTINUOUS
62
252
70
128
10
0.000000
20
0.000000
30
0.000000
71
17
72
57
73
16
0
VERTEX
8
0
6
CONTINUOUS
62
252
70
128
10
0.000000
20
0.000000
30
0.000000
71
16
72
57
73
58
0
VERTEX
8
0
6
CONTINUOUS
62
252
70
128
10
0.000000
20
0.000000
30
0.000000
71
16
72
58
73
15
0
VERTEX
8
0
6
CONTINUOUS
62
252
70
128
10
0.000000
20
0.000000
30
0.000000
71
15
72
58
73
59
0
VERTEX
8
0
6
CONTINUOUS
62
252
70
128
10
0.000000
20
0.000000
30
0.000000
71
15
72
59
73
14
0
VERTEX
8
0
6
CONTINUOUS
62
252
70
128
10
0.000000
20
0.000000
30
0.000000
71
14
72
59
73
60
0
VERTEX
8
0
6
CONTINUOUS
62
252
70
128
10
0.000000
20
0.000000
30
0.000000
71
14
72
60
73
13
0
VERTEX
8
0
6
CONTINUOUS
62
252
70
128
10
0.000000
20
0.000000
30
0.000000
71
13
72
60
73
61
0
VERTEX
8
0
6
CONTINUOUS
62
252
70
128
10
0.000000
20
0.000000
30
0.000000
71
13
72
61
73
12
0
VERTEX
8
0
6
CONTINUOUS
62
252
70
128
10
0.000000
20
0.000000
30
0.000000
71
12
72
61
73
62
0
VERTEX
8
0
6
CONTINUOUS
62
252
70
128
10
0.000000
20
0.000000
30
0.000000
71
12
72
62
73
11
0
VERTEX
8
0
6
CONTINUOUS
62
252
70
128
10
0.000000
20
0.000000
30
0.000000
71
11
72
62
73
63
0
VERTEX
8
0
6
CONTINUOUS
62
252
70
128
10
0.000000
20
0.000000
30
0.000000
71
11
72
63
73
10
0
VERTEX
8
0
6
CONTINUOUS
62
252
70
128
10
0.000000
20
0.000000
30
0.000000
71
10
72
63
73
64
0
VERTEX
8
0
6
CONTINUOUS
62
252
70
128
10
0.000000
20
0.000000
30
0.000000
71
10
72
64
73
9
0
VERTEX
8
0
6
CONTINUOUS
62
252
70
128
10
0.000000
20
0.000000
30
0.000000
71
9
72
64
73
65
0
VERTEX
8
0
6
CONTINUOUS
62
252
70
128
10
0.000000
20
0.000000
30
0.000000
71
9
72
65
73
8
0
VERTEX
8
0
6
CONTINUOUS
62
252
70
128
10
0.000000
20
0.000000
30
0.000000
71
8
72
65
73
66
0
VERTEX
8
0
6
CONTINUOUS
62
252
70
128
10
0.000000
20
0.000000
30
0.000000
71
8
72
66
73
7
0
VERTEX
8
0
6
CONTINUOUS
62
252
70
128
10
0.000000
20
0.000000
30
0.000000
71
7
72
66
73
67
0
VERTEX
8
0
6
CONTINUOUS
62
252
70
128
10
0.000000
20
0.000000
30
0.000000
71
7
72
67
73
6
0
VERTEX
8
0
6
CONTINUOUS
62
252
70
128
10
0.000000
20
0.000000
30
0.000000
71
6
72
67
73
68
0
VERTEX
8
0
6
CONTINUOUS
62
252
70
128
10
0.000000
20
0.000000
30
0.000000
71
6
72
68
73
5
0
VERTEX
8
0
6
CONTINUOUS
62
252
70
128
10
0.000000
20
0.000000
30
0.000000
71
5
72
68
73
69
0
VERTEX
8
0
6
CONTINUOUS
62
252
70
128
10
0.000000
20
0.000000
30
0.000000
71
5
72
69
73
4
0
VERTEX
8
0
6
CONTINUOUS
62
252
70
128
10
0.000000
20
0.000000
30
0.000000
71
4
72
69
73
70
0
VERTEX
8
0
6
CONTINUOUS
62
252
70
128
10
0.000000
20
0.000000
30
0.000000
71
4
72
70
73
3
0
VERTEX
8
0
6
CONTINUOUS
62
252
70
128
10
0.000000
20
0.000000
30
0.000000
71
3
72
70
73
71
0
VERTEX
8
0
6
CONTINUOUS
62
252
70
128
10
0.000000
20
0.000000
30
0.000000
71
3
72
71
73
2
0
VERTEX
8
0
6
CONTINUOUS
62
252
70
128
10
0.000000
20
0.000000
30
0.000000
71
2
72
71
73
72
0
SEQEND
0
POLYLINE
66
1
8
0
6
CONTINUOUS
62
252
70
64
75
0
10
0.000000
20
0.000000
30
0.000000
0
VERTEX
8
0
6
CONTINUOUS
62
252
70
192
10
-0.000000
20
0.000000
30
24.000000
0
VERTEX
8
0
6
CONTINUOUS
62
252
70
192
10
-0.000000
20
4.167556
30
23.635386
0
VERTEX
8
0
6
CONTINUOUS
62
252
70
192
10
-0.000000
20
8.208483
30
22.552623
0
VERTEX
8
0
6
CONTINUOUS
62
252
70
192
10
-0.000000
20
12.000000
30
20.784610
0
VERTEX
8
0
6
CONTINUOUS
62
252
70
192
10
-0.000000
20
15.426903
30
18.385067
0
VERTEX
8
0
6
CONTINUOUS
62
252
70
192
10
-0.000000
20
18.385067
30
15.426903
0
VERTEX
8
0
6
CONTINUOUS
62
252
70
192
10
-0.000000
20
20.784610
30
12.000000
0
VERTEX
8
0
6
CONTINUOUS
62
252
70
192
10
-0.000000
20
22.552623
30
8.208483
0
VERTEX
8
0
6
CONTINUOUS
62
252
70
192
10
-0.000000
20
23.635386
30
4.167556
0
VERTEX
8
0
6
CONTINUOUS
62
252
70
192
10
0.000000
20
24.000000
30
-0.000000
0
VERTEX
8
0
6
CONTINUOUS
62
252
70
192
10
0.000000
20
23.635386
30
-4.167556
0
VERTEX
8
0
6
CONTINUOUS
62
252
70
192
10
0.000000
20
22.552623
30
-8.208483
0
VERTEX
8
0
6
CONTINUOUS
62
252
70
192
10
0.000000
20
20.784610
30
-12.000000
0
VERTEX
8
0
6
CONTINUOUS
62
252
70
192
10
0.000000
20
18.385067
30
-15.426903
0
VERTEX
8
0
6
CONTINUOUS
62
252
70
192
10
0.000000
20
15.426903
30
-18.385067
0
VERTEX
8
0
6
CONTINUOUS
62
252
70
192
10
0.000000
20
12.000000
30
-20.784610
0
VERTEX
8
0
6
CONTINUOUS
62
252
70
192
10
0.000000
20
8.208483
30
-22.552623
0
VERTEX
8
0
6
CONTINUOUS
62
252
70
192
10
0.000000
20
4.167556
30
-23.635386
0
VERTEX
8
0
6
CONTINUOUS
62
252
70
192
10
0.000000
20
-0.000000
30
-24.000000
0
VERTEX
8
0
6
CONTINUOUS
62
252
70
192
10
0.000000
20
-4.167556
30
-23.635386
0
VERTEX
8
0
6
CONTINUOUS
62
252
70
192
10
0.000000
20
-8.208483
30
-22.552623
0
VERTEX
8
0
6
CONTINUOUS
62
252
70
192
10
0.000000
20
-12.000000
30
-20.784610
0
VERTEX
8
0
6
CONTINUOUS
62
252
70
192
10
0.000000
20
-15.426903
30
-18.385067
0
VERTEX
8
0
6
CONTINUOUS
62
252
70
192
10
0.000000
20
-18.385067
30
-15.426903
0
VERTEX
8
0
6
CONTINUOUS
62
252
70
192
10
0.000000
20
-20.784610
30
-12.000000
0
VERTEX
8
0
6
CONTINUOUS
62
252
70
192
10
0.000000
20
-22.552623
30
-8.208483
0
VERTEX
8
0
6
CONTINUOUS
62
252
70
192
10
0.000000
20
-23.635386
30
-4.167556
0
VERTEX
8
0
6
CONTINUOUS
62
252
70
192
10
-0.000000
20
-24.000000
30
0.000000
0
VERTEX
8
0
6
CONTINUOUS
62
252
70
192
10
-0.000000
20
-23.635386
30
4.167556
0
VERTEX
8
0
6
CONTINUOUS
62
252
70
192
10
-0.000000
20
-22.552623
30
8.208483
0
VERTEX
8
0
6
CONTINUOUS
62
252
70
192
10
-0.000000
20
-20.784610
30
12.000000
0
VERTEX
8
0
6
CONTINUOUS
62
252
70
192
10
-0.000000
20
-18.385067
30
15.426903
0
VERTEX
8
0
6
CONTINUOUS
62
252
70
192
10
-0.000000
20
-15.426903
30
18.385067
0
VERTEX
8
0
6
CONTINUOUS
62
252
70
192
10
-0.000000
20
-12.000000
30
20.784610
0
VERTEX
8
0
6
CONTINUOUS
62
252
70
192
10
-0.000000
20
-8.208483
30
22.552623
0
VERTEX
8
0
6
CONTINUOUS
62
252
70
192
10
-0.000000
20
-4.167556
30
23.635386
0
VERTEX
8
0
6
CONTINUOUS
62
252
70
128
10
0.000000
20
0.000000
30
0.000000
71
2
72
18
73
1
0
VERTEX
8
0
6
CONTINUOUS
62
252
70
128
10
0.000000
20
0.000000
30
0.000000
71
1
72
18
73
19
0
VERTEX
8
0
6
CONTINUOUS
62
252
70
128
10
0.000000
20
0.000000
30
0.000000
71
1
72
19
73
36
0
VERTEX
8
0
6
CONTINUOUS
62
252
70
128
10
0.000000
20
0.000000
30
0.000000
71
36
72
19
73
35
0
VERTEX
8
0
6
CONTINUOUS
62
252
70
128
10
0.000000
20
0.000000
30
0.000000
71
35
72
19
73
20
0
VERTEX
8
0
6
CONTINUOUS
62
252
70
128
10
0.000000
20
0.000000
30
0.000000
71
35
72
20
73
21
0
VERTEX
8
0
6
CONTINUOUS
62
252
70
128
10
0.000000
20
0.000000
30
0.000000
71
18
72
2
73
17
0
VERTEX
8
0
6
CONTINUOUS
62
252
70
128
10
0.000000
20
0.000000
30
0.000000
71
17
72
2
73
3
0
VERTEX
8
0
6
CONTINUOUS
62
252
70
128
10
0.000000
20
0.000000
30
0.000000
71
17
72
3
73
4
0
VERTEX
8
0
6
CONTINUOUS
62
252
70
128
10
0.000000
20
0.000000
30
0.000000
71
17
72
4
73
16
0
VERTEX
8
0
6
CONTINUOUS
62
252
70
128
10
0.000000
20
0.000000
30
0.000000
71
16
72
4
73
5
0
VERTEX
8
0
6
CONTINUOUS
62
252
70
128
10
0.000000
20
0.000000
30
0.000000
71
16
72
5
73
15
0
VERTEX
8
0
6
CONTINUOUS
62
252
70
128
10
0.000000
20
0.000000
30
0.000000
71
15
72
5
73
14
0
VERTEX
8
0
6
CONTINUOUS
62
252
70
128
10
0.000000
20
0.000000
30
0.000000
71
14
72
5
73
13
0
VERTEX
8
0
6
CONTINUOUS
62
252
70
128
10
0.000000
20
0.000000
30
0.000000
71
13
72
5
73
6
0
VERTEX
8
0
6
CONTINUOUS
62
252
70
128
10
0.000000
20
0.000000
30
0.000000
71
13
72
6
73
7
0
VERTEX
8
0
6
CONTINUOUS
62
252
70
128
10
0.000000
20
0.000000
30
0.000000
71
8
72
11
73
7
0
VERTEX
8
0
6
CONTINUOUS
62
252
70
128
10
0.000000
20
0.000000
30
0.000000
71
7
72
11
73
12
0
VERTEX
8
0
6
CONTINUOUS
62
252
70
128
10
0.000000
20
0.000000
30
0.000000
71
7
72
12
73
13
0
VERTEX
8
0
6
CONTINUOUS
62
252
70
128
10
0.000000
20
0.000000
30
0.000000
71
8
72
9
73
11
0
VERTEX
8
0
6
CONTINUOUS
62
252
70
128
10
0.000000
20
0.000000
30
0.000000
71
11
72
9
73
10
0
VERTEX
8
0
6
CONTINUOUS
62
252
70
128
10
0.000000
20
0.000000
30
0.000000
71
21
72
22
73
35
0
VERTEX
8
0
6
CONTINUOUS
62
252
70
128
10
0.000000
20
0.000000
30
0.000000
71
35
72
22
73
34
0
VERTEX
8
0
6
CONTINUOUS
62
252
70
128
10
0.000000
20
0.000000
30
0.000000
71
34
72
22
73
33
0
VERTEX
8
0
6
CONTINUOUS
62
252
70
128
10
0.000000
20
0.000000
30
0.000000
71
33
72
22
73
32
0
VERTEX
8
0
6
CONTINUOUS
62
252
70
128
10
0.000000
20
0.000000
30
0.000000
71
32
72
22
73
23
0
VERTEX
8
0
6
CONTINUOUS
62
252
70
128
10
0.000000
20
0.000000
30
0.000000
71
32
72
23
73
24
0
VERTEX
8
0
6
CONTINUOUS
62
252
70
128
10
0.000000
20
0.000000
30
0.000000
71
24
72
25
73
32
0
VERTEX
8
0
6
CONTINUOUS
62
252
70
128
10
0.000000
20
0.000000
30
0.000000
71
32
72
25
73
31
0
VERTEX
8
0
6
CONTINUOUS
62
252
70
128
10
0.000000
20
0.000000
30
0.000000
71
31
72
25
73
30
0
VERTEX
8
0
6
CONTINUOUS
62
252
70
128
10
0.000000
20
0.000000
30
0.000000
71
30
72
25
73
29
0
VERTEX
8
0
6
CONTINUOUS
62
252
70
128
10
0.000000
20
0.000000
30
0.000000
71
29
72
25
73
26
0
VERTEX
8
0
6
CONTINUOUS
62
252
70
128
10
0.000000
20
0.000000
30
0.000000
71
29
72
26
73
27
0
VERTEX
8
0
6
CONTINUOUS
62
252
70
128
10
0.000000
20
0.000000
30
0.000000
71
27
72
28
73
29
0
SEQEND
0
POLYLINE
66
1
8
0
6
CONTINUOUS
62
252
70
64
75
0
10
0.000000
20
0.000000
30
0.000000
0
VERTEX
8
0
6
CONTINUOUS
62
252
70
192
10
-2.000000
20
0.000000
30
24.000000
0
VERTEX
8
0
6
CONTINUOUS
62
252
70
192
10
-2.000000
20
-4.167556
30
23.635386
0
VERTEX
8
0
6
CONTINUOUS
62
252
70
192
10
-2.000000
20
-8.208483
30
22.552623
0
VERTEX
8
0
6
CONTINUOUS
62
252
70
192
10
-2.000000
20
-12.000000
30
20.784610
0
VERTEX
8
0
6
CONTINUOUS
62
252
70
192
10
-2.000000
20
-15.426903
30
18.385067
0
VERTEX
8
0
6
CONTINUOUS
62
252
70
192
10
-2.000000
20
-18.385067
30
15.426903
0
VERTEX
8
0
6
CONTINUOUS
62
252
70
192
10
-2.000000
20
-20.784610
30
12.000000
0
VERTEX
8
0
6
CONTINUOUS
62
252
70
192
10
-2.000000
20
-22.552623
30
8.208483
0
VERTEX
8
0
6
CONTINUOUS
62
252
70
192
10
-2.000000
20
-23.635386
30
4.167556
0
VERTEX
8
0
6
CONTINUOUS
62
252
70
192
10
-2.000000
20
-24.000000
30
0.000000
0
VERTEX
8
0
6
CONTINUOUS
62
252
70
192
10
-2.000000
20
-23.635386
30
-4.167556
0
VERTEX
8
0
6
CONTINUOUS
62
252
70
192
10
-2.000000
20
-22.552623
30
-8.208483
0
VERTEX
8
0
6
CONTINUOUS
62
252
70
192
10
-2.000000
20
-20.784610
30
-12.000000
0
VERTEX
8
0
6
CONTINUOUS
62
252
70
192
10
-2.000000
20
-18.385067
30
-15.426903
0
VERTEX
8
0
6
CONTINUOUS
62
252
70
192
10
-2.000000
20
-15.426903
30
-18.385067
0
VERTEX
8
0
6
CONTINUOUS
62
252
70
192
10
-2.000000
20
-12.000000
30
-20.784610
0
VERTEX
8
0
6
CONTINUOUS
62
252
70
192
10
-2.000000
20
-8.208483
30
-22.552623
0
VERTEX
8
0
6
CONTINUOUS
62
252
70
192
10
-2.000000
20
-4.167556
30
-23.635386
0
VERTEX
8
0
6
CONTINUOUS
62
252
70
192
10
-2.000000
20
-0.000000
30
-24.000000
0
VERTEX
8
0
6
CONTINUOUS
62
252
70
192
10
-2.000000
20
4.167556
30
-23.635386
0
VERTEX
8
0
6
CONTINUOUS
62
252
70
192
10
-2.000000
20
8.208483
30
-22.552623
0
VERTEX
8
0
6
CONTINUOUS
62
252
70
192
10
-2.000000
20
12.000000
30
-20.784610
0
VERTEX
8
0
6
CONTINUOUS
62
252
70
192
10
-2.000000
20
15.426903
30
-18.385067
0
VERTEX
8
0
6
CONTINUOUS
62
252
70
192
10
-2.000000
20
18.385067
30
-15.426903
0
VERTEX
8
0
6
CONTINUOUS
62
252
70
192
10
-2.000000
20
20.784610
30
-12.000000
0
VERTEX
8
0
6
CONTINUOUS
62
252
70
192
10
-2.000000
20
22.552623
30
-8.208483
0
VERTEX
8
0
6
CONTINUOUS
62
252
70
192
10
-2.000000
20
23.635386
30
-4.167556
0
VERTEX
8
0
6
CONTINUOUS
62
252
70
192
10
-2.000000
20
24.000000
30
-0.000000
0
VERTEX
8
0
6
CONTINUOUS
62
252
70
192
10
-2.000000
20
23.635386
30
4.167556
0
VERTEX
8
0
6
CONTINUOUS
62
252
70
192
10
-2.000000
20
22.552623
30
8.208483
0
VERTEX
8
0
6
CONTINUOUS
62
252
70
192
10
-2.000000
20
20.784610
30
12.000000
0
VERTEX
8
0
6
CONTINUOUS
62
252
70
192
10
-2.000000
20
18.385067
30
15.426903
0
VERTEX
8
0
6
CONTINUOUS
62
252
70
192
10
-2.000000
20
15.426903
30
18.385067
0
VERTEX
8
0
6
CONTINUOUS
62
252
70
192
10
-2.000000
20
12.000000
30
20.784610
0
VERTEX
8
0
6
CONTINUOUS
62
252
70
192
10
-2.000000
20
8.208483
30
22.552623
0
VERTEX
8
0
6
CONTINUOUS
62
252
70
192
10
-2.000000
20
4.167556
30
23.635386
0
VERTEX
8
0
6
CONTINUOUS
62
252
70
192
10
-2.000000
20
0.000000
30
27.000000
0
VERTEX
8
0
6
CONTINUOUS
62
252
70
192
10
-2.000000
20
4.688501
30
26.589809
0
VERTEX
8
0
6
CONTINUOUS
62
252
70
192
10
-2.000000
20
9.234544
30
25.371701
0
VERTEX
8
0
6
CONTINUOUS
62
252
70
192
10
-2.000000
20
13.500000
30
23.382686
0
VERTEX
8
0
6
CONTINUOUS
62
252
70
192
10
-2.000000
20
17.355265
30
20.683200
0
VERTEX
8
0
6
CONTINUOUS
62
252
70
192
10
-2.000000
20
20.683200
30
17.355265
0
VERTEX
8
0
6
CONTINUOUS
62
252
70
192
10
-2.000000
20
23.382686
30
13.500000
0
VERTEX
8
0
6
CONTINUOUS
62
252
70
192
10
-2.000000
20
25.371701
30
9.234544
0
VERTEX
8
0
6
CONTINUOUS
62
252
70
192
10
-2.000000
20
26.589809
30
4.688501
0
VERTEX
8
0
6
CONTINUOUS
62
252
70
192
10
-2.000000
20
27.000000
30
-0.000000
0
VERTEX
8
0
6
CONTINUOUS
62
252
70
192
10
-2.000000
20
26.589809
30
-4.688501
0
VERTEX
8
0
6
CONTINUOUS
62
252
70
192
10
-2.000000
20
25.371701
30
-9.234544
0
VERTEX
8
0
6
CONTINUOUS
62
252
70
192
10
-2.000000
20
23.382686
30
-13.500000
0
VERTEX
8
0
6
CONTINUOUS
62
252
70
192
10
-2.000000
20
20.683200
30
-17.355265
0
VERTEX
8
0
6
CONTINUOUS
62
252
70
192
10
-2.000000
20
17.355265
30
-20.683200
0
VERTEX
8
0
6
CONTINUOUS
62
252
70
192
10
-2.000000
20
13.500000
30
-23.382686
0
VERTEX
8
0
6
CONTINUOUS
62
252
70
192
10
-2.000000
20
9.234544
30
-25.371701
0
VERTEX
8
0
6
CONTINUOUS
62
252
70
192
10
-2.000000
20
4.688501
30
-26.589809
0
VERTEX
8
0
6
CONTINUOUS
62
252
70
192
10
-2.000000
20
-0.000000
30
-27.000000
0
VERTEX
8
0
6
CONTINUOUS
62
252
70
192
10
-2.000000
20
-4.688501
30
-26.589809
0
VERTEX
8
0
6
CONTINUOUS
62
252
70
192
10
-2.000000
20
-9.234544
30
-25.371701
0
VERTEX
8
0
6
CONTINUOUS
62
252
70
192
10
-2.000000
20
-13.500000
30
-23.382686
0
VERTEX
8
0
6
CONTINUOUS
62
252
70
192
10
-2.000000
20
-17.355265
30
-20.683200
0
VERTEX
8
0
6
CONTINUOUS
62
252
70
192
10
-2.000000
20
-20.683200
30
-17.355265
0
VERTEX
8
0
6
CONTINUOUS
62
252
70
192
10
-2.000000
20
-23.382686
30
-13.500000
0
VERTEX
8
0
6
CONTINUOUS
62
252
70
192
10
-2.000000
20
-25.371701
30
-9.234544
0
VERTEX
8
0
6
CONTINUOUS
62
252
70
192
10
-2.000000
20
-26.589809
30
-4.688501
0
VERTEX
8
0
6
CONTINUOUS
62
252
70
192
10
-2.000000
20
-27.000000
30
0.000000
0
VERTEX
8
0
6
CONTINUOUS
62
252
70
192
10
-2.000000
20
-26.589809
30
4.688501
0
VERTEX
8
0
6
CONTINUOUS
62
252
70
192
10
-2.000000
20
-25.371701
30
9.234544
0
VERTEX
8
0
6
CONTINUOUS
62
252
70
192
10
-2.000000
20
-23.382686
30
13.500000
0
VERTEX
8
0
6
CONTINUOUS
62
252
70
192
10
-2.000000
20
-20.683200
30
17.355265
0
VERTEX
8
0
6
CONTINUOUS
62
252
70
192
10
-2.000000
20
-17.355265
30
20.683200
0
VERTEX
8
0
6
CONTINUOUS
62
252
70
192
10
-2.000000
20
-13.500000
30
23.382686
0
VERTEX
8
0
6
CONTINUOUS
62
252
70
192
10
-2.000000
20
-9.234544
30
25.371701
0
VERTEX
8
0
6
CONTINUOUS
62
252
70
192
10
-2.000000
20
-4.688501
30
26.589809
0
VERTEX
8
0
6
CONTINUOUS
62
252
70
128
10
0.000000
20
0.000000
30
0.000000
71
2
72
72
73
1
0
VERTEX
8
0
6
CONTINUOUS
62
252
70
128
10
0.000000
20
0.000000
30
0.000000
71
1
72
72
73
37
0
VERTEX
8
0
6
CONTINUOUS
62
252
70
128
10
0.000000
20
0.000000
30
0.000000
71
1
72
37
73
38
0
VERTEX
8
0
6
CONTINUOUS
62
252
70
128
10
0.000000
20
0.000000
30
0.000000
71
2
72
3
73
72
0
VERTEX
8
0
6
CONTINUOUS
62
252
70
128
10
0.000000
20
0.000000
30
0.000000
71
72
72
3
73
71
0
VERTEX
8
0
6
CONTINUOUS
62
252
70
128
10
0.000000
20
0.000000
30
0.000000
71
71
72
3
73
70
0
VERTEX
8
0
6
CONTINUOUS
62
252
70
128
10
0.000000
20
0.000000
30
0.000000
71
70
72
3
73
4
0
VERTEX
8
0
6
CONTINUOUS
62
252
70
128
10
0.000000
20
0.000000
30
0.000000
71
70
72
4
73
5
0
VERTEX
8
0
6
CONTINUOUS
62
252
70
128
10
0.000000
20
0.000000
30
0.000000
71
70
72
5
73
69
0
VERTEX
8
0
6
CONTINUOUS
62
252
70
128
10
0.000000
20
0.000000
30
0.000000
71
69
72
5
73
6
0
VERTEX
8
0
6
CONTINUOUS
62
252
70
128
10
0.000000
20
0.000000
30
0.000000
71
69
72
6
73
68
0
VERTEX
8
0
6
CONTINUOUS
62
252
70
128
10
0.000000
20
0.000000
30
0.000000
71
68
72
6
73
7
0
VERTEX
8
0
6
CONTINUOUS
62
252
70
128
10
0.000000
20
0.000000
30
0.000000
71
68
72
7
73
67
0
VERTEX
8
0
6
CONTINUOUS
62
252
70
128
10
0.000000
20
0.000000
30
0.000000
71
67
72
7
73
66
0
VERTEX
8
0
6
CONTINUOUS
62
252
70
128
10
0.000000
20
0.000000
30
0.000000
71
66
72
7
73
8
0
VERTEX
8
0
6
CONTINUOUS
62
252
70
128
10
0.000000
20
0.000000
30
0.000000
71
66
72
8
73
9
0
VERTEX
8
0
6
CONTINUOUS
62
252
70
128
10
0.000000
20
0.000000
30
0.000000
71
66
72
9
73
65
0
VERTEX
8
0
6
CONTINUOUS
62
252
70
128
10
0.000000
20
0.000000
30
0.000000
71
65
72
9
73
10
0
VERTEX
8
0
6
CONTINUOUS
62
252
70
128
10
0.000000
20
0.000000
30
0.000000
71
65
72
10
73
64
0
VERTEX
8
0
6
CONTINUOUS
62
252
70
128
10
0.000000
20
0.000000
30
0.000000
71
64
72
10
73
63
0
VERTEX
8
0
6
CONTINUOUS
62
252
70
128
10
0.000000
20
0.000000
30
0.000000
71
63
72
10
73
11
0
VERTEX
8
0
6
CONTINUOUS
62
252
70
128
10
0.000000
20
0.000000
30
0.000000
71
63
72
11
73
12
0
VERTEX
8
0
6
CONTINUOUS
62
252
70
128
10
0.000000
20
0.000000
30
0.000000
71
13
72
61
73
12
0
VERTEX
8
0
6
CONTINUOUS
62
252
70
128
10
0.000000
20
0.000000
30
0.000000
71
12
72
61
73
62
0
VERTEX
8
0
6
CONTINUOUS
62
252
70
128
10
0.000000
20
0.000000
30
0.000000
71
12
72
62
73
63
0
VERTEX
8
0
6
CONTINUOUS
62
252
70
128
10
0.000000
20
0.000000
30
0.000000
71
13
72
14
73
61
0
VERTEX
8
0
6
CONTINUOUS
62
252
70
128
10
0.000000
20
0.000000
30
0.000000
71
61
72
14
73
60
0
VERTEX
8
0
6
CONTINUOUS
62
252
70
128
10
0.000000
20
0.000000
30
0.000000
71
60
72
14
73
59
0
VERTEX
8
0
6
CONTINUOUS
62
252
70
128
10
0.000000
20
0.000000
30
0.000000
71
59
72
14
73
15
0
VERTEX
8
0
6
CONTINUOUS
62
252
70
128
10
0.000000
20
0.000000
30
0.000000
71
59
72
15
73
16
0
VERTEX
8
0
6
CONTINUOUS
62
252
70
128
10
0.000000
20
0.000000
30
0.000000
71
17
72
57
73
16
0
VERTEX
8
0
6
CONTINUOUS
62
252
70
128
10
0.000000
20
0.000000
30
0.000000
71
16
72
57
73
58
0
VERTEX
8
0
6
CONTINUOUS
62
252
70
128
10
0.000000
20
0.000000
30
0.000000
71
16
72
58
73
59
0
VERTEX
8
0
6
CONTINUOUS
62
252
70
128
10
0.000000
20
0.000000
30
0.000000
71
57
72
17
73
56
0
VERTEX
8
0
6
CONTINUOUS
62
252
70
128
10
0.000000
20
0.000000
30
0.000000
71
56
72
17
73
18
0
VERTEX
8
0
6
CONTINUOUS
62
252
70
128
10
0.000000
20
0.000000
30
0.000000
71
56
72
18
73
19
0
VERTEX
8
0
6
CONTINUOUS
62
252
70
128
10
0.000000
20
0.000000
30
0.000000
71
56
72
19
73
55
0
VERTEX
8
0
6
CONTINUOUS
62
252
70
128
10
0.000000
20
0.000000
30
0.000000
71
55
72
19
73
20
0
VERTEX
8
0
6
CONTINUOUS
62
252
70
128
10
0.000000
20
0.000000
30
0.000000
71
55
72
20
73
54
0
VERTEX
8
0
6
CONTINUOUS
62
252
70
128
10
0.000000
20
0.000000
30
0.000000
71
54
72
20
73
53
0
VERTEX
8
0
6
CONTINUOUS
62
252
70
128
10
0.000000
20
0.000000
30
0.000000
71
53
72
20
73
21
0
VERTEX
8
0
6
CONTINUOUS
62
252
70
128
10
0.000000
20
0.000000
30
0.000000
71
53
72
21
73
22
0
VERTEX
8
0
6
CONTINUOUS
62
252
70
128
10
0.000000
20
0.000000
30
0.000000
71
53
72
22
73
52
0
VERTEX
8
0
6
CONTINUOUS
62
252
70
128
10
0.000000
20
0.000000
30
0.000000
71
52
72
22
73
23
0
VERTEX
8
0
6
CONTINUOUS
62
252
70
128
10
0.000000
20
0.000000
30
0.000000
71
52
72
23
73
51
0
VERTEX
8
0
6
CONTINUOUS
62
252
70
128
10
0.000000
20
0.000000
30
0.000000
71
51
72
23
73
24
0
VERTEX
8
0
6
CONTINUOUS
62
252
70
128
10
0.000000
20
0.000000
30
0.000000
71
51
72
24
73
50
0
VERTEX
8
0
6
CONTINUOUS
62
252
70
128
10
0.000000
20
0.000000
30
0.000000
71
50
72
24
73
49
0
VERTEX
8
0
6
CONTINUOUS
62
252
70
128
10
0.000000
20
0.000000
30
0.000000
71
49
72
24
73
25
0
VERTEX
8
0
6
CONTINUOUS
62
252
70
128
10
0.000000
20
0.000000
30
0.000000
71
49
72
25
73
26
0
VERTEX
8
0
6
CONTINUOUS
62
252
70
128
10
0.000000
20
0.000000
30
0.000000
71
27
72
47
73
26
0
VERTEX
8
0
6
CONTINUOUS
62
252
70
128
10
0.000000
20
0.000000
30
0.000000
71
26
72
47
73
48
0
VERTEX
8
0
6
CONTINUOUS
62
252
70
128
10
0.000000
20
0.000000
30
0.000000
71
26
72
48
73
49
0
VERTEX
8
0
6
CONTINUOUS
62
252
70
128
10
0.000000
20
0.000000
30
0.000000
71
27
72
28
73
47
0
VERTEX
8
0
6
CONTINUOUS
62
252
70
128
10
0.000000
20
0.000000
30
0.000000
71
47
72
28
73
46
0
VERTEX
8
0
6
CONTINUOUS
62
252
70
128
10
0.000000
20
0.000000
30
0.000000
71
46
72
28
73
29
0
VERTEX
8
0
6
CONTINUOUS
62
252
70
128
10
0.000000
20
0.000000
30
0.000000
71
46
72
29
73
45
0
VERTEX
8
0
6
CONTINUOUS
62
252
70
128
10
0.000000
20
0.000000
30
0.000000
71
45
72
29
73
30
0
VERTEX
8
0
6
CONTINUOUS
62
252
70
128
10
0.000000
20
0.000000
30
0.000000
71
45
72
30
73
44
0
VERTEX
8
0
6
CONTINUOUS
62
252
70
128
10
0.000000
20
0.000000
30
0.000000
71
44
72
30
73
31
0
VERTEX
8
0
6
CONTINUOUS
62
252
70
128
10
0.000000
20
0.000000
30
0.000000
71
44
72
31
73
43
0
VERTEX
8
0
6
CONTINUOUS
62
252
70
128
10
0.000000
20
0.000000
30
0.000000
71
43
72
31
73
32
0
VERTEX
8
0
6
CONTINUOUS
62
252
70
128
10
0.000000
20
0.000000
30
0.000000
71
43
72
32
73
42
0
VERTEX
8
0
6
CONTINUOUS
62
252
70
128
10
0.000000
20
0.000000
30
0.000000
71
42
72
32
73
41
0
VERTEX
8
0
6
CONTINUOUS
62
252
70
128
10
0.000000
20
0.000000
30
0.000000
71
41
72
32
73
33
0
VERTEX
8
0
6
CONTINUOUS
62
252
70
128
10
0.000000
20
0.000000
30
0.000000
71
41
72
33
73
34
0
VERTEX
8
0
6
CONTINUOUS
62
252
70
128
10
0.000000
20
0.000000
30
0.000000
71
41
72
34
73
40
0
VERTEX
8
0
6
CONTINUOUS
62
252
70
128
10
0.000000
20
0.000000
30
0.000000
71
40
72
34
73
35
0
VERTEX
8
0
6
CONTINUOUS
62
252
70
128
10
0.000000
20
0.000000
30
0.000000
71
40
72
35
73
39
0
VERTEX
8
0
6
CONTINUOUS
62
252
70
128
10
0.000000
20
0.000000
30
0.000000
71
39
72
35
73
38
0
VERTEX
8
0
6
CONTINUOUS
62
252
70
128
10
0.000000
20
0.000000
30
0.000000
71
38
72
35
73
36
0
VERTEX
8
0
6
CONTINUOUS
62
252
70
128
10
0.000000
20
0.000000
30
0.000000
71
38
72
36
73
1
0
SEQEND
0
POLYLINE
66
1
8
0
6
CONTINUOUS
62
252
70
64
75
0
10
0.000000
20
0.000000
30
0.000000
0
VERTEX
8
0
6
CONTINUOUS
62
252
70
192
10
-0.000000
20
0.000000
30
27.000000
0
VERTEX
8
0
6
CONTINUOUS
62
252
70
192
10
-0.000000
20
4.688501
30
26.589809
0
VERTEX
8
0
6
CONTINUOUS
62
252
70
192
10
-0.000000
20
9.234544
30
25.371701
0
VERTEX
8
0
6
CONTINUOUS
62
252
70
192
10
-0.000000
20
13.500000
30
23.382686
0
VERTEX
8
0
6
CONTINUOUS
62
252
70
192
10
-0.000000
20
17.355265
30
20.683200
0
VERTEX
8
0
6
CONTINUOUS
62
252
70
192
10
-0.000000
20
20.683200
30
17.355265
0
VERTEX
8
0
6
CONTINUOUS
62
252
70
192
10
-0.000000
20
23.382686
30
13.500000
0
VERTEX
8
0
6
CONTINUOUS
62
252
70
192
10
-0.000000
20
25.371701
30
9.234544
0
VERTEX
8
0
6
CONTINUOUS
62
252
70
192
10
-0.000000
20
26.589809
30
4.688501
0
VERTEX
8
0
6
CONTINUOUS
62
252
70
192
10
-0.000000
20
27.000000
30
-0.000000
0
VERTEX
8
0
6
CONTINUOUS
62
252
70
192
10
0.000000
20
26.589809
30
-4.688501
0
VERTEX
8
0
6
CONTINUOUS
62
252
70
192
10
0.000000
20
25.371701
30
-9.234544
0
VERTEX
8
0
6
CONTINUOUS
62
252
70
192
10
0.000000
20
23.382686
30
-13.500000
0
VERTEX
8
0
6
CONTINUOUS
62
252
70
192
10
0.000000
20
20.683200
30
-17.355265
0
VERTEX
8
0
6
CONTINUOUS
62
252
70
192
10
0.000000
20
17.355265
30
-20.683200
0
VERTEX
8
0
6
CONTINUOUS
62
252
70
192
10
0.000000
20
13.500000
30
-23.382686
0
VERTEX
8
0
6
CONTINUOUS
62
252
70
192
10
0.000000
20
9.234544
30
-25.371701
0
VERTEX
8
0
6
CONTINUOUS
62
252
70
192
10
0.000000
20
4.688501
30
-26.589809
0
VERTEX
8
0
6
CONTINUOUS
62
252
70
192
10
0.000000
20
-0.000000
30
-27.000000
0
VERTEX
8
0
6
CONTINUOUS
62
252
70
192
10
0.000000
20
-4.688501
30
-26.589809
0
VERTEX
8
0
6
CONTINUOUS
62
252
70
192
10
0.000000
20
-9.234544
30
-25.371701
0
VERTEX
8
0
6
CONTINUOUS
62
252
70
192
10
0.000000
20
-13.500000
30
-23.382686
0
VERTEX
8
0
6
CONTINUOUS
62
252
70
192
10
0.000000
20
-17.355265
30
-20.683200
0
VERTEX
8
0
6
CONTINUOUS
62
252
70
192
10
0.000000
20
-20.683200
30
-17.355265
0
VERTEX
8
0
6
CONTINUOUS
62
252
70
192
10
0.000000
20
-23.382686
30
-13.500000
0
VERTEX
8
0
6
CONTINUOUS
62
252
70
192
10
0.000000
20
-25.371701
30
-9.234544
0
VERTEX
8
0
6
CONTINUOUS
62
252
70
192
10
0.000000
20
-26.589809
30
-4.688501
0
VERTEX
8
0
6
CONTINUOUS
62
252
70
192
10
-0.000000
20
-27.000000
30
0.000000
0
VERTEX
8
0
6
CONTINUOUS
62
252
70
192
10
-0.000000
20
-26.589809
30
4.688501
0
VERTEX
8
0
6
CONTINUOUS
62
252
70
192
10
-0.000000
20
-25.371701
30
9.234544
0
VERTEX
8
0
6
CONTINUOUS
62
252
70
192
10
-0.000000
20
-23.382686
30
13.500000
0
VERTEX
8
0
6
CONTINUOUS
62
252
70
192
10
-0.000000
20
-20.683200
30
17.355265
0
VERTEX
8
0
6
CONTINUOUS
62
252
70
192
10
-0.000000
20
-17.355265
30
20.683200
0
VERTEX
8
0
6
CONTINUOUS
62
252
70
192
10
-0.000000
20
-13.500000
30
23.382686
0
VERTEX
8
0
6
CONTINUOUS
62
252
70
192
10
-0.000000
20
-9.234544
30
25.371701
0
VERTEX
8
0
6
CONTINUOUS
62
252
70
192
10
-0.000000
20
-4.688501
30
26.589809
0
VERTEX
8
0
6
CONTINUOUS
62
252
70
192
10
-2.000000
20
0.000000
30
27.000000
0
VERTEX
8
0
6
CONTINUOUS
62
252
70
192
10
-2.000000
20
-4.688501
30
26.589809
0
VERTEX
8
0
6
CONTINUOUS
62
252
70
192
10
-2.000000
20
-9.234544
30
25.371701
0
VERTEX
8
0
6
CONTINUOUS
62
252
70
192
10
-2.000000
20
-13.500000
30
23.382686
0
VERTEX
8
0
6
CONTINUOUS
62
252
70
192
10
-2.000000
20
-17.355265
30
20.683200
0
VERTEX
8
0
6
CONTINUOUS
62
252
70
192
10
-2.000000
20
-20.683200
30
17.355265
0
VERTEX
8
0
6
CONTINUOUS
62
252
70
192
10
-2.000000
20
-23.382686
30
13.500000
0
VERTEX
8
0
6
CONTINUOUS
62
252
70
192
10
-2.000000
20
-25.371701
30
9.234544
0
VERTEX
8
0
6
CONTINUOUS
62
252
70
192
10
-2.000000
20
-26.589809
30
4.688501
0
VERTEX
8
0
6
CONTINUOUS
62
252
70
192
10
-2.000000
20
-27.000000
30
0.000000
0
VERTEX
8
0
6
CONTINUOUS
62
252
70
192
10
-2.000000
20
-26.589809
30
-4.688501
0
VERTEX
8
0
6
CONTINUOUS
62
252
70
192
10
-2.000000
20
-25.371701
30
-9.234544
0
VERTEX
8
0
6
CONTINUOUS
62
252
70
192
10
-2.000000
20
-23.382686
30
-13.500000
0
VERTEX
8
0
6
CONTINUOUS
62
252
70
192
10
-2.000000
20
-20.683200
30
-17.355265
0
VERTEX
8
0
6
CONTINUOUS
62
252
70
192
10
-2.000000
20
-17.355265
30
-20.683200
0
VERTEX
8
0
6
CONTINUOUS
62
252
70
192
10
-2.000000
20
-13.500000
30
-23.382686
0
VERTEX
8
0
6
CONTINUOUS
62
252
70
192
10
-2.000000
20
-9.234544
30
-25.371701
0
VERTEX
8
0
6
CONTINUOUS
62
252
70
192
10
-2.000000
20
-4.688501
30
-26.589809
0
VERTEX
8
0
6
CONTINUOUS
62
252
70
192
10
-2.000000
20
-0.000000
30
-27.000000
0
VERTEX
8
0
6
CONTINUOUS
62
252
70
192
10
-2.000000
20
4.688501
30
-26.589809
0
VERTEX
8
0
6
CONTINUOUS
62
252
70
192
10
-2.000000
20
9.234544
30
-25.371701
0
VERTEX
8
0
6
CONTINUOUS
62
252
70
192
10
-2.000000
20
13.500000
30
-23.382686
0
VERTEX
8
0
6
CONTINUOUS
62
252
70
192
10
-2.000000
20
17.355265
30
-20.683200
0
VERTEX
8
0
6
CONTINUOUS
62
252
70
192
10
-2.000000
20
20.683200
30
-17.355265
0
VERTEX
8
0
6
CONTINUOUS
62
252
70
192
10
-2.000000
20
23.382686
30
-13.500000
0
VERTEX
8
0
6
CONTINUOUS
62
252
70
192
10
-2.000000
20
25.371701
30
-9.234544
0
VERTEX
8
0
6
CONTINUOUS
62
252
70
192
10
-2.000000
20
26.589809
30
-4.688501
0
VERTEX
8
0
6
CONTINUOUS
62
252
70
192
10
-2.000000
20
27.000000
30
-0.000000
0
VERTEX
8
0
6
CONTINUOUS
62
252
70
192
10
-2.000000
20
26.589809
30
4.688501
0
VERTEX
8
0
6
CONTINUOUS
62
252
70
192
10
-2.000000
20
25.371701
30
9.234544
0
VERTEX
8
0
6
CONTINUOUS
62
252
70
192
10
-2.000000
20
23.382686
30
13.500000
0
VERTEX
8
0
6
CONTINUOUS
62
252
70
192
10
-2.000000
20
20.683200
30
17.355265
0
VERTEX
8
0
6
CONTINUOUS
62
252
70
192
10
-2.000000
20
17.355265
30
20.683200
0
VERTEX
8
0
6
CONTINUOUS
62
252
70
192
10
-2.000000
20
13.500000
30
23.382686
0
VERTEX
8
0
6
CONTINUOUS
62
252
70
192
10
-2.000000
20
9.234544
30
25.371701
0
VERTEX
8
0
6
CONTINUOUS
62
252
70
192
10
-2.000000
20
4.688501
30
26.589809
0
VERTEX
8
0
6
CONTINUOUS
62
252
70
128
10
0.000000
20
0.000000
30
0.000000
71
2
72
72
73
1
0
VERTEX
8
0
6
CONTINUOUS
62
252
70
128
10
0.000000
20
0.000000
30
0.000000
71
1
72
72
73
37
0
VERTEX
8
0
6
CONTINUOUS
62
252
70
128
10
0.000000
20
0.000000
30
0.000000
71
1
72
37
73
36
0
VERTEX
8
0
6
CONTINUOUS
62
252
70
128
10
0.000000
20
0.000000
30
0.000000
71
36
72
37
73
38
0
VERTEX
8
0
6
CONTINUOUS
62
252
70
128
10
0.000000
20
0.000000
30
0.000000
71
36
72
38
73
35
0
VERTEX
8
0
6
CONTINUOUS
62
252
70
128
10
0.000000
20
0.000000
30
0.000000
71
35
72
38
73
39
0
VERTEX
8
0
6
CONTINUOUS
62
252
70
128
10
0.000000
20
0.000000
30
0.000000
71
35
72
39
73
34
0
VERTEX
8
0
6
CONTINUOUS
62
252
70
128
10
0.000000
20
0.000000
30
0.000000
71
34
72
39
73
40
0
VERTEX
8
0
6
CONTINUOUS
62
252
70
128
10
0.000000
20
0.000000
30
0.000000
71
34
72
40
73
33
0
VERTEX
8
0
6
CONTINUOUS
62
252
70
128
10
0.000000
20
0.000000
30
0.000000
71
33
72
40
73
41
0
VERTEX
8
0
6
CONTINUOUS
62
252
70
128
10
0.000000
20
0.000000
30
0.000000
71
33
72
41
73
42
0
VERTEX
8
0
6
CONTINUOUS
62
252
70
128
10
0.000000
20
0.000000
30
0.000000
71
72
72
2
73
71
0
VERTEX
8
0
6
CONTINUOUS
62
252
70
128
10
0.000000
20
0.000000
30
0.000000
71
71
72
2
73
3
0
VERTEX
8
0
6
CONTINUOUS
62
252
70
128
10
0.000000
20
0.000000
30
0.000000
71
71
72
3
73
4
0
VERTEX
8
0
6
CONTINUOUS
62
252
70
128
10
0.000000
20
0.000000
30
0.000000
71
5
72
69
73
4
0
VERTEX
8
0
6
CONTINUOUS
62
252
70
128
10
0.000000
20
0.000000
30
0.000000
71
4
72
69
73
70
0
VERTEX
8
0
6
CONTINUOUS
62
252
70
128
10
0.000000
20
0.000000
30
0.000000
71
4
72
70
73
71
0
VERTEX
8
0
6
CONTINUOUS
62
252
70
128
10
0.000000
20
0.000000
30
0.000000
71
69
72
5
73
68
0
VERTEX
8
0
6
CONTINUOUS
62
252
70
128
10
0.000000
20
0.000000
30
0.000000
71
68
72
5
73
6
0
VERTEX
8
0
6
CONTINUOUS
62
252
70
128
10
0.000000
20
0.000000
30
0.000000
71
68
72
6
73
67
0
VERTEX
8
0
6
CONTINUOUS
62
252
70
128
10
0.000000
20
0.000000
30
0.000000
71
67
72
6
73
7
0
VERTEX
8
0
6
CONTINUOUS
62
252
70
128
10
0.000000
20
0.000000
30
0.000000
71
67
72
7
73
66
0
VERTEX
8
0
6
CONTINUOUS
62
252
70
128
10
0.000000
20
0.000000
30
0.000000
71
66
72
7
73
8
0
VERTEX
8
0
6
CONTINUOUS
62
252
70
128
10
0.000000
20
0.000000
30
0.000000
71
66
72
8
73
65
0
VERTEX
8
0
6
CONTINUOUS
62
252
70
128
10
0.000000
20
0.000000
30
0.000000
71
65
72
8
73
9
0
VERTEX
8
0
6
CONTINUOUS
62
252
70
128
10
0.000000
20
0.000000
30
0.000000
71
65
72
9
73
64
0
VERTEX
8
0
6
CONTINUOUS
62
252
70
128
10
0.000000
20
0.000000
30
0.000000
71
64
72
9
73
10
0
VERTEX
8
0
6
CONTINUOUS
62
252
70
128
10
0.000000
20
0.000000
30
0.000000
71
64
72
10
73
63
0
VERTEX
8
0
6
CONTINUOUS
62
252
70
128
10
0.000000
20
0.000000
30
0.000000
71
63
72
10
73
11
0
VERTEX
8
0
6
CONTINUOUS
62
252
70
128
10
0.000000
20
0.000000
30
0.000000
71
63
72
11
73
62
0
VERTEX
8
0
6
CONTINUOUS
62
252
70
128
10
0.000000
20
0.000000
30
0.000000
71
62
72
11
73
12
0
VERTEX
8
0
6
CONTINUOUS
62
252
70
128
10
0.000000
20
0.000000
30
0.000000
71
62
72
12
73
61
0
VERTEX
8
0
6
CONTINUOUS
62
252
70
128
10
0.000000
20
0.000000
30
0.000000
71
61
72
12
73
13
0
VERTEX
8
0
6
CONTINUOUS
62
252
70
128
10
0.000000
20
0.000000
30
0.000000
71
61
72
13
73
60
0
VERTEX
8
0
6
CONTINUOUS
62
252
70
128
10
0.000000
20
0.000000
30
0.000000
71
60
72
13
73
14
0
VERTEX
8
0
6
CONTINUOUS
62
252
70
128
10
0.000000
20
0.000000
30
0.000000
71
60
72
14
73
59
0
VERTEX
8
0
6
CONTINUOUS
62
252
70
128
10
0.000000
20
0.000000
30
0.000000
71
59
72
14
73
15
0
VERTEX
8
0
6
CONTINUOUS
62
252
70
128
10
0.000000
20
0.000000
30
0.000000
71
59
72
15
73
58
0
VERTEX
8
0
6
CONTINUOUS
62
252
70
128
10
0.000000
20
0.000000
30
0.000000
71
58
72
15
73
16
0
VERTEX
8
0
6
CONTINUOUS
62
252
70
128
10
0.000000
20
0.000000
30
0.000000
71
58
72
16
73
57
0
VERTEX
8
0
6
CONTINUOUS
62
252
70
128
10
0.000000
20
0.000000
30
0.000000
71
57
72
16
73
17
0
VERTEX
8
0
6
CONTINUOUS
62
252
70
128
10
0.000000
20
0.000000
30
0.000000
71
57
72
17
73
56
0
VERTEX
8
0
6
CONTINUOUS
62
252
70
128
10
0.000000
20
0.000000
30
0.000000
71
56
72
17
73
18
0
VERTEX
8
0
6
CONTINUOUS
62
252
70
128
10
0.000000
20
0.000000
30
0.000000
71
56
72
18
73
55
0
VERTEX
8
0
6
CONTINUOUS
62
252
70
128
10
0.000000
20
0.000000
30
0.000000
71
55
72
18
73
19
0
VERTEX
8
0
6
CONTINUOUS
62
252
70
128
10
0.000000
20
0.000000
30
0.000000
71
55
72
19
73
54
0
VERTEX
8
0
6
CONTINUOUS
62
252
70
128
10
0.000000
20
0.000000
30
0.000000
71
54
72
19
73
20
0
VERTEX
8
0
6
CONTINUOUS
62
252
70
128
10
0.000000
20
0.000000
30
0.000000
71
54
72
20
73
53
0
VERTEX
8
0
6
CONTINUOUS
62
252
70
128
10
0.000000
20
0.000000
30
0.000000
71
53
72
20
73
21
0
VERTEX
8
0
6
CONTINUOUS
62
252
70
128
10
0.000000
20
0.000000
30
0.000000
71
53
72
21
73
52
0
VERTEX
8
0
6
CONTINUOUS
62
252
70
128
10
0.000000
20
0.000000
30
0.000000
71
52
72
21
73
22
0
VERTEX
8
0
6
CONTINUOUS
62
252
70
128
10
0.000000
20
0.000000
30
0.000000
71
52
72
22
73
51
0
VERTEX
8
0
6
CONTINUOUS
62
252
70
128
10
0.000000
20
0.000000
30
0.000000
71
51
72
22
73
23
0
VERTEX
8
0
6
CONTINUOUS
62
252
70
128
10
0.000000
20
0.000000
30
0.000000
71
51
72
23
73
50
0
VERTEX
8
0
6
CONTINUOUS
62
252
70
128
10
0.000000
20
0.000000
30
0.000000
71
50
72
23
73
24
0
VERTEX
8
0
6
CONTINUOUS
62
252
70
128
10
0.000000
20
0.000000
30
0.000000
71
50
72
24
73
49
0
VERTEX
8
0
6
CONTINUOUS
62
252
70
128
10
0.000000
20
0.000000
30
0.000000
71
49
72
24
73
25
0
VERTEX
8
0
6
CONTINUOUS
62
252
70
128
10
0.000000
20
0.000000
30
0.000000
71
49
72
25
73
48
0
VERTEX
8
0
6
CONTINUOUS
62
252
70
128
10
0.000000
20
0.000000
30
0.000000
71
48
72
25
73
26
0
VERTEX
8
0
6
CONTINUOUS
62
252
70
128
10
0.000000
20
0.000000
30
0.000000
71
48
72
26
73
47
0
VERTEX
8
0
6
CONTINUOUS
62
252
70
128
10
0.000000
20
0.000000
30
0.000000
71
47
72
26
73
27
0
VERTEX
8
0
6
CONTINUOUS
62
252
70
128
10
0.000000
20
0.000000
30
0.000000
71
47
72
27
73
46
0
VERTEX
8
0
6
CONTINUOUS
62
252
70
128
10
0.000000
20
0.000000
30
0.000000
71
46
72
27
73
28
0
VERTEX
8
0
6
CONTINUOUS
62
252
70
128
10
0.000000
20
0.000000
30
0.000000
71
46
72
28
73
45
0
VERTEX
8
0
6
CONTINUOUS
62
252
70
128
10
0.000000
20
0.000000
30
0.000000
71
45
72
28
73
29
0
VERTEX
8
0
6
CONTINUOUS
62
252
70
128
10
0.000000
20
0.000000
30
0.000000
71
45
72
29
73
44
0
VERTEX
8
0
6
CONTINUOUS
62
252
70
128
10
0.000000
20
0.000000
30
0.000000
71
44
72
29
73
30
0
VERTEX
8
0
6
CONTINUOUS
62
252
70
128
10
0.000000
20
0.000000
30
0.000000
71
44
72
30
73
31
0
VERTEX
8
0
6
CONTINUOUS
62
252
70
128
10
0.000000
20
0.000000
30
0.000000
71
32
72
42
73
31
0
VERTEX
8
0
6
CONTINUOUS
62
252
70
128
10
0.000000
20
0.000000
30
0.000000
71
31
72
42
73
43
0
VERTEX
8
0
6
CONTINUOUS
62
252
70
128
10
0.000000
20
0.000000
30
0.000000
71
31
72
43
73
44
0
VERTEX
8
0
6
CONTINUOUS
62
252
70
128
10
0.000000
20
0.000000
30
0.000000
71
32
72
33
73
42
0
SEQEND
0
POLYLINE
66
1
8
0
6
CONTINUOUS
62
252
70
64
75
0
10
0.000000
20
0.000000
30
0.000000
0
VERTEX
8
0
6
CONTINUOUS
62
252
70
192
10
6.000000
20
24.750000
30
-27.000000
0
VERTEX
8
0
6
CONTINUOUS
62
252
70
192
10
6.000000
20
24.359292
30
-26.965817
0
VERTEX
8
0
6
CONTINUOUS
62
252
70
192
10
6.000000
20
23.980455
30
-26.864308
0
VERTEX
8
0
6
CONTINUOUS
62
252
70
192
10
6.000000
20
23.625000
30
-26.698557
0
VERTEX
8
0
6
CONTINUOUS
62
252
70
192
10
6.000000
20
23.303728
30
-26.473600
0
VERTEX
8
0
6
CONTINUOUS
62
252
70
192
10
6.000000
20
23.026400
30
-26.196272
0
VERTEX
8
0
6
CONTINUOUS
62
252
70
192
10
6.000000
20
22.801443
30
-25.875000
0
VERTEX
8
0
6
CONTINUOUS
62
252
70
192
10
6.000000
20
22.635692
30
-25.519545
0
VERTEX
8
0
6
CONTINUOUS
62
252
70
192
10
6.000000
20
22.534183
30
-25.140708
0
VERTEX
8
0
6
CONTINUOUS
62
252
70
192
10
6.000000
20
22.500000
30
-24.750000
0
VERTEX
8
0
6
CONTINUOUS
62
252
70
192
10
6.000000
20
22.534183
30
-24.359292
0
VERTEX
8
0
6
CONTINUOUS
62
252
70
192
10
6.000000
20
22.635692
30
-23.980455
0
VERTEX
8
0
6
CONTINUOUS
62
252
70
192
10
6.000000
20
22.801443
30
-23.625000
0
VERTEX
8
0
6
CONTINUOUS
62
252
70
192
10
6.000000
20
23.026400
30
-23.303728
0
VERTEX
8
0
6
CONTINUOUS
62
252
70
192
10
6.000000
20
23.303728
30
-23.026400
0
VERTEX
8
0
6
CONTINUOUS
62
252
70
192
10
6.000000
20
23.625000
30
-22.801443
0
VERTEX
8
0
6
CONTINUOUS
62
252
70
192
10
6.000000
20
23.980455
30
-22.635692
0
VERTEX
8
0
6
CONTINUOUS
62
252
70
192
10
6.000000
20
24.359292
30
-22.534183
0
VERTEX
8
0
6
CONTINUOUS
62
252
70
192
10
6.000000
20
24.750000
30
-22.500000
0
VERTEX
8
0
6
CONTINUOUS
62
252
70
192
10
6.000000
20
25.140708
30
-22.534183
0
VERTEX
8
0
6
CONTINUOUS
62
252
70
192
10
6.000000
20
25.519545
30
-22.635692
0
VERTEX
8
0
6
CONTINUOUS
62
252
70
192
10
6.000000
20
25.875000
30
-22.801443
0
VERTEX
8
0
6
CONTINUOUS
62
252
70
192
10
6.000000
20
26.196272
30
-23.026400
0
VERTEX
8
0
6
CONTINUOUS
62
252
70
192
10
6.000000
20
26.473600
30
-23.303728
0
VERTEX
8
0
6
CONTINUOUS
62
252
70
192
10
6.000000
20
26.698557
30
-23.625000
0
VERTEX
8
0
6
CONTINUOUS
62
252
70
192
10
6.000000
20
26.864308
30
-23.980455
0
VERTEX
8
0
6
CONTINUOUS
62
252
70
192
10
6.000000
20
26.965817
30
-24.359292
0
VERTEX
8
0
6
CONTINUOUS
62
252
70
192
10
6.000000
20
27.000000
30
-24.750000
0
VERTEX
8
0
6
CONTINUOUS
62
252
70
192
10
6.000000
20
26.965817
30
-25.140708
0
VERTEX
8
0
6
CONTINUOUS
62
252
70
192
10
6.000000
20
26.864308
30
-25.519545
0
VERTEX
8
0
6
CONTINUOUS
62
252
70
192
10
6.000000
20
26.698557
30
-25.875000
0
VERTEX
8
0
6
CONTINUOUS
62
252
70
192
10
6.000000
20
26.473600
30
-26.196272
0
VERTEX
8
0
6
CONTINUOUS
62
252
70
192
10
6.000000
20
26.196272
30
-26.473600
0
VERTEX
8
0
6
CONTINUOUS
62
252
70
192
10
6.000000
20
25.875000
30
-26.698557
0
VERTEX
8
0
6
CONTINUOUS
62
252
70
192
10
6.000000
20
25.519545
30
-26.864308
0
VERTEX
8
0
6
CONTINUOUS
62
252
70
192
10
6.000000
20
25.140708
30
-26.965817
0
VERTEX
8
0
6
CONTINUOUS
62
252
70
192
10
6.000000
20
-24.750000
30
-27.000000
0
VERTEX
8
0
6
CONTINUOUS
62
252
70
192
10
6.000000
20
-25.140708
30
-26.965817
0
VERTEX
8
0
6
CONTINUOUS
62
252
70
192
10
6.000000
20
-25.519545
30
-26.864308
0
VERTEX
8
0
6
CONTINUOUS
62
252
70
192
10
6.000000
20
-25.875000
30
-26.698557
0
VERTEX
8
0
6
CONTINUOUS
62
252
70
192
10
6.000000
20
-26.196272
30
-26.473600
0
VERTEX
8
0
6
CONTINUOUS
62
252
70
192
10
6.000000
20
-26.473600
30
-26.196272
0
VERTEX
8
0
6
CONTINUOUS
62
252
70
192
10
6.000000
20
-26.698557
30
-25.875000
0
VERTEX
8
0
6
CONTINUOUS
62
252
70
192
10
6.000000
20
-26.864308
30
-25.519545
0
VERTEX
8
0
6
CONTINUOUS
62
252
70
192
10
6.000000
20
-26.965817
30
-25.140708
0
VERTEX
8
0
6
CONTINUOUS
62
252
70
192
10
6.000000
20
-27.000000
30
-24.750000
0
VERTEX
8
0
6
CONTINUOUS
62
252
70
192
10
6.000000
20
-26.965817
30
-24.359292
0
VERTEX
8
0
6
CONTINUOUS
62
252
70
192
10
6.000000
20
-26.864308
30
-23.980455
0
VERTEX
8
0
6
CONTINUOUS
62
252
70
192
10
6.000000
20
-26.698557
30
-23.625000
0
VERTEX
8
0
6
CONTINUOUS
62
252
70
192
10
6.000000
20
-26.473600
30
-23.303728
0
VERTEX
8
0
6
CONTINUOUS
62
252
70
192
10
6.000000
20
-26.196272
30
-23.026400
0
VERTEX
8
0
6
CONTINUOUS
62
252
70
192
10
6.000000
20
-25.875000
30
-22.801443
0
VERTEX
8
0
6
CONTINUOUS
62
252
70
192
10
6.000000
20
-25.519545
30
-22.635692
0
VERTEX
8
0
6
CONTINUOUS
62
252
70
192
10
6.000000
20
-25.140708
30
-22.534183
0
VERTEX
8
0
6
CONTINUOUS
62
252
70
192
10
6.000000
20
-24.750000
30
-22.500000
0
VERTEX
8
0
6
CONTINUOUS
62
252
70
192
10
6.000000
20
-24.359292
30
-22.534183
0
VERTEX
8
0
6
CONTINUOUS
62
252
70
192
10
6.000000
20
-23.980455
30
-22.635692
0
VERTEX
8
0
6
CONTINUOUS
62
252
70
192
10
6.000000
20
-23.625000
30
-22.801443
0
VERTEX
8
0
6
CONTINUOUS
62
252
70
192
10
6.000000
20
-23.303728
30
-23.026400
0
VERTEX
8
0
6
CONTINUOUS
62
252
70
192
10
6.000000
20
-23.026400
30
-23.303728
0
VERTEX
8
0
6
CONTINUOUS
62
252
70
192
10
6.000000
20
-22.801443
30
-23.625000
0
VERTEX
8
0
6
CONTINUOUS
62
252
70
192
10
6.000000
20
-22.635692
30
-23.980455
0
VERTEX
8
0
6
CONTINUOUS
62
252
70
192
10
6.000000
20
-22.534183
30
-24.359292
0
VERTEX
8
0
6
CONTINUOUS
62
252
70
192
10
6.000000
20
-22.500000
30
-24.750000
0
VERTEX
8
0
6
CONTINUOUS
62
252
70
192
10
6.000000
20
-22.534183
30
-25.140708
0
VERTEX
8
0
6
CONTINUOUS
62
252
70
192
10
6.000000
20
-22.635692
30
-25.519545
0
VERTEX
8
0
6
CONTINUOUS
62
252
70
192
10
6.000000
20
-22.801443
30
-25.875000
0
VERTEX
8
0
6
CONTINUOUS
62
252
70
192
10
6.000000
20
-23.026400
30
-26.196272
0
VERTEX
8
0
6
CONTINUOUS
62
252
70
192
10
6.000000
20
-23.303728
30
-26.473600
0
VERTEX
8
0
6
CONTINUOUS
62
252
70
192
10
6.000000
20
-23.625000
30
-26.698557
0
VERTEX
8
0
6
CONTINUOUS
62
252
70
192
10
6.000000
20
-23.980455
30
-26.864308
0
VERTEX
8
0
6
CONTINUOUS
62
252
70
192
10
6.000000
20
-24.359292
30
-26.965817
0
VERTEX
8
0
6
CONTINUOUS
62
252
70
192
10
6.000000
20
24.750000
30
22.500000
0
VERTEX
8
0
6
CONTINUOUS
62
252
70
192
10
6.000000
20
24.359292
30
22.534183
0
VERTEX
8
0
6
CONTINUOUS
62
252
70
192
10
6.000000
20
23.980455
30
22.635692
0
VERTEX
8
0
6
CONTINUOUS
62
252
70
192
10
6.000000
20
23.625000
30
22.801443
0
VERTEX
8
0
6
CONTINUOUS
62
252
70
192
10
6.000000
20
23.303728
30
23.026400
0
VERTEX
8
0
6
CONTINUOUS
62
252
70
192
10
6.000000
20
23.026400
30
23.303728
0
VERTEX
8
0
6
CONTINUOUS
62
252
70
192
10
6.000000
20
22.801443
30
23.625000
0
VERTEX
8
0
6
CONTINUOUS
62
252
70
192
10
6.000000
20
22.635692
30
23.980455
0
VERTEX
8
0
6
CONTINUOUS
62
252
70
192
10
6.000000
20
22.534183
30
24.359292
0
VERTEX
8
0
6
CONTINUOUS
62
252
70
192
10
6.000000
20
22.500000
30
24.750000
0
VERTEX
8
0
6
CONTINUOUS
62
252
70
192
10
6.000000
20
22.534183
30
25.140708
0
VERTEX
8
0
6
CONTINUOUS
62
252
70
192
10
6.000000
20
22.635692
30
25.519545
0
VERTEX
8
0
6
CONTINUOUS
62
252
70
192
10
6.000000
20
22.801443
30
25.875000
0
VERTEX
8
0
6
CONTINUOUS
62
252
70
192
10
6.000000
20
23.026400
30
26.196272
0
VERTEX
8
0
6
CONTINUOUS
62
252
70
192
10
6.000000
20
23.303728
30
26.473600
0
VERTEX
8
0
6
CONTINUOUS
62
252
70
192
10
6.000000
20
23.625000
30
26.698557
0
VERTEX
8
0
6
CONTINUOUS
62
252
70
192
10
6.000000
20
23.980455
30
26.864308
0
VERTEX
8
0
6
CONTINUOUS
62
252
70
192
10
6.000000
20
24.359292
30
26.965817
0
VERTEX
8
0
6
CONTINUOUS
62
252
70
192
10
6.000000
20
24.750000
30
27.000000
0
VERTEX
8
0
6
CONTINUOUS
62
252
70
192
10
6.000000
20
25.140708
30
26.965817
0
VERTEX
8
0
6
CONTINUOUS
62
252
70
192
10
6.000000
20
25.519545
30
26.864308
0
VERTEX
8
0
6
CONTINUOUS
62
252
70
192
10
6.000000
20
25.875000
30
26.698557
0
VERTEX
8
0
6
CONTINUOUS
62
252
70
192
10
6.000000
20
26.196272
30
26.473600
0
VERTEX
8
0
6
CONTINUOUS
62
252
70
192
10
6.000000
20
26.473600
30
26.196272
0
VERTEX
8
0
6
CONTINUOUS
62
252
70
192
10
6.000000
20
26.698557
30
25.875000
0
VERTEX
8
0
6
CONTINUOUS
62
252
70
192
10
6.000000
20
26.864308
30
25.519545
0
VERTEX
8
0
6
CONTINUOUS
62
252
70
192
10
6.000000
20
26.965817
30
25.140708
0
VERTEX
8
0
6
CONTINUOUS
62
252
70
192
10
6.000000
20
27.000000
30
24.750000
0
VERTEX
8
0
6
CONTINUOUS
62
252
70
192
10
6.000000
20
26.965817
30
24.359292
0
VERTEX
8
0
6
CONTINUOUS
62
252
70
192
10
6.000000
20
26.864308
30
23.980455
0
VERTEX
8
0
6
CONTINUOUS
62
252
70
192
10
6.000000
20
26.698557
30
23.625000
0
VERTEX
8
0
6
CONTINUOUS
62
252
70
192
10
6.000000
20
26.473600
30
23.303728
0
VERTEX
8
0
6
CONTINUOUS
62
252
70
192
10
6.000000
20
26.196272
30
23.026400
0
VERTEX
8
0
6
CONTINUOUS
62
252
70
192
10
6.000000
20
25.875000
30
22.801443
0
VERTEX
8
0
6
CONTINUOUS
62
252
70
192
10
6.000000
20
25.519545
30
22.635692
0
VERTEX
8
0
6
CONTINUOUS
62
252
70
192
10
6.000000
20
25.140708
30
22.534183
0
VERTEX
8
0
6
CONTINUOUS
62
252
70
192
10
6.000000
20
-24.750000
30
22.500000
0
VERTEX
8
0
6
CONTINUOUS
62
252
70
192
10
6.000000
20
-25.140708
30
22.534183
0
VERTEX
8
0
6
CONTINUOUS
62
252
70
192
10
6.000000
20
-25.519545
30
22.635692
0
VERTEX
8
0
6
CONTINUOUS
62
252
70
192
10
6.000000
20
-25.875000
30
22.801443
0
VERTEX
8
0
6
CONTINUOUS
62
252
70
192
10
6.000000
20
-26.196272
30
23.026400
0
VERTEX
8
0
6
CONTINUOUS
62
252
70
192
10
6.000000
20
-26.473600
30
23.303728
0
VERTEX
8
0
6
CONTINUOUS
62
252
70
192
10
6.000000
20
-26.698557
30
23.625000
0
VERTEX
8
0
6
CONTINUOUS
62
252
70
192
10
6.000000
20
-26.864308
30
23.980455
0
VERTEX
8
0
6
CONTINUOUS
62
252
70
192
10
6.000000
20
-26.965817
30
24.359292
0
VERTEX
8
0
6
CONTINUOUS
62
252
70
192
10
6.000000
20
-27.000000
30
24.750000
0
VERTEX
8
0
6
CONTINUOUS
62
252
70
192
10
6.000000
20
-26.965817
30
25.140708
0
VERTEX
8
0
6
CONTINUOUS
62
252
70
192
10
6.000000
20
-26.864308
30
25.519545
0
VERTEX
8
0
6
CONTINUOUS
62
252
70
192
10
6.000000
20
-26.698557
30
25.875000
0
VERTEX
8
0
6
CONTINUOUS
62
252
70
192
10
6.000000
20
-26.473600
30
26.196272
0
VERTEX
8
0
6
CONTINUOUS
62
252
70
192
10
6.000000
20
-26.196272
30
26.473600
0
VERTEX
8
0
6
CONTINUOUS
62
252
70
192
10
6.000000
20
-25.875000
30
26.698557
0
VERTEX
8
0
6
CONTINUOUS
62
252
70
192
10
6.000000
20
-25.519545
30
26.864308
0
VERTEX
8
0
6
CONTINUOUS
62
252
70
192
10
6.000000
20
-25.140708
30
26.965817
0
VERTEX
8
0
6
CONTINUOUS
62
252
70
192
10
6.000000
20
-24.750000
30
27.000000
0
VERTEX
8
0
6
CONTINUOUS
62
252
70
192
10
6.000000
20
-24.359292
30
26.965817
0
VERTEX
8
0
6
CONTINUOUS
62
252
70
192
10
6.000000
20
-23.980455
30
26.864308
0
VERTEX
8
0
6
CONTINUOUS
62
252
70
192
10
6.000000
20
-23.625000
30
26.698557
0
VERTEX
8
0
6
CONTINUOUS
62
252
70
192
10
6.000000
20
-23.303728
30
26.473600
0
VERTEX
8
0
6
CONTINUOUS
62
252
70
192
10
6.000000
20
-23.026400
30
26.196272
0
VERTEX
8
0
6
CONTINUOUS
62
252
70
192
10
6.000000
20
-22.801443
30
25.875000
0
VERTEX
8
0
6
CONTINUOUS
62
252
70
192
10
6.000000
20
-22.635692
30
25.519545
0
VERTEX
8
0
6
CONTINUOUS
62
252
70
192
10
6.000000
20
-22.534183
30
25.140708
0
VERTEX
8
0
6
CONTINUOUS
62
252
70
192
10
6.000000
20
-22.500000
30
24.750000
0
VERTEX
8
0
6
CONTINUOUS
62
252
70
192
10
6.000000
20
-22.534183
30
24.359292
0
VERTEX
8
0
6
CONTINUOUS
62
252
70
192
10
6.000000
20
-22.635692
30
23.980455
0
VERTEX
8
0
6
CONTINUOUS
62
252
70
192
10
6.000000
20
-22.801443
30
23.625000
0
VERTEX
8
0
6
CONTINUOUS
62
252
70
192
10
6.000000
20
-23.026400
30
23.303728
0
VERTEX
8
0
6
CONTINUOUS
62
252
70
192
10
6.000000
20
-23.303728
30
23.026400
0
VERTEX
8
0
6
CONTINUOUS
62
252
70
192
10
6.000000
20
-23.625000
30
22.801443
0
VERTEX
8
0
6
CONTINUOUS
62
252
70
192
10
6.000000
20
-23.980455
30
22.635692
0
VERTEX
8
0
6
CONTINUOUS
62
252
70
192
10
6.000000
20
-24.359292
30
22.534183
0
VERTEX
8
0
6
CONTINUOUS
62
252
70
192
10
6.000000
20
25.000000
30
30.500000
0
VERTEX
8
0
6
CONTINUOUS
62
252
70
192
10
6.000000
20
-25.000000
30
30.500000
0
VERTEX
8
0
6
CONTINUOUS
62
252
70
192
10
6.000000
20
-25.955065
30
30.416443
0
VERTEX
8
0
6
CONTINUOUS
62
252
70
192
10
6.000000
20
-26.881111
30
30.168309
0
VERTEX
8
0
6
CONTINUOUS
62
252
70
192
10
6.000000
20
-27.750000
30
29.763140
0
VERTEX
8
0
6
CONTINUOUS
62
252
70
192
10
6.000000
20
-28.535332
30
29.213244
0
VERTEX
8
0
6
CONTINUOUS
62
252
70
192
10
6.000000
20
-29.213244
30
28.535332
0
VERTEX
8
0
6
CONTINUOUS
62
252
70
192
10
6.000000
20
-29.763140
30
27.750000
0
VERTEX
8
0
6
CONTINUOUS
62
252
70
192
10
6.000000
20
-30.168309
30
26.881111
0
VERTEX
8
0
6
CONTINUOUS
62
252
70
192
10
6.000000
20
-30.416443
30
25.955065
0
VERTEX
8
0
6
CONTINUOUS
62
252
70
192
10
6.000000
20
-30.500000
30
25.000000
0
VERTEX
8
0
6
CONTINUOUS
62
252
70
192
10
6.000000
20
-30.500000
30
-25.000000
0
VERTEX
8
0
6
CONTINUOUS
62
252
70
192
10
6.000000
20
-30.416443
30
-25.955065
0
VERTEX
8
0
6
CONTINUOUS
62
252
70
192
10
6.000000
20
-30.168309
30
-26.881111
0
VERTEX
8
0
6
CONTINUOUS
62
252
70
192
10
6.000000
20
-29.763140
30
-27.750000
0
VERTEX
8
0
6
CONTINUOUS
62
252
70
192
10
6.000000
20
-29.213244
30
-28.535332
0
VERTEX
8
0
6
CONTINUOUS
62
252
70
192
10
6.000000
20
-28.535332
30
-29.213244
0
VERTEX
8
0
6
CONTINUOUS
62
252
70
192
10
6.000000
20
-27.750000
30
-29.763140
0
VERTEX
8
0
6
CONTINUOUS
62
252
70
192
10
6.000000
20
-26.881111
30
-30.168309
0
VERTEX
8
0
6
CONTINUOUS
62
252
70
192
10
6.000000
20
-25.955065
30
-30.416443
0
VERTEX
8
0
6
CONTINUOUS
62
252
70
192
10
6.000000
20
-25.000000
30
-30.500000
0
VERTEX
8
0
6
CONTINUOUS
62
252
70
192
10
6.000000
20
25.000000
30
-30.500000
0
VERTEX
8
0
6
CONTINUOUS
62
252
70
192
10
6.000000
20
25.955065
30
-30.416443
0
VERTEX
8
0
6
CONTINUOUS
62
252
70
192
10
6.000000
20
26.881111
30
-30.168309
0
VERTEX
8
0
6
CONTINUOUS
62
252
70
192
10
6.000000
20
27.750000
30
-29.763140
0
VERTEX
8
0
6
CONTINUOUS
62
252
70
192
10
6.000000
20
28.535332
30
-29.213244
0
VERTEX
8
0
6
CONTINUOUS
62
252
70
192
10
6.000000
20
29.213244
30
-28.535332
0
VERTEX
8
0
6
CONTINUOUS
62
252
70
192
10
6.000000
20
29.763140
30
-27.750000
0
VERTEX
8
0
6
CONTINUOUS
62
252
70
192
10
6.000000
20
30.168309
30
-26.881111
0
VERTEX
8
0
6
CONTINUOUS
62
252
70
192
10
6.000000
20
30.416443
30
-25.955065
0
VERTEX
8
0
6
CONTINUOUS
62
252
70
192
10
6.000000
20
30.500000
30
-25.000000
0
VERTEX
8
0
6
CONTINUOUS
62
252
70
192
10
6.000000
20
30.500000
30
25.000000
0
VERTEX
8
0
6
CONTINUOUS
62
252
70
192
10
6.000000
20
30.416443
30
25.955065
0
VERTEX
8
0
6
CONTINUOUS
62
252
70
192
10
6.000000
20
30.168309
30
26.881111
0
VERTEX
8
0
6
CONTINUOUS
62
252
70
192
10
6.000000
20
29.763140
30
27.750000
0
VERTEX
8
0
6
CONTINUOUS
62
252
70
192
10
6.000000
20
29.213244
30
28.535332
0
VERTEX
8
0
6
CONTINUOUS
62
252
70
192
10
6.000000
20
28.535332
30
29.213244
0
VERTEX
8
0
6
CONTINUOUS
62
252
70
192
10
6.000000
20
27.750000
30
29.763140
0
VERTEX
8
0
6
CONTINUOUS
62
252
70
192
10
6.000000
20
26.881111
30
30.168309
0
VERTEX
8
0
6
CONTINUOUS
62
252
70
192
10
6.000000
20
25.955065
30
30.416443
0
VERTEX
8
0
6
CONTINUOUS
62
252
70
128
10
0.000000
20
0.000000
30
0.000000
71
36
72
1
73
166
0
VERTEX
8
0
6
CONTINUOUS
62
252
70
128
10
0.000000
20
0.000000
30
0.000000
71
166
72
1
73
2
0
VERTEX
8
0
6
CONTINUOUS
62
252
70
128
10
0.000000
20
0.000000
30
0.000000
71
166
72
2
73
3
0
VERTEX
8
0
6
CONTINUOUS
62
252
70
128
10
0.000000
20
0.000000
30
0.000000
71
3
72
4
73
166
0
VERTEX
8
0
6
CONTINUOUS
62
252
70
128
10
0.000000
20
0.000000
30
0.000000
71
166
72
4
73
5
0
VERTEX
8
0
6
CONTINUOUS
62
252
70
128
10
0.000000
20
0.000000
30
0.000000
71
166
72
5
73
6
0
VERTEX
8
0
6
CONTINUOUS
62
252
70
128
10
0.000000
20
0.000000
30
0.000000
71
6
72
7
73
166
0
VERTEX
8
0
6
CONTINUOUS
62
252
70
128
10
0.000000
20
0.000000
30
0.000000
71
166
72
7
73
67
0
VERTEX
8
0
6
CONTINUOUS
62
252
70
128
10
0.000000
20
0.000000
30
0.000000
71
166
72
67
73
165
0
VERTEX
8
0
6
CONTINUOUS
62
252
70
128
10
0.000000
20
0.000000
30
0.000000
71
165
72
67
73
68
0
VERTEX
8
0
6
CONTINUOUS
62
252
70
128
10
0.000000
20
0.000000
30
0.000000
71
165
72
68
73
69
0
VERTEX
8
0
6
CONTINUOUS
62
252
70
128
10
0.000000
20
0.000000
30
0.000000
71
7
72
8
73
67
0
VERTEX
8
0
6
CONTINUOUS
62
252
70
128
10
0.000000
20
0.000000
30
0.000000
71
67
72
8
73
66
0
VERTEX
8
0
6
CONTINUOUS
62
252
70
128
10
0.000000
20
0.000000
30
0.000000
71
66
72
8
73
65
0
VERTEX
8
0
6
CONTINUOUS
62
252
70
128
10
0.000000
20
0.000000
30
0.000000
71
65
72
8
73
9
0
VERTEX
8
0
6
CONTINUOUS
62
252
70
128
10
0.000000
20
0.000000
30
0.000000
71
65
72
9
73
10
0
VERTEX
8
0
6
CONTINUOUS
62
252
70
128
10
0.000000
20
0.000000
30
0.000000
71
65
72
10
73
64
0
VERTEX
8
0
6
CONTINUOUS
62
252
70
128
10
0.000000
20
0.000000
30
0.000000
71
64
72
10
73
11
0
VERTEX
8
0
6
CONTINUOUS
62
252
70
128
10
0.000000
20
0.000000
30
0.000000
71
64
72
11
73
63
0
VERTEX
8
0
6
CONTINUOUS
62
252
70
128
10
0.000000
20
0.000000
30
0.000000
71
63
72
11
73
12
0
VERTEX
8
0
6
CONTINUOUS
62
252
70
128
10
0.000000
20
0.000000
30
0.000000
71
63
72
12
73
62
0
VERTEX
8
0
6
CONTINUOUS
62
252
70
128
10
0.000000
20
0.000000
30
0.000000
71
62
72
12
73
13
0
VERTEX
8
0
6
CONTINUOUS
62
252
70
128
10
0.000000
20
0.000000
30
0.000000
71
62
72
13
73
61
0
VERTEX
8
0
6
CONTINUOUS
62
252
70
128
10
0.000000
20
0.000000
30
0.000000
71
61
72
13
73
14
0
VERTEX
8
0
6
CONTINUOUS
62
252
70
128
10
0.000000
20
0.000000
30
0.000000
71
61
72
14
73
60
0
VERTEX
8
0
6
CONTINUOUS
62
252
70
128
10
0.000000
20
0.000000
30
0.000000
71
60
72
14
73
15
0
VERTEX
8
0
6
CONTINUOUS
62
252
70
128
10
0.000000
20
0.000000
30
0.000000
71
60
72
15
73
77
0
VERTEX
8
0
6
CONTINUOUS
62
252
70
128
10
0.000000
20
0.000000
30
0.000000
71
77
72
15
73
76
0
VERTEX
8
0
6
CONTINUOUS
62
252
70
128
10
0.000000
20
0.000000
30
0.000000
71
76
72
15
73
16
0
VERTEX
8
0
6
CONTINUOUS
62
252
70
128
10
0.000000
20
0.000000
30
0.000000
71
76
72
16
73
75
0
VERTEX
8
0
6
CONTINUOUS
62
252
70
128
10
0.000000
20
0.000000
30
0.000000
71
75
72
16
73
17
0
VERTEX
8
0
6
CONTINUOUS
62
252
70
128
10
0.000000
20
0.000000
30
0.000000
71
75
72
17
73
18
0
VERTEX
8
0
6
CONTINUOUS
62
252
70
128
10
0.000000
20
0.000000
30
0.000000
71
75
72
18
73
74
0
VERTEX
8
0
6
CONTINUOUS
62
252
70
128
10
0.000000
20
0.000000
30
0.000000
71
74
72
18
73
19
0
VERTEX
8
0
6
CONTINUOUS
62
252
70
128
10
0.000000
20
0.000000
30
0.000000
71
74
72
19
73
73
0
VERTEX
8
0
6
CONTINUOUS
62
252
70
128
10
0.000000
20
0.000000
30
0.000000
71
73
72
19
73
108
0
VERTEX
8
0
6
CONTINUOUS
62
252
70
128
10
0.000000
20
0.000000
30
0.000000
71
108
72
19
73
20
0
VERTEX
8
0
6
CONTINUOUS
62
252
70
128
10
0.000000
20
0.000000
30
0.000000
71
108
72
20
73
107
0
VERTEX
8
0
6
CONTINUOUS
62
252
70
128
10
0.000000
20
0.000000
30
0.000000
71
107
72
20
73
21
0
VERTEX
8
0
6
CONTINUOUS
62
252
70
128
10
0.000000
20
0.000000
30
0.000000
71
107
72
21
73
22
0
VERTEX
8
0
6
CONTINUOUS
62
252
70
128
10
0.000000
20
0.000000
30
0.000000
71
23
72
175
73
22
0
VERTEX
8
0
6
CONTINUOUS
62
252
70
128
10
0.000000
20
0.000000
30
0.000000
71
22
72
175
73
176
0
VERTEX
8
0
6
CONTINUOUS
62
252
70
128
10
0.000000
20
0.000000
30
0.000000
71
22
72
176
73
106
0
VERTEX
8
0
6
CONTINUOUS
62
252
70
128
10
0.000000
20
0.000000
30
0.000000
71
106
72
176
73
105
0
VERTEX
8
0
6
CONTINUOUS
62
252
70
128
10
0.000000
20
0.000000
30
0.000000
71
105
72
176
73
104
0
VERTEX
8
0
6
CONTINUOUS
62
252
70
128
10
0.000000
20
0.000000
30
0.000000
71
104
72
176
73
103
0
VERTEX
8
0
6
CONTINUOUS
62
252
70
128
10
0.000000
20
0.000000
30
0.000000
71
103
72
176
73
102
0
VERTEX
8
0
6
CONTINUOUS
62
252
70
128
10
0.000000
20
0.000000
30
0.000000
71
102
72
176
73
101
0
VERTEX
8
0
6
CONTINUOUS
62
252
70
128
10
0.000000
20
0.000000
30
0.000000
71
101
72
176
73
100
0
VERTEX
8
0
6
CONTINUOUS
62
252
70
128
10
0.000000
20
0.000000
30
0.000000
71
100
72
176
73
99
0
VERTEX
8
0
6
CONTINUOUS
62
252
70
128
10
0.000000
20
0.000000
30
0.000000
71
99
72
176
73
177
0
VERTEX
8
0
6
CONTINUOUS
62
252
70
128
10
0.000000
20
0.000000
30
0.000000
71
99
72
177
73
98
0
VERTEX
8
0
6
CONTINUOUS
62
252
70
128
10
0.000000
20
0.000000
30
0.000000
71
98
72
177
73
178
0
VERTEX
8
0
6
CONTINUOUS
62
252
70
128
10
0.000000
20
0.000000
30
0.000000
71
98
72
178
73
97
0
VERTEX
8
0
6
CONTINUOUS
62
252
70
128
10
0.000000
20
0.000000
30
0.000000
71
97
72
178
73
179
0
VERTEX
8
0
6
CONTINUOUS
62
252
70
128
10
0.000000
20
0.000000
30
0.000000
71
97
72
179
73
96
0
VERTEX
8
0
6
CONTINUOUS
62
252
70
128
10
0.000000
20
0.000000
30
0.000000
71
96
72
179
73
180
0
VERTEX
8
0
6
CONTINUOUS
62
252
70
128
10
0.000000
20
0.000000
30
0.000000
71
96
72
180
73
95
0
VERTEX
8
0
6
CONTINUOUS
62
252
70
128
10
0.000000
20
0.000000
30
0.000000
71
95
72
180
73
181
0
VERTEX
8
0
6
CONTINUOUS
62
252
70
128
10
0.000000
20
0.000000
30
0.000000
71
95
72
181
73
182
0
VERTEX
8
0
6
CONTINUOUS
62
252
70
128
10
0.000000
20
0.000000
30
0.000000
71
23
72
24
73
175
0
VERTEX
8
0
6
CONTINUOUS
62
252
70
128
10
0.000000
20
0.000000
30
0.000000
71
175
72
24
73
25
0
VERTEX
8
0
6
CONTINUOUS
62
252
70
128
10
0.000000
20
0.000000
30
0.000000
71
175
72
25
73
26
0
VERTEX
8
0
6
CONTINUOUS
62
252
70
128
10
0.000000
20
0.000000
30
0.000000
71
26
72
27
73
175
0
VERTEX
8
0
6
CONTINUOUS
62
252
70
128
10
0.000000
20
0.000000
30
0.000000
71
175
72
27
73
28
0
VERTEX
8
0
6
CONTINUOUS
62
252
70
128
10
0.000000
20
0.000000
30
0.000000
71
175
72
28
73
29
0
VERTEX
8
0
6
CONTINUOUS
62
252
70
128
10
0.000000
20
0.000000
30
0.000000
71
175
72
29
73
174
0
VERTEX
8
0
6
CONTINUOUS
62
252
70
128
10
0.000000
20
0.000000
30
0.000000
71
174
72
29
73
30
0
VERTEX
8
0
6
CONTINUOUS
62
252
70
128
10
0.000000
20
0.000000
30
0.000000
71
174
72
30
73
173
0
VERTEX
8
0
6
CONTINUOUS
62
252
70
128
10
0.000000
20
0.000000
30
0.000000
71
173
72
30
73
31
0
VERTEX
8
0
6
CONTINUOUS
62
252
70
128
10
0.000000
20
0.000000
30
0.000000
71
173
72
31
73
172
0
VERTEX
8
0
6
CONTINUOUS
62
252
70
128
10
0.000000
20
0.000000
30
0.000000
71
172
72
31
73
32
0
VERTEX
8
0
6
CONTINUOUS
62
252
70
128
10
0.000000
20
0.000000
30
0.000000
71
172
72
32
73
171
0
VERTEX
8
0
6
CONTINUOUS
62
252
70
128
10
0.000000
20
0.000000
30
0.000000
71
171
72
32
73
33
0
VERTEX
8
0
6
CONTINUOUS
62
252
70
128
10
0.000000
20
0.000000
30
0.000000
71
171
72
33
73
170
0
VERTEX
8
0
6
CONTINUOUS
62
252
70
128
10
0.000000
20
0.000000
30
0.000000
71
170
72
33
73
169
0
VERTEX
8
0
6
CONTINUOUS
62
252
70
128
10
0.000000
20
0.000000
30
0.000000
71
169
72
33
73
34
0
VERTEX
8
0
6
CONTINUOUS
62
252
70
128
10
0.000000
20
0.000000
30
0.000000
71
169
72
34
73
168
0
VERTEX
8
0
6
CONTINUOUS
62
252
70
128
10
0.000000
20
0.000000
30
0.000000
71
168
72
34
73
35
0
VERTEX
8
0
6
CONTINUOUS
62
252
70
128
10
0.000000
20
0.000000
30
0.000000
71
168
72
35
73
167
0
VERTEX
8
0
6
CONTINUOUS
62
252
70
128
10
0.000000
20
0.000000
30
0.000000
71
167
72
35
73
36
0
VERTEX
8
0
6
CONTINUOUS
62
252
70
128
10
0.000000
20
0.000000
30
0.000000
71
167
72
36
73
166
0
VERTEX
8
0
6
CONTINUOUS
62
252
70
128
10
0.000000
20
0.000000
30
0.000000
71
72
72
37
73
165
0
VERTEX
8
0
6
CONTINUOUS
62
252
70
128
10
0.000000
20
0.000000
30
0.000000
71
165
72
37
73
38
0
VERTEX
8
0
6
CONTINUOUS
62
252
70
128
10
0.000000
20
0.000000
30
0.000000
71
165
72
38
73
164
0
VERTEX
8
0
6
CONTINUOUS
62
252
70
128
10
0.000000
20
0.000000
30
0.000000
71
164
72
38
73
39
0
VERTEX
8
0
6
CONTINUOUS
62
252
70
128
10
0.000000
20
0.000000
30
0.000000
71
164
72
39
73
163
0
VERTEX
8
0
6
CONTINUOUS
62
252
70
128
10
0.000000
20
0.000000
30
0.000000
71
163
72
39
73
40
0
VERTEX
8
0
6
CONTINUOUS
62
252
70
128
10
0.000000
20
0.000000
30
0.000000
71
163
72
40
73
162
0
VERTEX
8
0
6
CONTINUOUS
62
252
70
128
10
0.000000
20
0.000000
30
0.000000
71
162
72
40
73
41
0
VERTEX
8
0
6
CONTINUOUS
62
252
70
128
10
0.000000
20
0.000000
30
0.000000
71
162
72
41
73
161
0
VERTEX
8
0
6
CONTINUOUS
62
252
70
128
10
0.000000
20
0.000000
30
0.000000
71
161
72
41
73
160
0
VERTEX
8
0
6
CONTINUOUS
62
252
70
128
10
0.000000
20
0.000000
30
0.000000
71
160
72
41
73
42
0
VERTEX
8
0
6
CONTINUOUS
62
252
70
128
10
0.000000
20
0.000000
30
0.000000
71
160
72
42
73
159
0
VERTEX
8
0
6
CONTINUOUS
62
252
70
128
10
0.000000
20
0.000000
30
0.000000
71
159
72
42
73
43
0
VERTEX
8
0
6
CONTINUOUS
62
252
70
128
10
0.000000
20
0.000000
30
0.000000
71
159
72
43
73
158
0
VERTEX
8
0
6
CONTINUOUS
62
252
70
128
10
0.000000
20
0.000000
30
0.000000
71
158
72
43
73
44
0
VERTEX
8
0
6
CONTINUOUS
62
252
70
128
10
0.000000
20
0.000000
30
0.000000
71
158
72
44
73
157
0
VERTEX
8
0
6
CONTINUOUS
62
252
70
128
10
0.000000
20
0.000000
30
0.000000
71
157
72
44
73
45
0
VERTEX
8
0
6
CONTINUOUS
62
252
70
128
10
0.000000
20
0.000000
30
0.000000
71
157
72
45
73
156
0
VERTEX
8
0
6
CONTINUOUS
62
252
70
128
10
0.000000
20
0.000000
30
0.000000
71
156
72
45
73
46
0
VERTEX
8
0
6
CONTINUOUS
62
252
70
128
10
0.000000
20
0.000000
30
0.000000
71
156
72
46
73
47
0
VERTEX
8
0
6
CONTINUOUS
62
252
70
128
10
0.000000
20
0.000000
30
0.000000
71
47
72
48
73
156
0
VERTEX
8
0
6
CONTINUOUS
62
252
70
128
10
0.000000
20
0.000000
30
0.000000
71
156
72
48
73
49
0
VERTEX
8
0
6
CONTINUOUS
62
252
70
128
10
0.000000
20
0.000000
30
0.000000
71
156
72
49
73
50
0
VERTEX
8
0
6
CONTINUOUS
62
252
70
128
10
0.000000
20
0.000000
30
0.000000
71
50
72
51
73
156
0
VERTEX
8
0
6
CONTINUOUS
62
252
70
128
10
0.000000
20
0.000000
30
0.000000
71
156
72
51
73
52
0
VERTEX
8
0
6
CONTINUOUS
62
252
70
128
10
0.000000
20
0.000000
30
0.000000
71
156
72
52
73
112
0
VERTEX
8
0
6
CONTINUOUS
62
252
70
128
10
0.000000
20
0.000000
30
0.000000
71
112
72
52
73
111
0
VERTEX
8
0
6
CONTINUOUS
62
252
70
128
10
0.000000
20
0.000000
30
0.000000
71
111
72
52
73
53
0
VERTEX
8
0
6
CONTINUOUS
62
252
70
128
10
0.000000
20
0.000000
30
0.000000
71
111
72
53
73
54
0
VERTEX
8
0
6
CONTINUOUS
62
252
70
128
10
0.000000
20
0.000000
30
0.000000
71
111
72
54
73
110
0
VERTEX
8
0
6
CONTINUOUS
62
252
70
128
10
0.000000
20
0.000000
30
0.000000
71
110
72
54
73
55
0
VERTEX
8
0
6
CONTINUOUS
62
252
70
128
10
0.000000
20
0.000000
30
0.000000
71
110
72
55
73
109
0
VERTEX
8
0
6
CONTINUOUS
62
252
70
128
10
0.000000
20
0.000000
30
0.000000
71
109
72
55
73
144
0
VERTEX
8
0
6
CONTINUOUS
62
252
70
128
10
0.000000
20
0.000000
30
0.000000
71
144
72
55
73
56
0
VERTEX
8
0
6
CONTINUOUS
62
252
70
128
10
0.000000
20
0.000000
30
0.000000
71
144
72
56
73
143
0
VERTEX
8
0
6
CONTINUOUS
62
252
70
128
10
0.000000
20
0.000000
30
0.000000
71
143
72
56
73
57
0
VERTEX
8
0
6
CONTINUOUS
62
252
70
128
10
0.000000
20
0.000000
30
0.000000
71
143
72
57
73
58
0
VERTEX
8
0
6
CONTINUOUS
62
252
70
128
10
0.000000
20
0.000000
30
0.000000
71
59
72
141
73
58
0
VERTEX
8
0
6
CONTINUOUS
62
252
70
128
10
0.000000
20
0.000000
30
0.000000
71
58
72
141
73
142
0
VERTEX
8
0
6
CONTINUOUS
62
252
70
128
10
0.000000
20
0.000000
30
0.000000
71
58
72
142
73
143
0
VERTEX
8
0
6
CONTINUOUS
62
252
70
128
10
0.000000
20
0.000000
30
0.000000
71
60
72
77
73
59
0
VERTEX
8
0
6
CONTINUOUS
62
252
70
128
10
0.000000
20
0.000000
30
0.000000
71
59
72
77
73
78
0
VERTEX
8
0
6
CONTINUOUS
62
252
70
128
10
0.000000
20
0.000000
30
0.000000
71
59
72
78
73
141
0
VERTEX
8
0
6
CONTINUOUS
62
252
70
128
10
0.000000
20
0.000000
30
0.000000
71
141
72
78
73
140
0
VERTEX
8
0
6
CONTINUOUS
62
252
70
128
10
0.000000
20
0.000000
30
0.000000
71
140
72
78
73
79
0
VERTEX
8
0
6
CONTINUOUS
62
252
70
128
10
0.000000
20
0.000000
30
0.000000
71
140
72
79
73
139
0
VERTEX
8
0
6
CONTINUOUS
62
252
70
128
10
0.000000
20
0.000000
30
0.000000
71
139
72
79
73
80
0
VERTEX
8
0
6
CONTINUOUS
62
252
70
128
10
0.000000
20
0.000000
30
0.000000
71
139
72
80
73
138
0
VERTEX
8
0
6
CONTINUOUS
62
252
70
128
10
0.000000
20
0.000000
30
0.000000
71
138
72
80
73
137
0
VERTEX
8
0
6
CONTINUOUS
62
252
70
128
10
0.000000
20
0.000000
30
0.000000
71
137
72
80
73
81
0
VERTEX
8
0
6
CONTINUOUS
62
252
70
128
10
0.000000
20
0.000000
30
0.000000
71
137
72
81
73
82
0
VERTEX
8
0
6
CONTINUOUS
62
252
70
128
10
0.000000
20
0.000000
30
0.000000
71
69
72
70
73
165
0
VERTEX
8
0
6
CONTINUOUS
62
252
70
128
10
0.000000
20
0.000000
30
0.000000
71
165
72
70
73
71
0
VERTEX
8
0
6
CONTINUOUS
62
252
70
128
10
0.000000
20
0.000000
30
0.000000
71
165
72
71
73
72
0
VERTEX
8
0
6
CONTINUOUS
62
252
70
128
10
0.000000
20
0.000000
30
0.000000
71
83
72
135
73
82
0
VERTEX
8
0
6
CONTINUOUS
62
252
70
128
10
0.000000
20
0.000000
30
0.000000
71
82
72
135
73
136
0
VERTEX
8
0
6
CONTINUOUS
62
252
70
128
10
0.000000
20
0.000000
30
0.000000
71
82
72
136
73
137
0
VERTEX
8
0
6
CONTINUOUS
62
252
70
128
10
0.000000
20
0.000000
30
0.000000
71
135
72
83
73
134
0
VERTEX
8
0
6
CONTINUOUS
62
252
70
128
10
0.000000
20
0.000000
30
0.000000
71
134
72
83
73
84
0
VERTEX
8
0
6
CONTINUOUS
62
252
70
128
10
0.000000
20
0.000000
30
0.000000
71
134
72
84
73
133
0
VERTEX
8
0
6
CONTINUOUS
62
252
70
128
10
0.000000
20
0.000000
30
0.000000
71
133
72
84
73
85
0
VERTEX
8
0
6
CONTINUOUS
62
252
70
128
10
0.000000
20
0.000000
30
0.000000
71
133
72
85
73
146
0
VERTEX
8
0
6
CONTINUOUS
62
252
70
128
10
0.000000
20
0.000000
30
0.000000
71
146
72
85
73
145
0
VERTEX
8
0
6
CONTINUOUS
62
252
70
128
10
0.000000
20
0.000000
30
0.000000
71
145
72
85
73
86
0
VERTEX
8
0
6
CONTINUOUS
62
252
70
128
10
0.000000
20
0.000000
30
0.000000
71
145
72
86
73
87
0
VERTEX
8
0
6
CONTINUOUS
62
252
70
128
10
0.000000
20
0.000000
30
0.000000
71
87
72
88
73
145
0
VERTEX
8
0
6
CONTINUOUS
62
252
70
128
10
0.000000
20
0.000000
30
0.000000
71
145
72
88
73
89
0
VERTEX
8
0
6
CONTINUOUS
62
252
70
128
10
0.000000
20
0.000000
30
0.000000
71
145
72
89
73
90
0
VERTEX
8
0
6
CONTINUOUS
62
252
70
128
10
0.000000
20
0.000000
30
0.000000
71
90
72
91
73
145
0
VERTEX
8
0
6
CONTINUOUS
62
252
70
128
10
0.000000
20
0.000000
30
0.000000
71
145
72
91
73
92
0
VERTEX
8
0
6
CONTINUOUS
62
252
70
128
10
0.000000
20
0.000000
30
0.000000
71
145
72
92
73
184
0
VERTEX
8
0
6
CONTINUOUS
62
252
70
128
10
0.000000
20
0.000000
30
0.000000
71
184
72
92
73
93
0
VERTEX
8
0
6
CONTINUOUS
62
252
70
128
10
0.000000
20
0.000000
30
0.000000
71
184
72
93
73
183
0
VERTEX
8
0
6
CONTINUOUS
62
252
70
128
10
0.000000
20
0.000000
30
0.000000
71
183
72
93
73
94
0
VERTEX
8
0
6
CONTINUOUS
62
252
70
128
10
0.000000
20
0.000000
30
0.000000
71
183
72
94
73
182
0
VERTEX
8
0
6
CONTINUOUS
62
252
70
128
10
0.000000
20
0.000000
30
0.000000
71
182
72
94
73
95
0
VERTEX
8
0
6
CONTINUOUS
62
252
70
128
10
0.000000
20
0.000000
30
0.000000
71
106
72
107
73
22
0
VERTEX
8
0
6
CONTINUOUS
62
252
70
128
10
0.000000
20
0.000000
30
0.000000
71
156
72
112
73
155
0
VERTEX
8
0
6
CONTINUOUS
62
252
70
128
10
0.000000
20
0.000000
30
0.000000
71
155
72
112
73
113
0
VERTEX
8
0
6
CONTINUOUS
62
252
70
128
10
0.000000
20
0.000000
30
0.000000
71
155
72
113
73
114
0
VERTEX
8
0
6
CONTINUOUS
62
252
70
128
10
0.000000
20
0.000000
30
0.000000
71
114
72
115
73
155
0
VERTEX
8
0
6
CONTINUOUS
62
252
70
128
10
0.000000
20
0.000000
30
0.000000
71
155
72
115
73
116
0
VERTEX
8
0
6
CONTINUOUS
62
252
70
128
10
0.000000
20
0.000000
30
0.000000
71
155
72
116
73
117
0
VERTEX
8
0
6
CONTINUOUS
62
252
70
128
10
0.000000
20
0.000000
30
0.000000
71
117
72
118
73
155
0
VERTEX
8
0
6
CONTINUOUS
62
252
70
128
10
0.000000
20
0.000000
30
0.000000
71
155
72
118
73
119
0
VERTEX
8
0
6
CONTINUOUS
62
252
70
128
10
0.000000
20
0.000000
30
0.000000
71
155
72
119
73
154
0
VERTEX
8
0
6
CONTINUOUS
62
252
70
128
10
0.000000
20
0.000000
30
0.000000
71
154
72
119
73
120
0
VERTEX
8
0
6
CONTINUOUS
62
252
70
128
10
0.000000
20
0.000000
30
0.000000
71
154
72
120
73
153
0
VERTEX
8
0
6
CONTINUOUS
62
252
70
128
10
0.000000
20
0.000000
30
0.000000
71
153
72
120
73
121
0
VERTEX
8
0
6
CONTINUOUS
62
252
70
128
10
0.000000
20
0.000000
30
0.000000
71
153
72
121
73
152
0
VERTEX
8
0
6
CONTINUOUS
62
252
70
128
10
0.000000
20
0.000000
30
0.000000
71
152
72
121
73
122
0
VERTEX
8
0
6
CONTINUOUS
62
252
70
128
10
0.000000
20
0.000000
30
0.000000
71
152
72
122
73
151
0
VERTEX
8
0
6
CONTINUOUS
62
252
70
128
10
0.000000
20
0.000000
30
0.000000
71
151
72
122
73
123
0
VERTEX
8
0
6
CONTINUOUS
62
252
70
128
10
0.000000
20
0.000000
30
0.000000
71
151
72
123
73
150
0
VERTEX
8
0
6
CONTINUOUS
62
252
70
128
10
0.000000
20
0.000000
30
0.000000
71
150
72
123
73
149
0
VERTEX
8
0
6
CONTINUOUS
62
252
70
128
10
0.000000
20
0.000000
30
0.000000
71
149
72
123
73
124
0
VERTEX
8
0
6
CONTINUOUS
62
252
70
128
10
0.000000
20
0.000000
30
0.000000
71
149
72
124
73
148
0
VERTEX
8
0
6
CONTINUOUS
62
252
70
128
10
0.000000
20
0.000000
30
0.000000
71
148
72
124
73
125
0
VERTEX
8
0
6
CONTINUOUS
62
252
70
128
10
0.000000
20
0.000000
30
0.000000
71
148
72
125
73
147
0
VERTEX
8
0
6
CONTINUOUS
62
252
70
128
10
0.000000
20
0.000000
30
0.000000
71
147
72
125
73
126
0
VERTEX
8
0
6
CONTINUOUS
62
252
70
128
10
0.000000
20
0.000000
30
0.000000
71
147
72
126
73
146
0
VERTEX
8
0
6
CONTINUOUS
62
252
70
128
10
0.000000
20
0.000000
30
0.000000
71
146
72
126
73
127
0
VERTEX
8
0
6
CONTINUOUS
62
252
70
128
10
0.000000
20
0.000000
30
0.000000
71
146
72
127
73
128
0
VERTEX
8
0
6
CONTINUOUS
62
252
70
128
10
0.000000
20
0.000000
30
0.000000
71
128
72
129
73
146
0
VERTEX
8
0
6
CONTINUOUS
62
252
70
128
10
0.000000
20
0.000000
30
0.000000
71
146
72
129
73
130
0
VERTEX
8
0
6
CONTINUOUS
62
252
70
128
10
0.000000
20
0.000000
30
0.000000
71
146
72
130
73
131
0
VERTEX
8
0
6
CONTINUOUS
62
252
70
128
10
0.000000
20
0.000000
30
0.000000
71
131
72
132
73
146
0
VERTEX
8
0
6
CONTINUOUS
62
252
70
128
10
0.000000
20
0.000000
30
0.000000
71
146
72
132
73
133
0
SEQEND
0
POLYLINE
66
1
8
0
6
CONTINUOUS
62
252
70
64
75
0
10
0.000000
20
0.000000
30
0.000000
0
VERTEX
8
0
6
CONTINUOUS
62
252
70
192
10
0.000000
20
24.750000
30
-27.000000
0
VERTEX
8
0
6
CONTINUOUS
62
252
70
192
10
0.000000
20
25.140708
30
-26.965817
0
VERTEX
8
0
6
CONTINUOUS
62
252
70
192
10
0.000000
20
25.519545
30
-26.864308
0
VERTEX
8
0
6
CONTINUOUS
62
252
70
192
10
0.000000
20
25.875000
30
-26.698557
0
VERTEX
8
0
6
CONTINUOUS
62
252
70
192
10
0.000000
20
26.196272
30
-26.473600
0
VERTEX
8
0
6
CONTINUOUS
62
252
70
192
10
0.000000
20
26.473600
30
-26.196272
0
VERTEX
8
0
6
CONTINUOUS
62
252
70
192
10
0.000000
20
26.698557
30
-25.875000
0
VERTEX
8
0
6
CONTINUOUS
62
252
70
192
10
0.000000
20
26.864308
30
-25.519545
0
VERTEX
8
0
6
CONTINUOUS
62
252
70
192
10
0.000000
20
26.965817
30
-25.140708
0
VERTEX
8
0
6
CONTINUOUS
62
252
70
192
10
0.000000
20
27.000000
30
-24.750000
0
VERTEX
8
0
6
CONTINUOUS
62
252
70
192
10
0.000000
20
26.965817
30
-24.359292
0
VERTEX
8
0
6
CONTINUOUS
62
252
70
192
10
0.000000
20
26.864308
30
-23.980455
0
VERTEX
8
0
6
CONTINUOUS
62
252
70
192
10
0.000000
20
26.698557
30
-23.625000
0
VERTEX
8
0
6
CONTINUOUS
62
252
70
192
10
0.000000
20
26.473600
30
-23.303728
0
VERTEX
8
0
6
CONTINUOUS
62
252
70
192
10
0.000000
20
26.196272
30
-23.026400
0
VERTEX
8
0
6
CONTINUOUS
62
252
70
192
10
0.000000
20
25.875000
30
-22.801443
0
VERTEX
8
0
6
CONTINUOUS
62
252
70
192
10
0.000000
20
25.519545
30
-22.635692
0
VERTEX
8
0
6
CONTINUOUS
62
252
70
192
10
0.000000
20
25.140708
30
-22.534183
0
VERTEX
8
0
6
CONTINUOUS
62
252
70
192
10
0.000000
20
24.750000
30
-22.500000
0
VERTEX
8
0
6
CONTINUOUS
62
252
70
192
10
0.000000
20
24.359292
30
-22.534183
0
VERTEX
8
0
6
CONTINUOUS
62
252
70
192
10
0.000000
20
23.980455
30
-22.635692
0
VERTEX
8
0
6
CONTINUOUS
62
252
70
192
10
0.000000
20
23.625000
30
-22.801443
0
VERTEX
8
0
6
CONTINUOUS
62
252
70
192
10
0.000000
20
23.303728
30
-23.026400
0
VERTEX
8
0
6
CONTINUOUS
62
252
70
192
10
0.000000
20
23.026400
30
-23.303728
0
VERTEX
8
0
6
CONTINUOUS
62
252
70
192
10
0.000000
20
22.801443
30
-23.625000
0
VERTEX
8
0
6
CONTINUOUS
62
252
70
192
10
0.000000
20
22.635692
30
-23.980455
0
VERTEX
8
0
6
CONTINUOUS
62
252
70
192
10
0.000000
20
22.534183
30
-24.359292
0
VERTEX
8
0
6
CONTINUOUS
62
252
70
192
10
0.000000
20
22.500000
30
-24.750000
0
VERTEX
8
0
6
CONTINUOUS
62
252
70
192
10
0.000000
20
22.534183
30
-25.140708
0
VERTEX
8
0
6
CONTINUOUS
62
252
70
192
10
0.000000
20
22.635692
30
-25.519545
0
VERTEX
8
0
6
CONTINUOUS
62
252
70
192
10
0.000000
20
22.801443
30
-25.875000
0
VERTEX
8
0
6
CONTINUOUS
62
252
70
192
10
0.000000
20
23.026400
30
-26.196272
0
VERTEX
8
0
6
CONTINUOUS
62
252
70
192
10
0.000000
20
23.303728
30
-26.473600
0
VERTEX
8
0
6
CONTINUOUS
62
252
70
192
10
0.000000
20
23.625000
30
-26.698557
0
VERTEX
8
0
6
CONTINUOUS
62
252
70
192
10
0.000000
20
23.980455
30
-26.864308
0
VERTEX
8
0
6
CONTINUOUS
62
252
70
192
10
0.000000
20
24.359292
30
-26.965817
0
VERTEX
8
0
6
CONTINUOUS
62
252
70
192
10
0.000000
20
-24.750000
30
-27.000000
0
VERTEX
8
0
6
CONTINUOUS
62
252
70
192
10
0.000000
20
-24.359292
30
-26.965817
0
VERTEX
8
0
6
CONTINUOUS
62
252
70
192
10
0.000000
20
-23.980455
30
-26.864308
0
VERTEX
8
0
6
CONTINUOUS
62
252
70
192
10
0.000000
20
-23.625000
30
-26.698557
0
VERTEX
8
0
6
CONTINUOUS
62
252
70
192
10
0.000000
20
-23.303728
30
-26.473600
0
VERTEX
8
0
6
CONTINUOUS
62
252
70
192
10
0.000000
20
-23.026400
30
-26.196272
0
VERTEX
8
0
6
CONTINUOUS
62
252
70
192
10
0.000000
20
-22.801443
30
-25.875000
0
VERTEX
8
0
6
CONTINUOUS
62
252
70
192
10
0.000000
20
-22.635692
30
-25.519545
0
VERTEX
8
0
6
CONTINUOUS
62
252
70
192
10
0.000000
20
-22.534183
30
-25.140708
0
VERTEX
8
0
6
CONTINUOUS
62
252
70
192
10
0.000000
20
-22.500000
30
-24.750000
0
VERTEX
8
0
6
CONTINUOUS
62
252
70
192
10
0.000000
20
-22.534183
30
-24.359292
0
VERTEX
8
0
6
CONTINUOUS
62
252
70
192
10
0.000000
20
-22.635692
30
-23.980455
0
VERTEX
8
0
6
CONTINUOUS
62
252
70
192
10
0.000000
20
-22.801443
30
-23.625000
0
VERTEX
8
0
6
CONTINUOUS
62
252
70
192
10
0.000000
20
-23.026400
30
-23.303728
0
VERTEX
8
0
6
CONTINUOUS
62
252
70
192
10
0.000000
20
-23.303728
30
-23.026400
0
VERTEX
8
0
6
CONTINUOUS
62
252
70
192
10
0.000000
20
-23.625000
30
-22.801443
0
VERTEX
8
0
6
CONTINUOUS
62
252
70
192
10
0.000000
20
-23.980455
30
-22.635692
0
VERTEX
8
0
6
CONTINUOUS
62
252
70
192
10
0.000000
20
-24.359292
30
-22.534183
0
VERTEX
8
0
6
CONTINUOUS
62
252
70
192
10
0.000000
20
-24.750000
30
-22.500000
0
VERTEX
8
0
6
CONTINUOUS
62
252
70
192
10
0.000000
20
-25.140708
30
-22.534183
0
VERTEX
8
0
6
CONTINUOUS
62
252
70
192
10
0.000000
20
-25.519545
30
-22.635692
0
VERTEX
8
0
6
CONTINUOUS
62
252
70
192
10
0.000000
20
-25.875000
30
-22.801443
0
VERTEX
8
0
6
CONTINUOUS
62
252
70
192
10
0.000000
20
-26.196272
30
-23.026400
0
VERTEX
8
0
6
CONTINUOUS
62
252
70
192
10
0.000000
20
-26.473600
30
-23.303728
0
VERTEX
8
0
6
CONTINUOUS
62
252
70
192
10
0.000000
20
-26.698557
30
-23.625000
0
VERTEX
8
0
6
CONTINUOUS
62
252
70
192
10
0.000000
20
-26.864308
30
-23.980455
0
VERTEX
8
0
6
CONTINUOUS
62
252
70
192
10
0.000000
20
-26.965817
30
-24.359292
0
VERTEX
8
0
6
CONTINUOUS
62
252
70
192
10
0.000000
20
-27.000000
30
-24.750000
0
VERTEX
8
0
6
CONTINUOUS
62
252
70
192
10
0.000000
20
-26.965817
30
-25.140708
0
VERTEX
8
0
6
CONTINUOUS
62
252
70
192
10
0.000000
20
-26.864308
30
-25.519545
0
VERTEX
8
0
6
CONTINUOUS
62
252
70
192
10
0.000000
20
-26.698557
30
-25.875000
0
VERTEX
8
0
6
CONTINUOUS
62
252
70
192
10
0.000000
20
-26.473600
30
-26.196272
0
VERTEX
8
0
6
CONTINUOUS
62
252
70
192
10
0.000000
20
-26.196272
30
-26.473600
0
VERTEX
8
0
6
CONTINUOUS
62
252
70
192
10
0.000000
20
-25.875000
30
-26.698557
0
VERTEX
8
0
6
CONTINUOUS
62
252
70
192
10
0.000000
20
-25.519545
30
-26.864308
0
VERTEX
8
0
6
CONTINUOUS
62
252
70
192
10
0.000000
20
-25.140708
30
-26.965817
0
VERTEX
8
0
6
CONTINUOUS
62
252
70
192
10
-0.000000
20
24.750000
30
22.500000
0
VERTEX
8
0
6
CONTINUOUS
62
252
70
192
10
-0.000000
20
25.140708
30
22.534183
0
VERTEX
8
0
6
CONTINUOUS
62
252
70
192
10
-0.000000
20
25.519545
30
22.635692
0
VERTEX
8
0
6
CONTINUOUS
62
252
70
192
10
-0.000000
20
25.875000
30
22.801443
0
VERTEX
8
0
6
CONTINUOUS
62
252
70
192
10
-0.000000
20
26.196272
30
23.026400
0
VERTEX
8
0
6
CONTINUOUS
62
252
70
192
10
-0.000000
20
26.473600
30
23.303728
0
VERTEX
8
0
6
CONTINUOUS
62
252
70
192
10
-0.000000
20
26.698557
30
23.625000
0
VERTEX
8
0
6
CONTINUOUS
62
252
70
192
10
-0.000000
20
26.864308
30
23.980455
0
VERTEX
8
0
6
CONTINUOUS
62
252
70
192
10
-0.000000
20
26.965817
30
24.359292
0
VERTEX
8
0
6
CONTINUOUS
62
252
70
192
10
-0.000000
20
27.000000
30
24.750000
0
VERTEX
8
0
6
CONTINUOUS
62
252
70
192
10
-0.000000
20
26.965817
30
25.140708
0
VERTEX
8
0
6
CONTINUOUS
62
252
70
192
10
-0.000000
20
26.864308
30
25.519545
0
VERTEX
8
0
6
CONTINUOUS
62
252
70
192
10
-0.000000
20
26.698557
30
25.875000
0
VERTEX
8
0
6
CONTINUOUS
62
252
70
192
10
-0.000000
20
26.473600
30
26.196272
0
VERTEX
8
0
6
CONTINUOUS
62
252
70
192
10
-0.000000
20
26.196272
30
26.473600
0
VERTEX
8
0
6
CONTINUOUS
62
252
70
192
10
-0.000000
20
25.875000
30
26.698557
0
VERTEX
8
0
6
CONTINUOUS
62
252
70
192
10
-0.000000
20
25.519545
30
26.864308
0
VERTEX
8
0
6
CONTINUOUS
62
252
70
192
10
-0.000000
20
25.140708
30
26.965817
0
VERTEX
8
0
6
CONTINUOUS
62
252
70
192
10
-0.000000
20
24.750000
30
27.000000
0
VERTEX
8
0
6
CONTINUOUS
62
252
70
192
10
-0.000000
20
24.359292
30
26.965817
0
VERTEX
8
0
6
CONTINUOUS
62
252
70
192
10
-0.000000
20
23.980455
30
26.864308
0
VERTEX
8
0
6
CONTINUOUS
62
252
70
192
10
-0.000000
20
23.625000
30
26.698557
0
VERTEX
8
0
6
CONTINUOUS
62
252
70
192
10
-0.000000
20
23.303728
30
26.473600
0
VERTEX
8
0
6
CONTINUOUS
62
252
70
192
10
-0.000000
20
23.026400
30
26.196272
0
VERTEX
8
0
6
CONTINUOUS
62
252
70
192
10
-0.000000
20
22.801443
30
25.875000
0
VERTEX
8
0
6
CONTINUOUS
62
252
70
192
10
-0.000000
20
22.635692
30
25.519545
0
VERTEX
8
0
6
CONTINUOUS
62
252
70
192
10
-0.000000
20
22.534183
30
25.140708
0
VERTEX
8
0
6
CONTINUOUS
62
252
70
192
10
-0.000000
20
22.500000
30
24.750000
0
VERTEX
8
0
6
CONTINUOUS
62
252
70
192
10
-0.000000
20
22.534183
30
24.359292
0
VERTEX
8
0
6
CONTINUOUS
62
252
70
192
10
-0.000000
20
22.635692
30
23.980455
0
VERTEX
8
0
6
CONTINUOUS
62
252
70
192
10
-0.000000
20
22.801443
30
23.625000
0
VERTEX
8
0
6
CONTINUOUS
62
252
70
192
10
-0.000000
20
23.026400
30
23.303728
0
VERTEX
8
0
6
CONTINUOUS
62
252
70
192
10
-0.000000
20
23.303728
30
23.026400
0
VERTEX
8
0
6
CONTINUOUS
62
252
70
192
10
-0.000000
20
23.625000
30
22.801443
0
VERTEX
8
0
6
CONTINUOUS
62
252
70
192
10
-0.000000
20
23.980455
30
22.635692
0
VERTEX
8
0
6
CONTINUOUS
62
252
70
192
10
-0.000000
20
24.359292
30
22.534183
0
VERTEX
8
0
6
CONTINUOUS
62
252
70
192
10
-0.000000
20
-24.750000
30
22.500000
0
VERTEX
8
0
6
CONTINUOUS
62
252
70
192
10
-0.000000
20
-24.359292
30
22.534183
0
VERTEX
8
0
6
CONTINUOUS
62
252
70
192
10
-0.000000
20
-23.980455
30
22.635692
0
VERTEX
8
0
6
CONTINUOUS
62
252
70
192
10
-0.000000
20
-23.625000
30
22.801443
0
VERTEX
8
0
6
CONTINUOUS
62
252
70
192
10
-0.000000
20
-23.303728
30
23.026400
0
VERTEX
8
0
6
CONTINUOUS
62
252
70
192
10
-0.000000
20
-23.026400
30
23.303728
0
VERTEX
8
0
6
CONTINUOUS
62
252
70
192
10
-0.000000
20
-22.801443
30
23.625000
0
VERTEX
8
0
6
CONTINUOUS
62
252
70
192
10
-0.000000
20
-22.635692
30
23.980455
0
VERTEX
8
0
6
CONTINUOUS
62
252
70
192
10
-0.000000
20
-22.534183
30
24.359292
0
VERTEX
8
0
6
CONTINUOUS
62
252
70
192
10
-0.000000
20
-22.500000
30
24.750000
0
VERTEX
8
0
6
CONTINUOUS
62
252
70
192
10
-0.000000
20
-22.534183
30
25.140708
0
VERTEX
8
0
6
CONTINUOUS
62
252
70
192
10
-0.000000
20
-22.635692
30
25.519545
0
VERTEX
8
0
6
CONTINUOUS
62
252
70
192
10
-0.000000
20
-22.801443
30
25.875000
0
VERTEX
8
0
6
CONTINUOUS
62
252
70
192
10
-0.000000
20
-23.026400
30
26.196272
0
VERTEX
8
0
6
CONTINUOUS
62
252
70
192
10
-0.000000
20
-23.303728
30
26.473600
0
VERTEX
8
0
6
CONTINUOUS
62
252
70
192
10
-0.000000
20
-23.625000
30
26.698557
0
VERTEX
8
0
6
CONTINUOUS
62
252
70
192
10
-0.000000
20
-23.980455
30
26.864308
0
VERTEX
8
0
6
CONTINUOUS
62
252
70
192
10
-0.000000
20
-24.359292
30
26.965817
0
VERTEX
8
0
6
CONTINUOUS
62
252
70
192
10
-0.000000
20
-24.750000
30
27.000000
0
VERTEX
8
0
6
CONTINUOUS
62
252
70
192
10
-0.000000
20
-25.140708
30
26.965817
0
VERTEX
8
0
6
CONTINUOUS
62
252
70
192
10
-0.000000
20
-25.519545
30
26.864308
0
VERTEX
8
0
6
CONTINUOUS
62
252
70
192
10
-0.000000
20
-25.875000
30
26.698557
0
VERTEX
8
0
6
CONTINUOUS
62
252
70
192
10
-0.000000
20
-26.196272
30
26.473600
0
VERTEX
8
0
6
CONTINUOUS
62
252
70
192
10
-0.000000
20
-26.473600
30
26.196272
0
VERTEX
8
0
6
CONTINUOUS
62
252
70
192
10
-0.000000
20
-26.698557
30
25.875000
0
VERTEX
8
0
6
CONTINUOUS
62
252
70
192
10
-0.000000
20
-26.864308
30
25.519545
0
VERTEX
8
0
6
CONTINUOUS
62
252
70
192
10
-0.000000
20
-26.965817
30
25.140708
0
VERTEX
8
0
6
CONTINUOUS
62
252
70
192
10
-0.000000
20
-27.000000
30
24.750000
0
VERTEX
8
0
6
CONTINUOUS
62
252
70
192
10
-0.000000
20
-26.965817
30
24.359292
0
VERTEX
8
0
6
CONTINUOUS
62
252
70
192
10
-0.000000
20
-26.864308
30
23.980455
0
VERTEX
8
0
6
CONTINUOUS
62
252
70
192
10
-0.000000
20
-26.698557
30
23.625000
0
VERTEX
8
0
6
CONTINUOUS
62
252
70
192
10
-0.000000
20
-26.473600
30
23.303728
0
VERTEX
8
0
6
CONTINUOUS
62
252
70
192
10
-0.000000
20
-26.196272
30
23.026400
0
VERTEX
8
0
6
CONTINUOUS
62
252
70
192
10
-0.000000
20
-25.875000
30
22.801443
0
VERTEX
8
0
6
CONTINUOUS
62
252
70
192
10
-0.000000
20
-25.519545
30
22.635692
0
VERTEX
8
0
6
CONTINUOUS
62
252
70
192
10
-0.000000
20
-25.140708
30
22.534183
0
VERTEX
8
0
6
CONTINUOUS
62
252
70
192
10
-0.000000
20
0.000000
30
27.000000
0
VERTEX
8
0
6
CONTINUOUS
62
252
70
192
10
-0.000000
20
-4.688501
30
26.589809
0
VERTEX
8
0
6
CONTINUOUS
62
252
70
192
10
-0.000000
20
-9.234544
30
25.371701
0
VERTEX
8
0
6
CONTINUOUS
62
252
70
192
10
-0.000000
20
-13.500000
30
23.382686
0
VERTEX
8
0
6
CONTINUOUS
62
252
70
192
10
-0.000000
20
-17.355265
30
20.683200
0
VERTEX
8
0
6
CONTINUOUS
62
252
70
192
10
-0.000000
20
-20.683200
30
17.355265
0
VERTEX
8
0
6
CONTINUOUS
62
252
70
192
10
-0.000000
20
-23.382686
30
13.500000
0
VERTEX
8
0
6
CONTINUOUS
62
252
70
192
10
-0.000000
20
-25.371701
30
9.234544
0
VERTEX
8
0
6
CONTINUOUS
62
252
70
192
10
-0.000000
20
-26.589809
30
4.688501
0
VERTEX
8
0
6
CONTINUOUS
62
252
70
192
10
-0.000000
20
-27.000000
30
0.000000
0
VERTEX
8
0
6
CONTINUOUS
62
252
70
192
10
0.000000
20
-26.589809
30
-4.688501
0
VERTEX
8
0
6
CONTINUOUS
62
252
70
192
10
0.000000
20
-25.371701
30
-9.234544
0
VERTEX
8
0
6
CONTINUOUS
62
252
70
192
10
0.000000
20
-23.382686
30
-13.500000
0
VERTEX
8
0
6
CONTINUOUS
62
252
70
192
10
0.000000
20
-20.683200
30
-17.355265
0
VERTEX
8
0
6
CONTINUOUS
62
252
70
192
10
0.000000
20
-17.355265
30
-20.683200
0
VERTEX
8
0
6
CONTINUOUS
62
252
70
192
10
0.000000
20
-13.500000
30
-23.382686
0
VERTEX
8
0
6
CONTINUOUS
62
252
70
192
10
0.000000
20
-9.234544
30
-25.371701
0
VERTEX
8
0
6
CONTINUOUS
62
252
70
192
10
0.000000
20
-4.688501
30
-26.589809
0
VERTEX
8
0
6
CONTINUOUS
62
252
70
192
10
0.000000
20
-0.000000
30
-27.000000
0
VERTEX
8
0
6
CONTINUOUS
62
252
70
192
10
0.000000
20
4.688501
30
-26.589809
0
VERTEX
8
0
6
CONTINUOUS
62
252
70
192
10
0.000000
20
9.234544
30
-25.371701
0
VERTEX
8
0
6
CONTINUOUS
62
252
70
192
10
0.000000
20
13.500000
30
-23.382686
0
VERTEX
8
0
6
CONTINUOUS
62
252
70
192
10
0.000000
20
17.355265
30
-20.683200
0
VERTEX
8
0
6
CONTINUOUS
62
252
70
192
10
0.000000
20
20.683200
30
-17.355265
0
VERTEX
8
0
6
CONTINUOUS
62
252
70
192
10
0.000000
20
23.382686
30
-13.500000
0
VERTEX
8
0
6
CONTINUOUS
62
252
70
192
10
0.000000
20
25.371701
30
-9.234544
0
VERTEX
8
0
6
CONTINUOUS
62
252
70
192
10
0.000000
20
26.589809
30
-4.688501
0
VERTEX
8
0
6
CONTINUOUS
62
252
70
192
10
-0.000000
20
27.000000
30
-0.000000
0
VERTEX
8
0
6
CONTINUOUS
62
252
70
192
10
-0.000000
20
26.589809
30
4.688501
0
VERTEX
8
0
6
CONTINUOUS
62
252
70
192
10
-0.000000
20
25.371701
30
9.234544
0
VERTEX
8
0
6
CONTINUOUS
62
252
70
192
10
-0.000000
20
23.382686
30
13.500000
0
VERTEX
8
0
6
CONTINUOUS
62
252
70
192
10
-0.000000
20
20.683200
30
17.355265
0
VERTEX
8
0
6
CONTINUOUS
62
252
70
192
10
-0.000000
20
17.355265
30
20.683200
0
VERTEX
8
0
6
CONTINUOUS
62
252
70
192
10
-0.000000
20
13.500000
30
23.382686
0
VERTEX
8
0
6
CONTINUOUS
62
252
70
192
10
-0.000000
20
9.234544
30
25.371701
0
VERTEX
8
0
6
CONTINUOUS
62
252
70
192
10
-0.000000
20
4.688501
30
26.589809
0
VERTEX
8
0
6
CONTINUOUS
62
252
70
192
10
0.000000
20
-30.500000
30
-25.000000
0
VERTEX
8
0
6
CONTINUOUS
62
252
70
192
10
0.000000
20
-30.500000
30
25.000000
0
VERTEX
8
0
6
CONTINUOUS
62
252
70
192
10
0.000000
20
-30.416443
30
25.955065
0
VERTEX
8
0
6
CONTINUOUS
62
252
70
192
10
0.000000
20
-30.168309
30
26.881111
0
VERTEX
8
0
6
CONTINUOUS
62
252
70
192
10
0.000000
20
-29.763140
30
27.750000
0
VERTEX
8
0
6
CONTINUOUS
62
252
70
192
10
0.000000
20
-29.213244
30
28.535332
0
VERTEX
8
0
6
CONTINUOUS
62
252
70
192
10
0.000000
20
-28.535332
30
29.213244
0
VERTEX
8
0
6
CONTINUOUS
62
252
70
192
10
0.000000
20
-27.750000
30
29.763140
0
VERTEX
8
0
6
CONTINUOUS
62
252
70
192
10
0.000000
20
-26.881111
30
30.168309
0
VERTEX
8
0
6
CONTINUOUS
62
252
70
192
10
0.000000
20
-25.955065
30
30.416443
0
VERTEX
8
0
6
CONTINUOUS
62
252
70
192
10
0.000000
20
-25.000000
30
30.500000
0
VERTEX
8
0
6
CONTINUOUS
62
252
70
192
10
0.000000
20
25.000000
30
30.500000
0
VERTEX
8
0
6
CONTINUOUS
62
252
70
192
10
0.000000
20
25.955065
30
30.416443
0
VERTEX
8
0
6
CONTINUOUS
62
252
70
192
10
0.000000
20
26.881111
30
30.168309
0
VERTEX
8
0
6
CONTINUOUS
62
252
70
192
10
0.000000
20
27.750000
30
29.763140
0
VERTEX
8
0
6
CONTINUOUS
62
252
70
192
10
0.000000
20
28.535332
30
29.213244
0
VERTEX
8
0
6
CONTINUOUS
62
252
70
192
10
0.000000
20
29.213244
30
28.535332
0
VERTEX
8
0
6
CONTINUOUS
62
252
70
192
10
0.000000
20
29.763140
30
27.750000
0
VERTEX
8
0
6
CONTINUOUS
62
252
70
192
10
0.000000
20
30.168309
30
26.881111
0
VERTEX
8
0
6
CONTINUOUS
62
252
70
192
10
0.000000
20
30.416443
30
25.955065
0
VERTEX
8
0
6
CONTINUOUS
62
252
70
192
10
0.000000
20
30.500000
30
25.000000
0
VERTEX
8
0
6
CONTINUOUS
62
252
70
192
10
0.000000
20
30.500000
30
-25.000000
0
VERTEX
8
0
6
CONTINUOUS
62
252
70
192
10
0.000000
20
30.416443
30
-25.955065
0
VERTEX
8
0
6
CONTINUOUS
62
252
70
192
10
0.000000
20
30.168309
30
-26.881111
0
VERTEX
8
0
6
CONTINUOUS
62
252
70
192
10
0.000000
20
29.763140
30
-27.750000
0
VERTEX
8
0
6
CONTINUOUS
62
252
70
192
10
0.000000
20
29.213244
30
-28.535332
0
VERTEX
8
0
6
CONTINUOUS
62
252
70
192
10
0.000000
20
28.535332
30
-29.213244
0
VERTEX
8
0
6
CONTINUOUS
62
252
70
192
10
0.000000
20
27.750000
30
-29.763140
0
VERTEX
8
0
6
CONTINUOUS
62
252
70
192
10
0.000000
20
26.881111
30
-30.168309
0
VERTEX
8
0
6
CONTINUOUS
62
252
70
192
10
0.000000
20
25.955065
30
-30.416443
0
VERTEX
8
0
6
CONTINUOUS
62
252
70
192
10
0.000000
20
25.000000
30
-30.500000
0
VERTEX
8
0
6
CONTINUOUS
62
252
70
192
10
0.000000
20
-25.000000
30
-30.500000
0
VERTEX
8
0
6
CONTINUOUS
62
252
70
192
10
0.000000
20
-25.955065
30
-30.416443
0
VERTEX
8
0
6
CONTINUOUS
62
252
70
192
10
0.000000
20
-26.881111
30
-30.168309
0
VERTEX
8
0
6
CONTINUOUS
62
252
70
192
10
0.000000
20
-27.750000
30
-29.763140
0
VERTEX
8
0
6
CONTINUOUS
62
252
70
192
10
0.000000
20
-28.535332
30
-29.213244
0
VERTEX
8
0
6
CONTINUOUS
62
252
70
192
10
0.000000
20
-29.213244
30
-28.535332
0
VERTEX
8
0
6
CONTINUOUS
62
252
70
192
10
0.000000
20
-29.763140
30
-27.750000
0
VERTEX
8
0
6
CONTINUOUS
62
252
70
192
10
0.000000
20
-30.168309
30
-26.881111
0
VERTEX
8
0
6
CONTINUOUS
62
252
70
192
10
0.000000
20
-30.416443
30
-25.955065
0
VERTEX
8
0
6
CONTINUOUS
62
252
70
128
10
0.000000
20
0.000000
30
0.000000
71
36
72
1
73
211
0
VERTEX
8
0
6
CONTINUOUS
62
252
70
128
10
0.000000
20
0.000000
30
0.000000
71
211
72
1
73
2
0
VERTEX
8
0
6
CONTINUOUS
62
252
70
128
10
0.000000
20
0.000000
30
0.000000
71
211
72
2
73
210
0
VERTEX
8
0
6
CONTINUOUS
62
252
70
128
10
0.000000
20
0.000000
30
0.000000
71
210
72
2
73
3
0
VERTEX
8
0
6
CONTINUOUS
62
252
70
128
10
0.000000
20
0.000000
30
0.000000
71
210
72
3
73
209
0
VERTEX
8
0
6
CONTINUOUS
62
252
70
128
10
0.000000
20
0.000000
30
0.000000
71
209
72
3
73
4
0
VERTEX
8
0
6
CONTINUOUS
62
252
70
128
10
0.000000
20
0.000000
30
0.000000
71
209
72
4
73
208
0
VERTEX
8
0
6
CONTINUOUS
62
252
70
128
10
0.000000
20
0.000000
30
0.000000
71
208
72
4
73
5
0
VERTEX
8
0
6
CONTINUOUS
62
252
70
128
10
0.000000
20
0.000000
30
0.000000
71
208
72
5
73
207
0
VERTEX
8
0
6
CONTINUOUS
62
252
70
128
10
0.000000
20
0.000000
30
0.000000
71
207
72
5
73
206
0
VERTEX
8
0
6
CONTINUOUS
62
252
70
128
10
0.000000
20
0.000000
30
0.000000
71
206
72
5
73
6
0
VERTEX
8
0
6
CONTINUOUS
62
252
70
128
10
0.000000
20
0.000000
30
0.000000
71
206
72
6
73
205
0
VERTEX
8
0
6
CONTINUOUS
62
252
70
128
10
0.000000
20
0.000000
30
0.000000
71
205
72
6
73
7
0
VERTEX
8
0
6
CONTINUOUS
62
252
70
128
10
0.000000
20
0.000000
30
0.000000
71
205
72
7
73
204
0
VERTEX
8
0
6
CONTINUOUS
62
252
70
128
10
0.000000
20
0.000000
30
0.000000
71
204
72
7
73
8
0
VERTEX
8
0
6
CONTINUOUS
62
252
70
128
10
0.000000
20
0.000000
30
0.000000
71
204
72
8
73
203
0
VERTEX
8
0
6
CONTINUOUS
62
252
70
128
10
0.000000
20
0.000000
30
0.000000
71
203
72
8
73
9
0
VERTEX
8
0
6
CONTINUOUS
62
252
70
128
10
0.000000
20
0.000000
30
0.000000
71
203
72
9
73
202
0
VERTEX
8
0
6
CONTINUOUS
62
252
70
128
10
0.000000
20
0.000000
30
0.000000
71
202
72
9
73
10
0
VERTEX
8
0
6
CONTINUOUS
62
252
70
128
10
0.000000
20
0.000000
30
0.000000
71
202
72
10
73
11
0
VERTEX
8
0
6
CONTINUOUS
62
252
70
128
10
0.000000
20
0.000000
30
0.000000
71
11
72
12
73
202
0
VERTEX
8
0
6
CONTINUOUS
62
252
70
128
10
0.000000
20
0.000000
30
0.000000
71
202
72
12
73
13
0
VERTEX
8
0
6
CONTINUOUS
62
252
70
128
10
0.000000
20
0.000000
30
0.000000
71
202
72
13
73
14
0
VERTEX
8
0
6
CONTINUOUS
62
252
70
128
10
0.000000
20
0.000000
30
0.000000
71
14
72
15
73
202
0
VERTEX
8
0
6
CONTINUOUS
62
252
70
128
10
0.000000
20
0.000000
30
0.000000
71
202
72
15
73
169
0
VERTEX
8
0
6
CONTINUOUS
62
252
70
128
10
0.000000
20
0.000000
30
0.000000
71
202
72
169
73
170
0
VERTEX
8
0
6
CONTINUOUS
62
252
70
128
10
0.000000
20
0.000000
30
0.000000
71
15
72
16
73
169
0
VERTEX
8
0
6
CONTINUOUS
62
252
70
128
10
0.000000
20
0.000000
30
0.000000
71
169
72
16
73
17
0
VERTEX
8
0
6
CONTINUOUS
62
252
70
128
10
0.000000
20
0.000000
30
0.000000
71
169
72
17
73
18
0
VERTEX
8
0
6
CONTINUOUS
62
252
70
128
10
0.000000
20
0.000000
30
0.000000
71
169
72
18
73
168
0
VERTEX
8
0
6
CONTINUOUS
62
252
70
128
10
0.000000
20
0.000000
30
0.000000
71
168
72
18
73
19
0
VERTEX
8
0
6
CONTINUOUS
62
252
70
128
10
0.000000
20
0.000000
30
0.000000
71
168
72
19
73
20
0
VERTEX
8
0
6
CONTINUOUS
62
252
70
128
10
0.000000
20
0.000000
30
0.000000
71
20
72
21
73
168
0
VERTEX
8
0
6
CONTINUOUS
62
252
70
128
10
0.000000
20
0.000000
30
0.000000
71
168
72
21
73
22
0
VERTEX
8
0
6
CONTINUOUS
62
252
70
128
10
0.000000
20
0.000000
30
0.000000
71
168
72
22
73
23
0
VERTEX
8
0
6
CONTINUOUS
62
252
70
128
10
0.000000
20
0.000000
30
0.000000
71
168
72
23
73
167
0
VERTEX
8
0
6
CONTINUOUS
62
252
70
128
10
0.000000
20
0.000000
30
0.000000
71
167
72
23
73
24
0
VERTEX
8
0
6
CONTINUOUS
62
252
70
128
10
0.000000
20
0.000000
30
0.000000
71
167
72
24
73
25
0
VERTEX
8
0
6
CONTINUOUS
62
252
70
128
10
0.000000
20
0.000000
30
0.000000
71
25
72
26
73
167
0
VERTEX
8
0
6
CONTINUOUS
62
252
70
128
10
0.000000
20
0.000000
30
0.000000
71
167
72
26
73
27
0
VERTEX
8
0
6
CONTINUOUS
62
252
70
128
10
0.000000
20
0.000000
30
0.000000
71
167
72
27
73
28
0
VERTEX
8
0
6
CONTINUOUS
62
252
70
128
10
0.000000
20
0.000000
30
0.000000
71
28
72
29
73
167
0
VERTEX
8
0
6
CONTINUOUS
62
252
70
128
10
0.000000
20
0.000000
30
0.000000
71
167
72
29
73
166
0
VERTEX
8
0
6
CONTINUOUS
62
252
70
128
10
0.000000
20
0.000000
30
0.000000
71
166
72
29
73
30
0
VERTEX
8
0
6
CONTINUOUS
62
252
70
128
10
0.000000
20
0.000000
30
0.000000
71
166
72
30
73
31
0
VERTEX
8
0
6
CONTINUOUS
62
252
70
128
10
0.000000
20
0.000000
30
0.000000
71
31
72
32
73
166
0
VERTEX
8
0
6
CONTINUOUS
62
252
70
128
10
0.000000
20
0.000000
30
0.000000
71
166
72
32
73
211
0
VERTEX
8
0
6
CONTINUOUS
62
252
70
128
10
0.000000
20
0.000000
30
0.000000
71
166
72
211
73
165
0
VERTEX
8
0
6
CONTINUOUS
62
252
70
128
10
0.000000
20
0.000000
30
0.000000
71
165
72
211
73
164
0
VERTEX
8
0
6
CONTINUOUS
62
252
70
128
10
0.000000
20
0.000000
30
0.000000
71
164
72
211
73
163
0
VERTEX
8
0
6
CONTINUOUS
62
252
70
128
10
0.000000
20
0.000000
30
0.000000
71
163
72
211
73
212
0
VERTEX
8
0
6
CONTINUOUS
62
252
70
128
10
0.000000
20
0.000000
30
0.000000
71
163
72
212
73
162
0
VERTEX
8
0
6
CONTINUOUS
62
252
70
128
10
0.000000
20
0.000000
30
0.000000
71
162
72
212
73
161
0
VERTEX
8
0
6
CONTINUOUS
62
252
70
128
10
0.000000
20
0.000000
30
0.000000
71
161
72
212
73
160
0
VERTEX
8
0
6
CONTINUOUS
62
252
70
128
10
0.000000
20
0.000000
30
0.000000
71
160
72
212
73
42
0
VERTEX
8
0
6
CONTINUOUS
62
252
70
128
10
0.000000
20
0.000000
30
0.000000
71
160
72
42
73
43
0
VERTEX
8
0
6
CONTINUOUS
62
252
70
128
10
0.000000
20
0.000000
30
0.000000
71
32
72
33
73
211
0
VERTEX
8
0
6
CONTINUOUS
62
252
70
128
10
0.000000
20
0.000000
30
0.000000
71
211
72
33
73
34
0
VERTEX
8
0
6
CONTINUOUS
62
252
70
128
10
0.000000
20
0.000000
30
0.000000
71
211
72
34
73
35
0
VERTEX
8
0
6
CONTINUOUS
62
252
70
128
10
0.000000
20
0.000000
30
0.000000
71
35
72
36
73
211
0
VERTEX
8
0
6
CONTINUOUS
62
252
70
128
10
0.000000
20
0.000000
30
0.000000
71
72
72
37
73
212
0
VERTEX
8
0
6
CONTINUOUS
62
252
70
128
10
0.000000
20
0.000000
30
0.000000
71
212
72
37
73
38
0
VERTEX
8
0
6
CONTINUOUS
62
252
70
128
10
0.000000
20
0.000000
30
0.000000
71
212
72
38
73
39
0
VERTEX
8
0
6
CONTINUOUS
62
252
70
128
10
0.000000
20
0.000000
30
0.000000
71
39
72
40
73
212
0
VERTEX
8
0
6
CONTINUOUS
62
252
70
128
10
0.000000
20
0.000000
30
0.000000
71
212
72
40
73
41
0
VERTEX
8
0
6
CONTINUOUS
62
252
70
128
10
0.000000
20
0.000000
30
0.000000
71
212
72
41
73
42
0
VERTEX
8
0
6
CONTINUOUS
62
252
70
128
10
0.000000
20
0.000000
30
0.000000
71
43
72
44
73
160
0
VERTEX
8
0
6
CONTINUOUS
62
252
70
128
10
0.000000
20
0.000000
30
0.000000
71
160
72
44
73
45
0
VERTEX
8
0
6
CONTINUOUS
62
252
70
128
10
0.000000
20
0.000000
30
0.000000
71
160
72
45
73
159
0
VERTEX
8
0
6
CONTINUOUS
62
252
70
128
10
0.000000
20
0.000000
30
0.000000
71
159
72
45
73
46
0
VERTEX
8
0
6
CONTINUOUS
62
252
70
128
10
0.000000
20
0.000000
30
0.000000
71
159
72
46
73
47
0
VERTEX
8
0
6
CONTINUOUS
62
252
70
128
10
0.000000
20
0.000000
30
0.000000
71
47
72
48
73
159
0
VERTEX
8
0
6
CONTINUOUS
62
252
70
128
10
0.000000
20
0.000000
30
0.000000
71
159
72
48
73
49
0
VERTEX
8
0
6
CONTINUOUS
62
252
70
128
10
0.000000
20
0.000000
30
0.000000
71
159
72
49
73
50
0
VERTEX
8
0
6
CONTINUOUS
62
252
70
128
10
0.000000
20
0.000000
30
0.000000
71
50
72
51
73
159
0
VERTEX
8
0
6
CONTINUOUS
62
252
70
128
10
0.000000
20
0.000000
30
0.000000
71
159
72
51
73
158
0
VERTEX
8
0
6
CONTINUOUS
62
252
70
128
10
0.000000
20
0.000000
30
0.000000
71
158
72
51
73
52
0
VERTEX
8
0
6
CONTINUOUS
62
252
70
128
10
0.000000
20
0.000000
30
0.000000
71
158
72
52
73
53
0
VERTEX
8
0
6
CONTINUOUS
62
252
70
128
10
0.000000
20
0.000000
30
0.000000
71
53
72
54
73
158
0
VERTEX
8
0
6
CONTINUOUS
62
252
70
128
10
0.000000
20
0.000000
30
0.000000
71
158
72
54
73
55
0
VERTEX
8
0
6
CONTINUOUS
62
252
70
128
10
0.000000
20
0.000000
30
0.000000
71
158
72
55
73
56
0
VERTEX
8
0
6
CONTINUOUS
62
252
70
128
10
0.000000
20
0.000000
30
0.000000
71
158
72
56
73
157
0
VERTEX
8
0
6
CONTINUOUS
62
252
70
128
10
0.000000
20
0.000000
30
0.000000
71
157
72
56
73
57
0
VERTEX
8
0
6
CONTINUOUS
62
252
70
128
10
0.000000
20
0.000000
30
0.000000
71
157
72
57
73
58
0
VERTEX
8
0
6
CONTINUOUS
62
252
70
128
10
0.000000
20
0.000000
30
0.000000
71
58
72
59
73
157
0
VERTEX
8
0
6
CONTINUOUS
62
252
70
128
10
0.000000
20
0.000000
30
0.000000
71
157
72
59
73
181
0
VERTEX
8
0
6
CONTINUOUS
62
252
70
128
10
0.000000
20
0.000000
30
0.000000
71
157
72
181
73
156
0
VERTEX
8
0
6
CONTINUOUS
62
252
70
128
10
0.000000
20
0.000000
30
0.000000
71
156
72
181
73
155
0
VERTEX
8
0
6
CONTINUOUS
62
252
70
128
10
0.000000
20
0.000000
30
0.000000
71
155
72
181
73
154
0
VERTEX
8
0
6
CONTINUOUS
62
252
70
128
10
0.000000
20
0.000000
30
0.000000
71
154
72
181
73
182
0
VERTEX
8
0
6
CONTINUOUS
62
252
70
128
10
0.000000
20
0.000000
30
0.000000
71
154
72
182
73
153
0
VERTEX
8
0
6
CONTINUOUS
62
252
70
128
10
0.000000
20
0.000000
30
0.000000
71
153
72
182
73
152
0
VERTEX
8
0
6
CONTINUOUS
62
252
70
128
10
0.000000
20
0.000000
30
0.000000
71
152
72
182
73
151
0
VERTEX
8
0
6
CONTINUOUS
62
252
70
128
10
0.000000
20
0.000000
30
0.000000
71
151
72
182
73
141
0
VERTEX
8
0
6
CONTINUOUS
62
252
70
128
10
0.000000
20
0.000000
30
0.000000
71
151
72
141
73
142
0
VERTEX
8
0
6
CONTINUOUS
62
252
70
128
10
0.000000
20
0.000000
30
0.000000
71
59
72
60
73
181
0
VERTEX
8
0
6
CONTINUOUS
62
252
70
128
10
0.000000
20
0.000000
30
0.000000
71
181
72
60
73
61
0
VERTEX
8
0
6
CONTINUOUS
62
252
70
128
10
0.000000
20
0.000000
30
0.000000
71
181
72
61
73
62
0
VERTEX
8
0
6
CONTINUOUS
62
252
70
128
10
0.000000
20
0.000000
30
0.000000
71
62
72
63
73
181
0
VERTEX
8
0
6
CONTINUOUS
62
252
70
128
10
0.000000
20
0.000000
30
0.000000
71
181
72
63
73
64
0
VERTEX
8
0
6
CONTINUOUS
62
252
70
128
10
0.000000
20
0.000000
30
0.000000
71
181
72
64
73
65
0
VERTEX
8
0
6
CONTINUOUS
62
252
70
128
10
0.000000
20
0.000000
30
0.000000
71
181
72
65
73
220
0
VERTEX
8
0
6
CONTINUOUS
62
252
70
128
10
0.000000
20
0.000000
30
0.000000
71
220
72
65
73
66
0
VERTEX
8
0
6
CONTINUOUS
62
252
70
128
10
0.000000
20
0.000000
30
0.000000
71
220
72
66
73
219
0
VERTEX
8
0
6
CONTINUOUS
62
252
70
128
10
0.000000
20
0.000000
30
0.000000
71
219
72
66
73
67
0
VERTEX
8
0
6
CONTINUOUS
62
252
70
128
10
0.000000
20
0.000000
30
0.000000
71
219
72
67
73
218
0
VERTEX
8
0
6
CONTINUOUS
62
252
70
128
10
0.000000
20
0.000000
30
0.000000
71
218
72
67
73
68
0
VERTEX
8
0
6
CONTINUOUS
62
252
70
128
10
0.000000
20
0.000000
30
0.000000
71
218
72
68
73
217
0
VERTEX
8
0
6
CONTINUOUS
62
252
70
128
10
0.000000
20
0.000000
30
0.000000
71
217
72
68
73
69
0
VERTEX
8
0
6
CONTINUOUS
62
252
70
128
10
0.000000
20
0.000000
30
0.000000
71
217
72
69
73
216
0
VERTEX
8
0
6
CONTINUOUS
62
252
70
128
10
0.000000
20
0.000000
30
0.000000
71
216
72
69
73
215
0
VERTEX
8
0
6
CONTINUOUS
62
252
70
128
10
0.000000
20
0.000000
30
0.000000
71
215
72
69
73
70
0
VERTEX
8
0
6
CONTINUOUS
62
252
70
128
10
0.000000
20
0.000000
30
0.000000
71
215
72
70
73
214
0
VERTEX
8
0
6
CONTINUOUS
62
252
70
128
10
0.000000
20
0.000000
30
0.000000
71
214
72
70
73
71
0
VERTEX
8
0
6
CONTINUOUS
62
252
70
128
10
0.000000
20
0.000000
30
0.000000
71
214
72
71
73
213
0
VERTEX
8
0
6
CONTINUOUS
62
252
70
128
10
0.000000
20
0.000000
30
0.000000
71
213
72
71
73
72
0
VERTEX
8
0
6
CONTINUOUS
62
252
70
128
10
0.000000
20
0.000000
30
0.000000
71
213
72
72
73
212
0
VERTEX
8
0
6
CONTINUOUS
62
252
70
128
10
0.000000
20
0.000000
30
0.000000
71
108
72
73
73
176
0
VERTEX
8
0
6
CONTINUOUS
62
252
70
128
10
0.000000
20
0.000000
30
0.000000
71
176
72
73
73
74
0
VERTEX
8
0
6
CONTINUOUS
62
252
70
128
10
0.000000
20
0.000000
30
0.000000
71
176
72
74
73
175
0
VERTEX
8
0
6
CONTINUOUS
62
252
70
128
10
0.000000
20
0.000000
30
0.000000
71
175
72
74
73
75
0
VERTEX
8
0
6
CONTINUOUS
62
252
70
128
10
0.000000
20
0.000000
30
0.000000
71
175
72
75
73
76
0
VERTEX
8
0
6
CONTINUOUS
62
252
70
128
10
0.000000
20
0.000000
30
0.000000
71
76
72
77
73
175
0
VERTEX
8
0
6
CONTINUOUS
62
252
70
128
10
0.000000
20
0.000000
30
0.000000
71
175
72
77
73
201
0
VERTEX
8
0
6
CONTINUOUS
62
252
70
128
10
0.000000
20
0.000000
30
0.000000
71
175
72
201
73
174
0
VERTEX
8
0
6
CONTINUOUS
62
252
70
128
10
0.000000
20
0.000000
30
0.000000
71
174
72
201
73
173
0
VERTEX
8
0
6
CONTINUOUS
62
252
70
128
10
0.000000
20
0.000000
30
0.000000
71
173
72
201
73
172
0
VERTEX
8
0
6
CONTINUOUS
62
252
70
128
10
0.000000
20
0.000000
30
0.000000
71
172
72
201
73
202
0
VERTEX
8
0
6
CONTINUOUS
62
252
70
128
10
0.000000
20
0.000000
30
0.000000
71
172
72
202
73
171
0
VERTEX
8
0
6
CONTINUOUS
62
252
70
128
10
0.000000
20
0.000000
30
0.000000
71
171
72
202
73
170
0
VERTEX
8
0
6
CONTINUOUS
62
252
70
128
10
0.000000
20
0.000000
30
0.000000
71
77
72
78
73
201
0
VERTEX
8
0
6
CONTINUOUS
62
252
70
128
10
0.000000
20
0.000000
30
0.000000
71
201
72
78
73
79
0
VERTEX
8
0
6
CONTINUOUS
62
252
70
128
10
0.000000
20
0.000000
30
0.000000
71
201
72
79
73
80
0
VERTEX
8
0
6
CONTINUOUS
62
252
70
128
10
0.000000
20
0.000000
30
0.000000
71
80
72
81
73
201
0
VERTEX
8
0
6
CONTINUOUS
62
252
70
128
10
0.000000
20
0.000000
30
0.000000
71
201
72
81
73
82
0
VERTEX
8
0
6
CONTINUOUS
62
252
70
128
10
0.000000
20
0.000000
30
0.000000
71
201
72
82
73
83
0
VERTEX
8
0
6
CONTINUOUS
62
252
70
128
10
0.000000
20
0.000000
30
0.000000
71
201
72
83
73
200
0
VERTEX
8
0
6
CONTINUOUS
62
252
70
128
10
0.000000
20
0.000000
30
0.000000
71
200
72
83
73
84
0
VERTEX
8
0
6
CONTINUOUS
62
252
70
128
10
0.000000
20
0.000000
30
0.000000
71
200
72
84
73
199
0
VERTEX
8
0
6
CONTINUOUS
62
252
70
128
10
0.000000
20
0.000000
30
0.000000
71
199
72
84
73
85
0
VERTEX
8
0
6
CONTINUOUS
62
252
70
128
10
0.000000
20
0.000000
30
0.000000
71
199
72
85
73
198
0
VERTEX
8
0
6
CONTINUOUS
62
252
70
128
10
0.000000
20
0.000000
30
0.000000
71
198
72
85
73
86
0
VERTEX
8
0
6
CONTINUOUS
62
252
70
128
10
0.000000
20
0.000000
30
0.000000
71
198
72
86
73
197
0
VERTEX
8
0
6
CONTINUOUS
62
252
70
128
10
0.000000
20
0.000000
30
0.000000
71
197
72
86
73
87
0
VERTEX
8
0
6
CONTINUOUS
62
252
70
128
10
0.000000
20
0.000000
30
0.000000
71
197
72
87
73
196
0
VERTEX
8
0
6
CONTINUOUS
62
252
70
128
10
0.000000
20
0.000000
30
0.000000
71
196
72
87
73
195
0
VERTEX
8
0
6
CONTINUOUS
62
252
70
128
10
0.000000
20
0.000000
30
0.000000
71
195
72
87
73
88
0
VERTEX
8
0
6
CONTINUOUS
62
252
70
128
10
0.000000
20
0.000000
30
0.000000
71
195
72
88
73
194
0
VERTEX
8
0
6
CONTINUOUS
62
252
70
128
10
0.000000
20
0.000000
30
0.000000
71
194
72
88
73
89
0
VERTEX
8
0
6
CONTINUOUS
62
252
70
128
10
0.000000
20
0.000000
30
0.000000
71
194
72
89
73
193
0
VERTEX
8
0
6
CONTINUOUS
62
252
70
128
10
0.000000
20
0.000000
30
0.000000
71
193
72
89
73
90
0
VERTEX
8
0
6
CONTINUOUS
62
252
70
128
10
0.000000
20
0.000000
30
0.000000
71
193
72
90
73
192
0
VERTEX
8
0
6
CONTINUOUS
62
252
70
128
10
0.000000
20
0.000000
30
0.000000
71
192
72
90
73
91
0
VERTEX
8
0
6
CONTINUOUS
62
252
70
128
10
0.000000
20
0.000000
30
0.000000
71
192
72
91
73
92
0
VERTEX
8
0
6
CONTINUOUS
62
252
70
128
10
0.000000
20
0.000000
30
0.000000
71
92
72
93
73
192
0
VERTEX
8
0
6
CONTINUOUS
62
252
70
128
10
0.000000
20
0.000000
30
0.000000
71
192
72
93
73
94
0
VERTEX
8
0
6
CONTINUOUS
62
252
70
128
10
0.000000
20
0.000000
30
0.000000
71
192
72
94
73
95
0
VERTEX
8
0
6
CONTINUOUS
62
252
70
128
10
0.000000
20
0.000000
30
0.000000
71
95
72
96
73
192
0
VERTEX
8
0
6
CONTINUOUS
62
252
70
128
10
0.000000
20
0.000000
30
0.000000
71
192
72
96
73
178
0
VERTEX
8
0
6
CONTINUOUS
62
252
70
128
10
0.000000
20
0.000000
30
0.000000
71
192
72
178
73
179
0
VERTEX
8
0
6
CONTINUOUS
62
252
70
128
10
0.000000
20
0.000000
30
0.000000
71
96
72
97
73
178
0
VERTEX
8
0
6
CONTINUOUS
62
252
70
128
10
0.000000
20
0.000000
30
0.000000
71
178
72
97
73
98
0
VERTEX
8
0
6
CONTINUOUS
62
252
70
128
10
0.000000
20
0.000000
30
0.000000
71
178
72
98
73
99
0
VERTEX
8
0
6
CONTINUOUS
62
252
70
128
10
0.000000
20
0.000000
30
0.000000
71
178
72
99
73
177
0
VERTEX
8
0
6
CONTINUOUS
62
252
70
128
10
0.000000
20
0.000000
30
0.000000
71
177
72
99
73
100
0
VERTEX
8
0
6
CONTINUOUS
62
252
70
128
10
0.000000
20
0.000000
30
0.000000
71
177
72
100
73
101
0
VERTEX
8
0
6
CONTINUOUS
62
252
70
128
10
0.000000
20
0.000000
30
0.000000
71
101
72
102
73
177
0
VERTEX
8
0
6
CONTINUOUS
62
252
70
128
10
0.000000
20
0.000000
30
0.000000
71
177
72
102
73
103
0
VERTEX
8
0
6
CONTINUOUS
62
252
70
128
10
0.000000
20
0.000000
30
0.000000
71
177
72
103
73
104
0
VERTEX
8
0
6
CONTINUOUS
62
252
70
128
10
0.000000
20
0.000000
30
0.000000
71
104
72
105
73
177
0
VERTEX
8
0
6
CONTINUOUS
62
252
70
128
10
0.000000
20
0.000000
30
0.000000
71
177
72
105
73
176
0
VERTEX
8
0
6
CONTINUOUS
62
252
70
128
10
0.000000
20
0.000000
30
0.000000
71
176
72
105
73
106
0
VERTEX
8
0
6
CONTINUOUS
62
252
70
128
10
0.000000
20
0.000000
30
0.000000
71
176
72
106
73
107
0
VERTEX
8
0
6
CONTINUOUS
62
252
70
128
10
0.000000
20
0.000000
30
0.000000
71
107
72
108
73
176
0
VERTEX
8
0
6
CONTINUOUS
62
252
70
128
10
0.000000
20
0.000000
30
0.000000
71
144
72
109
73
150
0
VERTEX
8
0
6
CONTINUOUS
62
252
70
128
10
0.000000
20
0.000000
30
0.000000
71
150
72
109
73
110
0
VERTEX
8
0
6
CONTINUOUS
62
252
70
128
10
0.000000
20
0.000000
30
0.000000
71
150
72
110
73
111
0
VERTEX
8
0
6
CONTINUOUS
62
252
70
128
10
0.000000
20
0.000000
30
0.000000
71
111
72
112
73
150
0
VERTEX
8
0
6
CONTINUOUS
62
252
70
128
10
0.000000
20
0.000000
30
0.000000
71
150
72
112
73
113
0
VERTEX
8
0
6
CONTINUOUS
62
252
70
128
10
0.000000
20
0.000000
30
0.000000
71
150
72
113
73
149
0
VERTEX
8
0
6
CONTINUOUS
62
252
70
128
10
0.000000
20
0.000000
30
0.000000
71
149
72
113
73
114
0
VERTEX
8
0
6
CONTINUOUS
62
252
70
128
10
0.000000
20
0.000000
30
0.000000
71
149
72
114
73
115
0
VERTEX
8
0
6
CONTINUOUS
62
252
70
128
10
0.000000
20
0.000000
30
0.000000
71
115
72
116
73
149
0
VERTEX
8
0
6
CONTINUOUS
62
252
70
128
10
0.000000
20
0.000000
30
0.000000
71
149
72
116
73
117
0
VERTEX
8
0
6
CONTINUOUS
62
252
70
128
10
0.000000
20
0.000000
30
0.000000
71
149
72
117
73
118
0
VERTEX
8
0
6
CONTINUOUS
62
252
70
128
10
0.000000
20
0.000000
30
0.000000
71
118
72
119
73
149
0
VERTEX
8
0
6
CONTINUOUS
62
252
70
128
10
0.000000
20
0.000000
30
0.000000
71
149
72
119
73
148
0
VERTEX
8
0
6
CONTINUOUS
62
252
70
128
10
0.000000
20
0.000000
30
0.000000
71
148
72
119
73
120
0
VERTEX
8
0
6
CONTINUOUS
62
252
70
128
10
0.000000
20
0.000000
30
0.000000
71
148
72
120
73
121
0
VERTEX
8
0
6
CONTINUOUS
62
252
70
128
10
0.000000
20
0.000000
30
0.000000
71
121
72
122
73
148
0
VERTEX
8
0
6
CONTINUOUS
62
252
70
128
10
0.000000
20
0.000000
30
0.000000
71
148
72
122
73
191
0
VERTEX
8
0
6
CONTINUOUS
62
252
70
128
10
0.000000
20
0.000000
30
0.000000
71
148
72
191
73
147
0
VERTEX
8
0
6
CONTINUOUS
62
252
70
128
10
0.000000
20
0.000000
30
0.000000
71
147
72
191
73
146
0
VERTEX
8
0
6
CONTINUOUS
62
252
70
128
10
0.000000
20
0.000000
30
0.000000
71
146
72
191
73
145
0
VERTEX
8
0
6
CONTINUOUS
62
252
70
128
10
0.000000
20
0.000000
30
0.000000
71
145
72
191
73
192
0
VERTEX
8
0
6
CONTINUOUS
62
252
70
128
10
0.000000
20
0.000000
30
0.000000
71
145
72
192
73
180
0
VERTEX
8
0
6
CONTINUOUS
62
252
70
128
10
0.000000
20
0.000000
30
0.000000
71
180
72
192
73
179
0
VERTEX
8
0
6
CONTINUOUS
62
252
70
128
10
0.000000
20
0.000000
30
0.000000
71
122
72
123
73
191
0
VERTEX
8
0
6
CONTINUOUS
62
252
70
128
10
0.000000
20
0.000000
30
0.000000
71
191
72
123
73
124
0
VERTEX
8
0
6
CONTINUOUS
62
252
70
128
10
0.000000
20
0.000000
30
0.000000
71
191
72
124
73
125
0
VERTEX
8
0
6
CONTINUOUS
62
252
70
128
10
0.000000
20
0.000000
30
0.000000
71
125
72
126
73
191
0
VERTEX
8
0
6
CONTINUOUS
62
252
70
128
10
0.000000
20
0.000000
30
0.000000
71
191
72
126
73
127
0
VERTEX
8
0
6
CONTINUOUS
62
252
70
128
10
0.000000
20
0.000000
30
0.000000
71
191
72
127
73
128
0
VERTEX
8
0
6
CONTINUOUS
62
252
70
128
10
0.000000
20
0.000000
30
0.000000
71
191
72
128
73
190
0
VERTEX
8
0
6
CONTINUOUS
62
252
70
128
10
0.000000
20
0.000000
30
0.000000
71
190
72
128
73
129
0
VERTEX
8
0
6
CONTINUOUS
62
252
70
128
10
0.000000
20
0.000000
30
0.000000
71
190
72
129
73
189
0
VERTEX
8
0
6
CONTINUOUS
62
252
70
128
10
0.000000
20
0.000000
30
0.000000
71
189
72
129
73
130
0
VERTEX
8
0
6
CONTINUOUS
62
252
70
128
10
0.000000
20
0.000000
30
0.000000
71
189
72
130
73
188
0
VERTEX
8
0
6
CONTINUOUS
62
252
70
128
10
0.000000
20
0.000000
30
0.000000
71
188
72
130
73
131
0
VERTEX
8
0
6
CONTINUOUS
62
252
70
128
10
0.000000
20
0.000000
30
0.000000
71
188
72
131
73
187
0
VERTEX
8
0
6
CONTINUOUS
62
252
70
128
10
0.000000
20
0.000000
30
0.000000
71
187
72
131
73
186
0
VERTEX
8
0
6
CONTINUOUS
62
252
70
128
10
0.000000
20
0.000000
30
0.000000
71
186
72
131
73
132
0
VERTEX
8
0
6
CONTINUOUS
62
252
70
128
10
0.000000
20
0.000000
30
0.000000
71
186
72
132
73
185
0
VERTEX
8
0
6
CONTINUOUS
62
252
70
128
10
0.000000
20
0.000000
30
0.000000
71
185
72
132
73
133
0
VERTEX
8
0
6
CONTINUOUS
62
252
70
128
10
0.000000
20
0.000000
30
0.000000
71
185
72
133
73
184
0
VERTEX
8
0
6
CONTINUOUS
62
252
70
128
10
0.000000
20
0.000000
30
0.000000
71
184
72
133
73
134
0
VERTEX
8
0
6
CONTINUOUS
62
252
70
128
10
0.000000
20
0.000000
30
0.000000
71
184
72
134
73
183
0
VERTEX
8
0
6
CONTINUOUS
62
252
70
128
10
0.000000
20
0.000000
30
0.000000
71
183
72
134
73
135
0
VERTEX
8
0
6
CONTINUOUS
62
252
70
128
10
0.000000
20
0.000000
30
0.000000
71
183
72
135
73
182
0
VERTEX
8
0
6
CONTINUOUS
62
252
70
128
10
0.000000
20
0.000000
30
0.000000
71
182
72
135
73
136
0
VERTEX
8
0
6
CONTINUOUS
62
252
70
128
10
0.000000
20
0.000000
30
0.000000
71
182
72
136
73
137
0
VERTEX
8
0
6
CONTINUOUS
62
252
70
128
10
0.000000
20
0.000000
30
0.000000
71
137
72
138
73
182
0
VERTEX
8
0
6
CONTINUOUS
62
252
70
128
10
0.000000
20
0.000000
30
0.000000
71
182
72
138
73
139
0
VERTEX
8
0
6
CONTINUOUS
62
252
70
128
10
0.000000
20
0.000000
30
0.000000
71
182
72
139
73
140
0
VERTEX
8
0
6
CONTINUOUS
62
252
70
128
10
0.000000
20
0.000000
30
0.000000
71
140
72
141
73
182
0
VERTEX
8
0
6
CONTINUOUS
62
252
70
128
10
0.000000
20
0.000000
30
0.000000
71
142
72
143
73
151
0
VERTEX
8
0
6
CONTINUOUS
62
252
70
128
10
0.000000
20
0.000000
30
0.000000
71
151
72
143
73
144
0
VERTEX
8
0
6
CONTINUOUS
62
252
70
128
10
0.000000
20
0.000000
30
0.000000
71
151
72
144
73
150
0
SEQEND
0
POLYLINE
66
1
8
0
6
CONTINUOUS
62
252
70
64
75
0
10
0.000000
20
0.000000
30
0.000000
0
VERTEX
8
0
6
CONTINUOUS
62
252
70
192
10
48.500000
20
20.058160
30
-29.658160
0
VERTEX
8
0
6
CONTINUOUS
62
252
70
192
10
48.500000
20
-20.058160
30
-29.658160
0
VERTEX
8
0
6
CONTINUOUS
62
252
70
192
10
6.000000
20
-20.800000
30
-30.400000
0
VERTEX
8
0
6
CONTINUOUS
62
252
70
192
10
6.000000
20
20.800000
30
-30.400000
0
VERTEX
8
0
6
CONTINUOUS
62
252
70
128
10
0.000000
20
0.000000
30
0.000000
71
1
72
2
73
4
0
VERTEX
8
0
6
CONTINUOUS
62
252
70
128
10
0.000000
20
0.000000
30
0.000000
71
4
72
2
73
3
0
SEQEND
0
POLYLINE
66
1
8
0
6
CONTINUOUS
62
252
70
64
75
0
10
0.000000
20
0.000000
30
0.000000
0
VERTEX
8
0
6
CONTINUOUS
62
252
70
192
10
48.500000
20
-20.058160
30
-29.658160
0
VERTEX
8
0
6
CONTINUOUS
62
252
70
192
10
48.500000
20
-20.058160
30
-20.058160
0
VERTEX
8
0
6
CONTINUOUS
62
252
70
192
10
6.000000
20
-20.800000
30
-20.800000
0
VERTEX
8
0
6
CONTINUOUS
62
252
70
192
10
6.000000
20
-20.800000
30
-30.400000
0
VERTEX
8
0
6
CONTINUOUS
62
252
70
128
10
0.000000
20
0.000000
30
0.000000
71
2
72
3
73
1
0
VERTEX
8
0
6
CONTINUOUS
62
252
70
128
10
0.000000
20
0.000000
30
0.000000
71
1
72
3
73
4
0
SEQEND
0
POLYLINE
66
1
8
0
6
CONTINUOUS
62
252
70
64
75
0
10
0.000000
20
0.000000
30
0.000000
0
VERTEX
8
0
6
CONTINUOUS
62
252
70
192
10
48.500000
20
-20.058160
30
-20.058160
0
VERTEX
8
0
6
CONTINUOUS
62
252
70
192
10
48.500000
20
-29.658160
30
-20.058160
0
VERTEX
8
0
6
CONTINUOUS
62
252
70
192
10
6.000000
20
-30.400000
30
-20.800000
0
VERTEX
8
0
6
CONTINUOUS
62
252
70
192
10
6.000000
20
-20.800000
30
-20.800000
0
VERTEX
8
0
6
CONTINUOUS
62
252
70
128
10
0.000000
20
0.000000
30
0.000000
71
1
72
2
73
4
0
VERTEX
8
0
6
CONTINUOUS
62
252
70
128
10
0.000000
20
0.000000
30
0.000000
71
4
72
2
73
3
0
SEQEND
0
POLYLINE
66
1
8
0
6
CONTINUOUS
62
252
70
64
75
0
10
0.000000
20
0.000000
30
0.000000
0
VERTEX
8
0
6
CONTINUOUS
62
252
70
192
10
48.500000
20
-29.658160
30
-20.058160
0
VERTEX
8
0
6
CONTINUOUS
62
252
70
192
10
48.500000
20
-29.658160
30
20.058160
0
VERTEX
8
0
6
CONTINUOUS
62
252
70
192
10
6.000000
20
-30.400000
30
20.800000
0
VERTEX
8
0
6
CONTINUOUS
62
252
70
192
10
6.000000
20
-30.400000
30
-20.800000
0
VERTEX
8
0
6
CONTINUOUS
62
252
70
128
10
0.000000
20
0.000000
30
0.000000
71
1
72
2
73
4
0
VERTEX
8
0
6
CONTINUOUS
62
252
70
128
10
0.000000
20
0.000000
30
0.000000
71
4
72
2
73
3
0
SEQEND
0
POLYLINE
66
1
8
0
6
CONTINUOUS
62
252
70
64
75
0
10
0.000000
20
0.000000
30
0.000000
0
VERTEX
8
0
6
CONTINUOUS
62
252
70
192
10
48.500000
20
-29.658160
30
20.058160
0
VERTEX
8
0
6
CONTINUOUS
62
252
70
192
10
48.500000
20
-20.058160
30
20.058160
0
VERTEX
8
0
6
CONTINUOUS
62
252
70
192
10
6.000000
20
-20.800000
30
20.800000
0
VERTEX
8
0
6
CONTINUOUS
62
252
70
192
10
6.000000
20
-30.400000
30
20.800000
0
VERTEX
8
0
6
CONTINUOUS
62
252
70
128
10
0.000000
20
0.000000
30
0.000000
71
2
72
3
73
1
0
VERTEX
8
0
6
CONTINUOUS
62
252
70
128
10
0.000000
20
0.000000
30
0.000000
71
1
72
3
73
4
0
SEQEND
0
POLYLINE
66
1
8
0
6
CONTINUOUS
62
252
70
64
75
0
10
0.000000
20
0.000000
30
0.000000
0
VERTEX
8
0
6
CONTINUOUS
62
252
70
192
10
48.500000
20
-20.058160
30
20.058160
0
VERTEX
8
0
6
CONTINUOUS
62
252
70
192
10
48.500000
20
-20.058160
30
29.658160
0
VERTEX
8
0
6
CONTINUOUS
62
252
70
192
10
6.000000
20
-20.800000
30
30.400000
0
VERTEX
8
0
6
CONTINUOUS
62
252
70
192
10
6.000000
20
-20.800000
30
20.800000
0
VERTEX
8
0
6
CONTINUOUS
62
252
70
128
10
0.000000
20
0.000000
30
0.000000
71
1
72
2
73
4
0
VERTEX
8
0
6
CONTINUOUS
62
252
70
128
10
0.000000
20
0.000000
30
0.000000
71
4
72
2
73
3
0
SEQEND
0
POLYLINE
66
1
8
0
6
CONTINUOUS
62
252
70
64
75
0
10
0.000000
20
0.000000
30
0.000000
0
VERTEX
8
0
6
CONTINUOUS
62
252
70
192
10
48.500000
20
-20.058160
30
29.658160
0
VERTEX
8
0
6
CONTINUOUS
62
252
70
192
10
48.500000
20
20.058160
30
29.658160
0
VERTEX
8
0
6
CONTINUOUS
62
252
70
192
10
6.000000
20
20.800000
30
30.400000
0
VERTEX
8
0
6
CONTINUOUS
62
252
70
192
10
6.000000
20
-20.800000
30
30.400000
0
VERTEX
8
0
6
CONTINUOUS
62
252
70
128
10
0.000000
20
0.000000
30
0.000000
71
1
72
2
73
4
0
VERTEX
8
0
6
CONTINUOUS
62
252
70
128
10
0.000000
20
0.000000
30
0.000000
71
4
72
2
73
3
0
SEQEND
0
POLYLINE
66
1
8
0
6
CONTINUOUS
62
252
70
64
75
0
10
0.000000
20
0.000000
30
0.000000
0
VERTEX
8
0
6
CONTINUOUS
62
252
70
192
10
48.500000
20
20.058160
30
29.658160
0
VERTEX
8
0
6
CONTINUOUS
62
252
70
192
10
48.500000
20
20.058160
30
20.058160
0
VERTEX
8
0
6
CONTINUOUS
62
252
70
192
10
6.000000
20
20.800000
30
20.800000
0
VERTEX
8
0
6
CONTINUOUS
62
252
70
192
10
6.000000
20
20.800000
30
30.400000
0
VERTEX
8
0
6
CONTINUOUS
62
252
70
128
10
0.000000
20
0.000000
30
0.000000
71
2
72
3
73
1
0
VERTEX
8
0
6
CONTINUOUS
62
252
70
128
10
0.000000
20
0.000000
30
0.000000
71
1
72
3
73
4
0
SEQEND
0
POLYLINE
66
1
8
0
6
CONTINUOUS
62
252
70
64
75
0
10
0.000000
20
0.000000
30
0.000000
0
VERTEX
8
0
6
CONTINUOUS
62
252
70
192
10
48.500000
20
20.058160
30
20.058160
0
VERTEX
8
0
6
CONTINUOUS
62
252
70
192
10
48.500000
20
29.658160
30
20.058160
0
VERTEX
8
0
6
CONTINUOUS
62
252
70
192
10
6.000000
20
30.400000
30
20.800000
0
VERTEX
8
0
6
CONTINUOUS
62
252
70
192
10
6.000000
20
20.800000
30
20.800000
0
VERTEX
8
0
6
CONTINUOUS
62
252
70
128
10
0.000000
20
0.000000
30
0.000000
71
1
72
2
73
4
0
VERTEX
8
0
6
CONTINUOUS
62
252
70
128
10
0.000000
20
0.000000
30
0.000000
71
4
72
2
73
3
0
SEQEND
0
POLYLINE
66
1
8
0
6
CONTINUOUS
62
252
70
64
75
0
10
0.000000
20
0.000000
30
0.000000
0
VERTEX
8
0
6
CONTINUOUS
62
252
70
192
10
48.500000
20
29.658160
30
20.058160
0
VERTEX
8
0
6
CONTINUOUS
62
252
70
192
10
48.500000
20
29.658160
30
-20.058160
0
VERTEX
8
0
6
CONTINUOUS
62
252
70
192
10
6.000000
20
30.400000
30
-20.800000
0
VERTEX
8
0
6
CONTINUOUS
62
252
70
192
10
6.000000
20
30.400000
30
20.800000
0
VERTEX
8
0
6
CONTINUOUS
62
252
70
128
10
0.000000
20
0.000000
30
0.000000
71
1
72
2
73
4
0
VERTEX
8
0
6
CONTINUOUS
62
252
70
128
10
0.000000
20
0.000000
30
0.000000
71
4
72
2
73
3
0
SEQEND
0
POLYLINE
66
1
8
0
6
CONTINUOUS
62
252
70
64
75
0
10
0.000000
20
0.000000
30
0.000000
0
VERTEX
8
0
6
CONTINUOUS
62
252
70
192
10
48.500000
20
29.658160
30
-20.058160
0
VERTEX
8
0
6
CONTINUOUS
62
252
70
192
10
48.500000
20
20.058160
30
-20.058160
0
VERTEX
8
0
6
CONTINUOUS
62
252
70
192
10
6.000000
20
20.800000
30
-20.800000
0
VERTEX
8
0
6
CONTINUOUS
62
252
70
192
10
6.000000
20
30.400000
30
-20.800000
0
VERTEX
8
0
6
CONTINUOUS
62
252
70
128
10
0.000000
20
0.000000
30
0.000000
71
2
72
3
73
1
0
VERTEX
8
0
6
CONTINUOUS
62
252
70
128
10
0.000000
20
0.000000
30
0.000000
71
1
72
3
73
4
0
SEQEND
0
POLYLINE
66
1
8
0
6
CONTINUOUS
62
252
70
64
75
0
10
0.000000
20
0.000000
30
0.000000
0
VERTEX
8
0
6
CONTINUOUS
62
252
70
192
10
48.500000
20
20.058160
30
-20.058160
0
VERTEX
8
0
6
CONTINUOUS
62
252
70
192
10
48.500000
20
20.058160
30
-29.658160
0
VERTEX
8
0
6
CONTINUOUS
62
252
70
192
10
6.000000
20
20.800000
30
-30.400000
0
VERTEX
8
0
6
CONTINUOUS
62
252
70
192
10
6.000000
20
20.800000
30
-20.800000
0
VERTEX
8
0
6
CONTINUOUS
62
252
70
128
10
0.000000
20
0.000000
30
0.000000
71
1
72
2
73
4
0
VERTEX
8
0
6
CONTINUOUS
62
252
70
128
10
0.000000
20
0.000000
30
0.000000
71
4
72
2
73
3
0
SEQEND
0
POLYLINE
66
1
8
0
6
CONTINUOUS
62
252
70
64
75
0
10
0.000000
20
0.000000
30
0.000000
0
VERTEX
8
0
6
CONTINUOUS
62
252
70
192
10
48.500000
20
-20.058160
30
-29.658160
0
VERTEX
8
0
6
CONTINUOUS
62
252
70
192
10
48.500000
20
20.058160
30
-29.658160
0
VERTEX
8
0
6
CONTINUOUS
62
252
70
192
10
48.500000
20
20.058160
30
-20.058160
0
VERTEX
8
0
6
CONTINUOUS
62
252
70
192
10
48.500000
20
29.658160
30
-20.058160
0
VERTEX
8
0
6
CONTINUOUS
62
252
70
192
10
48.500000
20
29.658160
30
20.058160
0
VERTEX
8
0
6
CONTINUOUS
62
252
70
192
10
48.500000
20
20.058160
30
20.058160
0
VERTEX
8
0
6
CONTINUOUS
62
252
70
192
10
48.500000
20
20.058160
30
29.658160
0
VERTEX
8
0
6
CONTINUOUS
62
252
70
192
10
48.500000
20
-20.058160
30
29.658160
0
VERTEX
8
0
6
CONTINUOUS
62
252
70
192
10
48.500000
20
-20.058160
30
20.058160
0
VERTEX
8
0
6
CONTINUOUS
62
252
70
192
10
48.500000
20
-29.658160
30
20.058160
0
VERTEX
8
0
6
CONTINUOUS
62
252
70
192
10
48.500000
20
-29.658160
30
-20.058160
0
VERTEX
8
0
6
CONTINUOUS
62
252
70
192
10
48.500000
20
-20.058160
30
-20.058160
0
VERTEX
8
0
6
CONTINUOUS
62
252
70
128
10
0.000000
20
0.000000
30
0.000000
71
2
72
3
73
1
0
VERTEX
8
0
6
CONTINUOUS
62
252
70
128
10
0.000000
20
0.000000
30
0.000000
71
1
72
3
73
12
0
VERTEX
8
0
6
CONTINUOUS
62
252
70
128
10
0.000000
20
0.000000
30
0.000000
71
12
72
3
73
6
0
VERTEX
8
0
6
CONTINUOUS
62
252
70
128
10
0.000000
20
0.000000
30
0.000000
71
12
72
6
73
9
0
VERTEX
8
0
6
CONTINUOUS
62
252
70
128
10
0.000000
20
0.000000
30
0.000000
71
9
72
6
73
7
0
VERTEX
8
0
6
CONTINUOUS
62
252
70
128
10
0.000000
20
0.000000
30
0.000000
71
9
72
7
73
8
0
VERTEX
8
0
6
CONTINUOUS
62
252
70
128
10
0.000000
20
0.000000
30
0.000000
71
4
72
5
73
3
0
VERTEX
8
0
6
CONTINUOUS
62
252
70
128
10
0.000000
20
0.000000
30
0.000000
71
3
72
5
73
6
0
VERTEX
8
0
6
CONTINUOUS
62
252
70
128
10
0.000000
20
0.000000
30
0.000000
71
10
72
11
73
9
0
VERTEX
8
0
6
CONTINUOUS
62
252
70
128
10
0.000000
20
0.000000
30
0.000000
71
9
72
11
73
12
0
SEQEND
0
POLYLINE
66
1
8
0
6
CONTINUOUS
62
252
70
64
75
0
10
0.000000
20
0.000000
30
0.000000
0
VERTEX
8
0
6
CONTINUOUS
62
252
70
192
10
6.000000
20
20.800000
30
-20.800000
0
VERTEX
8
0
6
CONTINUOUS
62
252
70
192
10
6.000000
20
20.800000
30
-30.400000
0
VERTEX
8
0
6
CONTINUOUS
62
252
70
192
10
6.000000
20
-20.800000
30
-30.400000
0
VERTEX
8
0
6
CONTINUOUS
62
252
70
192
10
6.000000
20
-20.800000
30
-20.800000
0
VERTEX
8
0
6
CONTINUOUS
62
252
70
192
10
6.000000
20
-30.400000
30
-20.800000
0
VERTEX
8
0
6
CONTINUOUS
62
252
70
192
10
6.000000
20
-30.400000
30
20.800000
0
VERTEX
8
0
6
CONTINUOUS
62
252
70
192
10
6.000000
20
-20.800000
30
20.800000
0
VERTEX
8
0
6
CONTINUOUS
62
252
70
192
10
6.000000
20
-20.800000
30
30.400000
0
VERTEX
8
0
6
CONTINUOUS
62
252
70
192
10
6.000000
20
20.800000
30
30.400000
0
VERTEX
8
0
6
CONTINUOUS
62
252
70
192
10
6.000000
20
20.800000
30
20.800000
0
VERTEX
8
0
6
CONTINUOUS
62
252
70
192
10
6.000000
20
30.400000
30
20.800000
0
VERTEX
8
0
6
CONTINUOUS
62
252
70
192
10
6.000000
20
30.400000
30
-20.800000
0
VERTEX
8
0
6
CONTINUOUS
62
252
70
128
10
0.000000
20
0.000000
30
0.000000
71
2
72
4
73
1
0
VERTEX
8
0
6
CONTINUOUS
62
252
70
128
10
0.000000
20
0.000000
30
0.000000
71
1
72
4
73
7
0
VERTEX
8
0
6
CONTINUOUS
62
252
70
128
10
0.000000
20
0.000000
30
0.000000
71
1
72
7
73
10
0
VERTEX
8
0
6
CONTINUOUS
62
252
70
128
10
0.000000
20
0.000000
30
0.000000
71
10
72
7
73
8
0
VERTEX
8
0
6
CONTINUOUS
62
252
70
128
10
0.000000
20
0.000000
30
0.000000
71
10
72
8
73
9
0
VERTEX
8
0
6
CONTINUOUS
62
252
70
128
10
0.000000
20
0.000000
30
0.000000
71
2
72
3
73
4
0
VERTEX
8
0
6
CONTINUOUS
62
252
70
128
10
0.000000
20
0.000000
30
0.000000
71
5
72
6
73
4
0
VERTEX
8
0
6
CONTINUOUS
62
252
70
128
10
0.000000
20
0.000000
30
0.000000
71
4
72
6
73
7
0
VERTEX
8
0
6
CONTINUOUS
62
252
70
128
10
0.000000
20
0.000000
30
0.000000
71
11
72
12
73
10
0
VERTEX
8
0
6
CONTINUOUS
62
252
70
128
10
0.000000
20
0.000000
30
0.000000
71
10
72
12
73
1
0
SEQEND
0
POLYLINE
66
1
8
0
6
CONTINUOUS
62
252
70
64
75
0
10
0.000000
20
0.000000
30
0.000000
0
VERTEX
8
0
6
CONTINUOUS
62
252
70
192
10
6.000000
20
-25.249900
30
-30.500000
0
VERTEX
8
0
6
CONTINUOUS
62
252
70
192
10
6.000000
20
25.250000
30
-30.500000
0
VERTEX
8
0
6
CONTINUOUS
62
252
70
192
10
0.500000
20
25.250000
30
-30.500000
0
VERTEX
8
0
6
CONTINUOUS
62
252
70
192
10
0.500000
20
-25.250000
30
-30.500000
0
VERTEX
8
0
6
CONTINUOUS
62
252
70
192
10
6.000000
20
-25.250000
30
-30.500000
0
VERTEX
8
0
6
CONTINUOUS
62
252
70
128
10
0.000000
20
0.000000
30
0.000000
71
2
72
3
73
1
0
VERTEX
8
0
6
CONTINUOUS
62
252
70
128
10
0.000000
20
0.000000
30
0.000000
71
1
72
3
73
4
0
VERTEX
8
0
6
CONTINUOUS
62
252
70
128
10
0.000000
20
0.000000
30
0.000000
71
1
72
4
73
5
0
SEQEND
0
POLYLINE
66
1
8
0
6
CONTINUOUS
62
252
70
64
75
0
10
0.000000
20
0.000000
30
0.000000
0
VERTEX
8
0
6
CONTINUOUS
62
252
70
192
10
6.000000
20
-25.250000
30
-30.500000
0
VERTEX
8
0
6
CONTINUOUS
62
252
70
192
10
0.500000
20
-25.250000
30
-30.500000
0
VERTEX
8
0
6
CONTINUOUS
62
252
70
192
10
0.500000
20
-25.250000
30
-38.000000
0
VERTEX
8
0
6
CONTINUOUS
62
252
70
192
10
6.000000
20
-25.250000
30
-38.000000
0
VERTEX
8
0
6
CONTINUOUS
62
252
70
128
10
0.000000
20
0.000000
30
0.000000
71
1
72
2
73
4
0
VERTEX
8
0
6
CONTINUOUS
62
252
70
128
10
0.000000
20
0.000000
30
0.000000
71
4
72
2
73
3
0
SEQEND
0
POLYLINE
66
1
8
0
6
CONTINUOUS
62
252
70
64
75
0
10
0.000000
20
0.000000
30
0.000000
0
VERTEX
8
0
6
CONTINUOUS
62
252
70
192
10
0.500000
20
-25.250000
30
-30.500000
0
VERTEX
8
0
6
CONTINUOUS
62
252
70
192
10
0.500000
20
25.250000
30
-30.500000
0
VERTEX
8
0
6
CONTINUOUS
62
252
70
192
10
0.500000
20
25.250000
30
-38.000000
0
VERTEX
8
0
6
CONTINUOUS
62
252
70
192
10
0.500000
20
25.219616
30
-38.347296
0
VERTEX
8
0
6
CONTINUOUS
62
252
70
192
10
0.500000
20
25.129385
30
-38.684040
0
VERTEX
8
0
6
CONTINUOUS
62
252
70
192
10
0.500000
20
24.982051
30
-39.000000
0
VERTEX
8
0
6
CONTINUOUS
62
252
70
192
10
0.500000
20
24.782089
30
-39.285575
0
VERTEX
8
0
6
CONTINUOUS
62
252
70
192
10
0.500000
20
24.535575
30
-39.532089
0
VERTEX
8
0
6
CONTINUOUS
62
252
70
192
10
0.500000
20
24.250000
30
-39.732051
0
VERTEX
8
0
6
CONTINUOUS
62
252
70
192
10
0.500000
20
23.934040
30
-39.879385
0
VERTEX
8
0
6
CONTINUOUS
62
252
70
192
10
0.500000
20
23.597296
30
-39.969616
0
VERTEX
8
0
6
CONTINUOUS
62
252
70
192
10
0.500000
20
23.250000
30
-40.000000
0
VERTEX
8
0
6
CONTINUOUS
62
252
70
192
10
0.500000
20
17.108579
30
-40.000000
0
VERTEX
8
0
6
CONTINUOUS
62
252
70
192
10
0.500000
20
16.308579
30
-39.200000
0
VERTEX
8
0
6
CONTINUOUS
62
252
70
192
10
0.500000
20
-16.308579
30
-39.200000
0
VERTEX
8
0
6
CONTINUOUS
62
252
70
192
10
0.500000
20
-17.108579
30
-40.000000
0
VERTEX
8
0
6
CONTINUOUS
62
252
70
192
10
0.500000
20
-23.250000
30
-40.000000
0
VERTEX
8
0
6
CONTINUOUS
62
252
70
192
10
0.500000
20
-23.597296
30
-39.969616
0
VERTEX
8
0
6
CONTINUOUS
62
252
70
192
10
0.500000
20
-23.934040
30
-39.879385
0
VERTEX
8
0
6
CONTINUOUS
62
252
70
192
10
0.500000
20
-24.250000
30
-39.732051
0
VERTEX
8
0
6
CONTINUOUS
62
252
70
192
10
0.500000
20
-24.535575
30
-39.532089
0
VERTEX
8
0
6
CONTINUOUS
62
252
70
192
10
0.500000
20
-24.782089
30
-39.285575
0
VERTEX
8
0
6
CONTINUOUS
62
252
70
192
10
0.500000
20
-24.982051
30
-39.000000
0
VERTEX
8
0
6
CONTINUOUS
62
252
70
192
10
0.500000
20
-25.129385
30
-38.684040
0
VERTEX
8
0
6
CONTINUOUS
62
252
70
192
10
0.500000
20
-25.219616
30
-38.347296
0
VERTEX
8
0
6
CONTINUOUS
62
252
70
192
10
0.500000
20
-25.250000
30
-38.000000
0
VERTEX
8
0
6
CONTINUOUS
62
252
70
128
10
0.000000
20
0.000000
30
0.000000
71
2
72
14
73
1
0
VERTEX
8
0
6
CONTINUOUS
62
252
70
128
10
0.000000
20
0.000000
30
0.000000
71
1
72
14
73
15
0
VERTEX
8
0
6
CONTINUOUS
62
252
70
128
10
0.000000
20
0.000000
30
0.000000
71
1
72
15
73
26
0
VERTEX
8
0
6
CONTINUOUS
62
252
70
128
10
0.000000
20
0.000000
30
0.000000
71
26
72
15
73
25
0
VERTEX
8
0
6
CONTINUOUS
62
252
70
128
10
0.000000
20
0.000000
30
0.000000
71
25
72
15
73
24
0
VERTEX
8
0
6
CONTINUOUS
62
252
70
128
10
0.000000
20
0.000000
30
0.000000
71
24
72
15
73
23
0
VERTEX
8
0
6
CONTINUOUS
62
252
70
128
10
0.000000
20
0.000000
30
0.000000
71
23
72
15
73
22
0
VERTEX
8
0
6
CONTINUOUS
62
252
70
128
10
0.000000
20
0.000000
30
0.000000
71
22
72
15
73
21
0
VERTEX
8
0
6
CONTINUOUS
62
252
70
128
10
0.000000
20
0.000000
30
0.000000
71
21
72
15
73
20
0
VERTEX
8
0
6
CONTINUOUS
62
252
70
128
10
0.000000
20
0.000000
30
0.000000
71
20
72
15
73
17
0
VERTEX
8
0
6
CONTINUOUS
62
252
70
128
10
0.000000
20
0.000000
30
0.000000
71
20
72
17
73
19
0
VERTEX
8
0
6
CONTINUOUS
62
252
70
128
10
0.000000
20
0.000000
30
0.000000
71
19
72
17
73
18
0
VERTEX
8
0
6
CONTINUOUS
62
252
70
128
10
0.000000
20
0.000000
30
0.000000
71
2
72
3
73
14
0
VERTEX
8
0
6
CONTINUOUS
62
252
70
128
10
0.000000
20
0.000000
30
0.000000
71
14
72
3
73
4
0
VERTEX
8
0
6
CONTINUOUS
62
252
70
128
10
0.000000
20
0.000000
30
0.000000
71
14
72
4
73
5
0
VERTEX
8
0
6
CONTINUOUS
62
252
70
128
10
0.000000
20
0.000000
30
0.000000
71
5
72
6
73
14
0
VERTEX
8
0
6
CONTINUOUS
62
252
70
128
10
0.000000
20
0.000000
30
0.000000
71
14
72
6
73
7
0
VERTEX
8
0
6
CONTINUOUS
62
252
70
128
10
0.000000
20
0.000000
30
0.000000
71
14
72
7
73
8
0
VERTEX
8
0
6
CONTINUOUS
62
252
70
128
10
0.000000
20
0.000000
30
0.000000
71
8
72
9
73
14
0
VERTEX
8
0
6
CONTINUOUS
62
252
70
128
10
0.000000
20
0.000000
30
0.000000
71
14
72
9
73
12
0
VERTEX
8
0
6
CONTINUOUS
62
252
70
128
10
0.000000
20
0.000000
30
0.000000
71
14
72
12
73
13
0
VERTEX
8
0
6
CONTINUOUS
62
252
70
128
10
0.000000
20
0.000000
30
0.000000
71
9
72
10
73
12
0
VERTEX
8
0
6
CONTINUOUS
62
252
70
128
10
0.000000
20
0.000000
30
0.000000
71
12
72
10
73
11
0
VERTEX
8
0
6
CONTINUOUS
62
252
70
128
10
0.000000
20
0.000000
30
0.000000
71
15
72
16
73
17
0
SEQEND
0
POLYLINE
66
1
8
0
6
CONTINUOUS
62
252
70
64
75
0
10
0.000000
20
0.000000
30
0.000000
0
VERTEX
8
0
6
CONTINUOUS
62
252
70
192
10
0.500000
20
25.250000
30
-30.500000
0
VERTEX
8
0
6
CONTINUOUS
62
252
70
192
10
6.000000
20
25.250000
30
-30.500000
0
VERTEX
8
0
6
CONTINUOUS
62
252
70
192
10
6.000000
20
25.250000
30
-38.000000
0
VERTEX
8
0
6
CONTINUOUS
62
252
70
192
10
0.500000
20
25.250000
30
-38.000000
0
VERTEX
8
0
6
CONTINUOUS
62
252
70
128
10
0.000000
20
0.000000
30
0.000000
71
1
72
2
73
4
0
VERTEX
8
0
6
CONTINUOUS
62
252
70
128
10
0.000000
20
0.000000
30
0.000000
71
4
72
2
73
3
0
SEQEND
0
POLYLINE
66
1
8
0
6
CONTINUOUS
62
252
70
64
75
0
10
0.000000
20
0.000000
30
0.000000
0
VERTEX
8
0
6
CONTINUOUS
62
252
70
192
10
30.800000
20
25.250100
30
-29.967071
0
VERTEX
8
0
6
CONTINUOUS
62
252
70
192
10
6.000000
20
25.250100
30
-30.400000
0
VERTEX
8
0
6
CONTINUOUS
62
252
70
192
10
6.000000
20
-25.249900
30
-30.400000
0
VERTEX
8
0
6
CONTINUOUS
62
252
70
192
10
30.800000
20
-25.249900
30
-29.967071
0
VERTEX
8
0
6
CONTINUOUS
62
252
70
128
10
0.000000
20
0.000000
30
0.000000
71
1
72
2
73
4
0
VERTEX
8
0
6
CONTINUOUS
62
252
70
128
10
0.000000
20
0.000000
30
0.000000
71
4
72
2
73
3
0
SEQEND
0
POLYLINE
66
1
8
0
6
CONTINUOUS
62
252
70
64
75
0
10
0.000000
20
0.000000
30
0.000000
0
VERTEX
8
0
6
CONTINUOUS
62
252
70
192
10
6.000000
20
-25.249900
30
-30.400000
0
VERTEX
8
0
6
CONTINUOUS
62
252
70
192
10
6.000000
20
25.250100
30
-30.400000
0
VERTEX
8
0
6
CONTINUOUS
62
252
70
192
10
6.000000
20
25.250100
30
-38.000000
0
VERTEX
8
0
6
CONTINUOUS
62
252
70
192
10
6.000000
20
25.219716
30
-38.347291
0
VERTEX
8
0
6
CONTINUOUS
62
252
70
192
10
6.000000
20
25.129489
30
-38.684030
0
VERTEX
8
0
6
CONTINUOUS
62
252
70
192
10
6.000000
20
24.982159
30
-38.999986
0
VERTEX
8
0
6
CONTINUOUS
62
252
70
192
10
6.000000
20
24.782203
30
-39.285558
0
VERTEX
8
0
6
CONTINUOUS
62
252
70
192
10
6.000000
20
24.535696
30
-39.532071
0
VERTEX
8
0
6
CONTINUOUS
62
252
70
192
10
6.000000
20
24.250129
30
-39.732034
0
VERTEX
8
0
6
CONTINUOUS
62
252
70
192
10
6.000000
20
23.934177
30
-39.879372
0
VERTEX
8
0
6
CONTINUOUS
62
252
70
192
10
6.000000
20
23.597440
30
-39.969608
0
VERTEX
8
0
6
CONTINUOUS
62
252
70
192
10
6.000000
20
23.250150
30
-40.000000
0
VERTEX
8
0
6
CONTINUOUS
62
252
70
192
10
6.000000
20
23.597428
30
-39.969592
0
VERTEX
8
0
6
CONTINUOUS
62
252
70
192
10
6.000000
20
23.934150
30
-39.879345
0
VERTEX
8
0
6
CONTINUOUS
62
252
70
192
10
6.000000
20
24.250087
30
-39.732001
0
VERTEX
8
0
6
CONTINUOUS
62
252
70
192
10
6.000000
20
24.535639
30
-39.532035
0
VERTEX
8
0
6
CONTINUOUS
62
252
70
192
10
6.000000
20
24.782132
30
-39.285524
0
VERTEX
8
0
6
CONTINUOUS
62
252
70
192
10
6.000000
20
24.982076
30
-38.999957
0
VERTEX
8
0
6
CONTINUOUS
62
252
70
192
10
6.000000
20
25.129397
30
-38.684009
0
VERTEX
8
0
6
CONTINUOUS
62
252
70
192
10
6.000000
20
25.219618
30
-38.347280
0
VERTEX
8
0
6
CONTINUOUS
62
252
70
192
10
6.000000
20
25.250000
30
-38.000000
0
VERTEX
8
0
6
CONTINUOUS
62
252
70
192
10
6.000000
20
25.250000
30
-30.500000
0
VERTEX
8
0
6
CONTINUOUS
62
252
70
192
10
6.000000
20
-25.249900
30
-30.500000
0
VERTEX
8
0
6
CONTINUOUS
62
252
70
128
10
0.000000
20
0.000000
30
0.000000
71
23
72
1
73
22
0
VERTEX
8
0
6
CONTINUOUS
62
252
70
128
10
0.000000
20
0.000000
30
0.000000
71
22
72
1
73
2
0
VERTEX
8
0
6
CONTINUOUS
62
252
70
128
10
0.000000
20
0.000000
30
0.000000
71
22
72
2
73
3
0
VERTEX
8
0
6
CONTINUOUS
62
252
70
128
10
0.000000
20
0.000000
30
0.000000
71
4
72
20
73
3
0
VERTEX
8
0
6
CONTINUOUS
62
252
70
128
10
0.000000
20
0.000000
30
0.000000
71
3
72
20
73
21
0
VERTEX
8
0
6
CONTINUOUS
62
252
70
128
10
0.000000
20
0.000000
30
0.000000
71
3
72
21
73
22
0
VERTEX
8
0
6
CONTINUOUS
62
252
70
128
10
0.000000
20
0.000000
30
0.000000
71
20
72
4
73
19
0
VERTEX
8
0
6
CONTINUOUS
62
252
70
128
10
0.000000
20
0.000000
30
0.000000
71
19
72
4
73
5
0
VERTEX
8
0
6
CONTINUOUS
62
252
70
128
10
0.000000
20
0.000000
30
0.000000
71
19
72
5
73
18
0
VERTEX
8
0
6
CONTINUOUS
62
252
70
128
10
0.000000
20
0.000000
30
0.000000
71
18
72
5
73
6
0
VERTEX
8
0
6
CONTINUOUS
62
252
70
128
10
0.000000
20
0.000000
30
0.000000
71
18
72
6
73
17
0
VERTEX
8
0
6
CONTINUOUS
62
252
70
128
10
0.000000
20
0.000000
30
0.000000
71
17
72
6
73
7
0
VERTEX
8
0
6
CONTINUOUS
62
252
70
128
10
0.000000
20
0.000000
30
0.000000
71
17
72
7
73
16
0
VERTEX
8
0
6
CONTINUOUS
62
252
70
128
10
0.000000
20
0.000000
30
0.000000
71
16
72
7
73
8
0
VERTEX
8
0
6
CONTINUOUS
62
252
70
128
10
0.000000
20
0.000000
30
0.000000
71
16
72
8
73
15
0
VERTEX
8
0
6
CONTINUOUS
62
252
70
128
10
0.000000
20
0.000000
30
0.000000
71
15
72
8
73
9
0
VERTEX
8
0
6
CONTINUOUS
62
252
70
128
10
0.000000
20
0.000000
30
0.000000
71
15
72
9
73
14
0
VERTEX
8
0
6
CONTINUOUS
62
252
70
128
10
0.000000
20
0.000000
30
0.000000
71
14
72
9
73
10
0
VERTEX
8
0
6
CONTINUOUS
62
252
70
128
10
0.000000
20
0.000000
30
0.000000
71
14
72
10
73
13
0
VERTEX
8
0
6
CONTINUOUS
62
252
70
128
10
0.000000
20
0.000000
30
0.000000
71
13
72
10
73
11
0
VERTEX
8
0
6
CONTINUOUS
62
252
70
128
10
0.000000
20
0.000000
30
0.000000
71
13
72
11
73
12
0
SEQEND
0
POLYLINE
66
1
8
0
6
CONTINUOUS
62
252
70
64
75
0
10
0.000000
20
0.000000
30
0.000000
0
VERTEX
8
0
6
CONTINUOUS
62
252
70
192
10
6.000000
20
25.250100
30
-30.400000
0
VERTEX
8
0
6
CONTINUOUS
62
252
70
192
10
30.800000
20
25.250100
30
-29.967071
0
VERTEX
8
0
6
CONTINUOUS
62
252
70
192
10
30.800000
20
25.250100
30
-38.000000
0
VERTEX
8
0
6
CONTINUOUS
62
252
70
192
10
6.000000
20
25.250100
30
-38.000000
0
VERTEX
8
0
6
CONTINUOUS
62
252
70
128
10
0.000000
20
0.000000
30
0.000000
71
2
72
3
73
1
0
VERTEX
8
0
6
CONTINUOUS
62
252
70
128
10
0.000000
20
0.000000
30
0.000000
71
1
72
3
73
4
0
SEQEND
0
POLYLINE
66
1
8
0
6
CONTINUOUS
62
252
70
64
75
0
10
0.000000
20
0.000000
30
0.000000
0
VERTEX
8
0
6
CONTINUOUS
62
252
70
192
10
30.800000
20
25.250100
30
-29.967071
0
VERTEX
8
0
6
CONTINUOUS
62
252
70
192
10
30.800000
20
-25.249900
30
-29.967071
0
VERTEX
8
0
6
CONTINUOUS
62
252
70
192
10
30.800000
20
-25.249900
30
-38.000000
0
VERTEX
8
0
6
CONTINUOUS
62
252
70
192
10
30.800000
20
-25.219516
30
-38.347296
0
VERTEX
8
0
6
CONTINUOUS
62
252
70
192
10
30.800000
20
-25.129285
30
-38.684040
0
VERTEX
8
0
6
CONTINUOUS
62
252
70
192
10
30.800000
20
-24.981951
30
-39.000000
0
VERTEX
8
0
6
CONTINUOUS
62
252
70
192
10
30.800000
20
-24.781989
30
-39.285575
0
VERTEX
8
0
6
CONTINUOUS
62
252
70
192
10
30.800000
20
-24.535475
30
-39.532089
0
VERTEX
8
0
6
CONTINUOUS
62
252
70
192
10
30.800000
20
-24.249900
30
-39.732051
0
VERTEX
8
0
6
CONTINUOUS
62
252
70
192
10
30.800000
20
-23.933940
30
-39.879385
0
VERTEX
8
0
6
CONTINUOUS
62
252
70
192
10
30.800000
20
-23.597196
30
-39.969616
0
VERTEX
8
0
6
CONTINUOUS
62
252
70
192
10
30.800000
20
-23.249900
30
-40.000000
0
VERTEX
8
0
6
CONTINUOUS
62
252
70
192
10
30.800000
20
-17.108479
30
-40.000000
0
VERTEX
8
0
6
CONTINUOUS
62
252
70
192
10
30.800000
20
-16.308479
30
-39.200000
0
VERTEX
8
0
6
CONTINUOUS
62
252
70
192
10
30.800000
20
16.308679
30
-39.200000
0
VERTEX
8
0
6
CONTINUOUS
62
252
70
192
10
30.800000
20
17.108679
30
-40.000000
0
VERTEX
8
0
6
CONTINUOUS
62
252
70
192
10
30.800000
20
23.250100
30
-40.000000
0
VERTEX
8
0
6
CONTINUOUS
62
252
70
192
10
30.800000
20
23.597396
30
-39.969616
0
VERTEX
8
0
6
CONTINUOUS
62
252
70
192
10
30.800000
20
23.934140
30
-39.879385
0
VERTEX
8
0
6
CONTINUOUS
62
252
70
192
10
30.800000
20
24.250100
30
-39.732051
0
VERTEX
8
0
6
CONTINUOUS
62
252
70
192
10
30.800000
20
24.535675
30
-39.532089
0
VERTEX
8
0
6
CONTINUOUS
62
252
70
192
10
30.800000
20
24.782189
30
-39.285575
0
VERTEX
8
0
6
CONTINUOUS
62
252
70
192
10
30.800000
20
24.982151
30
-39.000000
0
VERTEX
8
0
6
CONTINUOUS
62
252
70
192
10
30.800000
20
25.129485
30
-38.684040
0
VERTEX
8
0
6
CONTINUOUS
62
252
70
192
10
30.800000
20
25.219716
30
-38.347296
0
VERTEX
8
0
6
CONTINUOUS
62
252
70
192
10
30.800000
20
25.250100
30
-38.000000
0
VERTEX
8
0
6
CONTINUOUS
62
252
70
128
10
0.000000
20
0.000000
30
0.000000
71
26
72
1
73
15
0
VERTEX
8
0
6
CONTINUOUS
62
252
70
128
10
0.000000
20
0.000000
30
0.000000
71
15
72
1
73
2
0
VERTEX
8
0
6
CONTINUOUS
62
252
70
128
10
0.000000
20
0.000000
30
0.000000
71
15
72
2
73
14
0
VERTEX
8
0
6
CONTINUOUS
62
252
70
128
10
0.000000
20
0.000000
30
0.000000
71
14
72
2
73
3
0
VERTEX
8
0
6
CONTINUOUS
62
252
70
128
10
0.000000
20
0.000000
30
0.000000
71
14
72
3
73
4
0
VERTEX
8
0
6
CONTINUOUS
62
252
70
128
10
0.000000
20
0.000000
30
0.000000
71
4
72
5
73
14
0
VERTEX
8
0
6
CONTINUOUS
62
252
70
128
10
0.000000
20
0.000000
30
0.000000
71
14
72
5
73
6
0
VERTEX
8
0
6
CONTINUOUS
62
252
70
128
10
0.000000
20
0.000000
30
0.000000
71
14
72
6
73
7
0
VERTEX
8
0
6
CONTINUOUS
62
252
70
128
10
0.000000
20
0.000000
30
0.000000
71
7
72
8
73
14
0
VERTEX
8
0
6
CONTINUOUS
62
252
70
128
10
0.000000
20
0.000000
30
0.000000
71
14
72
8
73
9
0
VERTEX
8
0
6
CONTINUOUS
62
252
70
128
10
0.000000
20
0.000000
30
0.000000
71
14
72
9
73
12
0
VERTEX
8
0
6
CONTINUOUS
62
252
70
128
10
0.000000
20
0.000000
30
0.000000
71
12
72
9
73
10
0
VERTEX
8
0
6
CONTINUOUS
62
252
70
128
10
0.000000
20
0.000000
30
0.000000
71
12
72
10
73
11
0
VERTEX
8
0
6
CONTINUOUS
62
252
70
128
10
0.000000
20
0.000000
30
0.000000
71
12
72
13
73
14
0
VERTEX
8
0
6
CONTINUOUS
62
252
70
128
10
0.000000
20
0.000000
30
0.000000
71
16
72
17
73
15
0
VERTEX
8
0
6
CONTINUOUS
62
252
70
128
10
0.000000
20
0.000000
30
0.000000
71
15
72
17
73
20
0
VERTEX
8
0
6
CONTINUOUS
62
252
70
128
10
0.000000
20
0.000000
30
0.000000
71
15
72
20
73
21
0
VERTEX
8
0
6
CONTINUOUS
62
252
70
128
10
0.000000
20
0.000000
30
0.000000
71
18
72
19
73
17
0
VERTEX
8
0
6
CONTINUOUS
62
252
70
128
10
0.000000
20
0.000000
30
0.000000
71
17
72
19
73
20
0
VERTEX
8
0
6
CONTINUOUS
62
252
70
128
10
0.000000
20
0.000000
30
0.000000
71
21
72
22
73
15
0
VERTEX
8
0
6
CONTINUOUS
62
252
70
128
10
0.000000
20
0.000000
30
0.000000
71
15
72
22
73
23
0
VERTEX
8
0
6
CONTINUOUS
62
252
70
128
10
0.000000
20
0.000000
30
0.000000
71
15
72
23
73
24
0
VERTEX
8
0
6
CONTINUOUS
62
252
70
128
10
0.000000
20
0.000000
30
0.000000
71
24
72
25
73
15
0
VERTEX
8
0
6
CONTINUOUS
62
252
70
128
10
0.000000
20
0.000000
30
0.000000
71
15
72
25
73
26
0
SEQEND
0
POLYLINE
66
1
8
0
6
CONTINUOUS
62
252
70
64
75
0
10
0.000000
20
0.000000
30
0.000000
0
VERTEX
8
0
6
CONTINUOUS
62
252
70
192
10
6.000000
20
-17.108579
30
-40.000000
0
VERTEX
8
0
6
CONTINUOUS
62
252
70
192
10
6.000000
20
-16.308579
30
-39.200000
0
VERTEX
8
0
6
CONTINUOUS
62
252
70
192
10
6.000000
20
-16.308479
30
-39.200000
0
VERTEX
8
0
6
CONTINUOUS
62
252
70
192
10
6.000000
20
-17.108479
30
-40.000000
0
VERTEX
8
0
6
CONTINUOUS
62
252
70
128
10
0.000000
20
0.000000
30
0.000000
71
1
72
2
73
4
0
VERTEX
8
0
6
CONTINUOUS
62
252
70
128
10
0.000000
20
0.000000
30
0.000000
71
4
72
2
73
3
0
SEQEND
0
POLYLINE
66
1
8
0
6
CONTINUOUS
62
252
70
64
75
0
10
0.000000
20
0.000000
30
0.000000
0
VERTEX
8
0
6
CONTINUOUS
62
252
70
192
10
30.800000
20
-23.249900
30
-40.000000
0
VERTEX
8
0
6
CONTINUOUS
62
252
70
192
10
30.800000
20
-23.597196
30
-39.969616
0
VERTEX
8
0
6
CONTINUOUS
62
252
70
192
10
30.800000
20
-23.933940
30
-39.879385
0
VERTEX
8
0
6
CONTINUOUS
62
252
70
192
10
30.800000
20
-24.249900
30
-39.732051
0
VERTEX
8
0
6
CONTINUOUS
62
252
70
192
10
30.800000
20
-24.535475
30
-39.532089
0
VERTEX
8
0
6
CONTINUOUS
62
252
70
192
10
30.800000
20
-24.781989
30
-39.285575
0
VERTEX
8
0
6
CONTINUOUS
62
252
70
192
10
30.800000
20
-24.981951
30
-39.000000
0
VERTEX
8
0
6
CONTINUOUS
62
252
70
192
10
30.800000
20
-25.129285
30
-38.684040
0
VERTEX
8
0
6
CONTINUOUS
62
252
70
192
10
30.800000
20
-25.219516
30
-38.347296
0
VERTEX
8
0
6
CONTINUOUS
62
252
70
192
10
30.800000
20
-25.249900
30
-38.000000
0
VERTEX
8
0
6
CONTINUOUS
62
252
70
192
10
6.000000
20
-25.249900
30
-38.000000
0
VERTEX
8
0
6
CONTINUOUS
62
252
70
192
10
6.000000
20
-25.219518
30
-38.347280
0
VERTEX
8
0
6
CONTINUOUS
62
252
70
192
10
6.000000
20
-25.129297
30
-38.684009
0
VERTEX
8
0
6
CONTINUOUS
62
252
70
192
10
6.000000
20
-24.981976
30
-38.999957
0
VERTEX
8
0
6
CONTINUOUS
62
252
70
192
10
6.000000
20
-24.782032
30
-39.285524
0
VERTEX
8
0
6
CONTINUOUS
62
252
70
192
10
6.000000
20
-24.535539
30
-39.532035
0
VERTEX
8
0
6
CONTINUOUS
62
252
70
192
10
6.000000
20
-24.249987
30
-39.732001
0
VERTEX
8
0
6
CONTINUOUS
62
252
70
192
10
6.000000
20
-23.934050
30
-39.879345
0
VERTEX
8
0
6
CONTINUOUS
62
252
70
192
10
6.000000
20
-23.597328
30
-39.969592
0
VERTEX
8
0
6
CONTINUOUS
62
252
70
192
10
6.000000
20
-23.250050
30
-40.000000
0
VERTEX
8
0
6
CONTINUOUS
62
252
70
192
10
6.000000
20
-23.250033
30
-40.000000
0
VERTEX
8
0
6
CONTINUOUS
62
252
70
192
10
6.000000
20
-23.250017
30
-40.000000
0
VERTEX
8
0
6
CONTINUOUS
62
252
70
192
10
6.000000
20
-23.250000
30
-40.000000
0
VERTEX
8
0
6
CONTINUOUS
62
252
70
192
10
6.000000
20
-23.249900
30
-40.000000
0
VERTEX
8
0
6
CONTINUOUS
62
252
70
128
10
0.000000
20
0.000000
30
0.000000
71
2
72
20
73
1
0
VERTEX
8
0
6
CONTINUOUS
62
252
70
128
10
0.000000
20
0.000000
30
0.000000
71
1
72
20
73
21
0
VERTEX
8
0
6
CONTINUOUS
62
252
70
128
10
0.000000
20
0.000000
30
0.000000
71
1
72
21
73
22
0
VERTEX
8
0
6
CONTINUOUS
62
252
70
128
10
0.000000
20
0.000000
30
0.000000
71
20
72
2
73
19
0
VERTEX
8
0
6
CONTINUOUS
62
252
70
128
10
0.000000
20
0.000000
30
0.000000
71
19
72
2
73
3
0
VERTEX
8
0
6
CONTINUOUS
62
252
70
128
10
0.000000
20
0.000000
30
0.000000
71
19
72
3
73
18
0
VERTEX
8
0
6
CONTINUOUS
62
252
70
128
10
0.000000
20
0.000000
30
0.000000
71
18
72
3
73
4
0
VERTEX
8
0
6
CONTINUOUS
62
252
70
128
10
0.000000
20
0.000000
30
0.000000
71
18
72
4
73
17
0
VERTEX
8
0
6
CONTINUOUS
62
252
70
128
10
0.000000
20
0.000000
30
0.000000
71
17
72
4
73
5
0
VERTEX
8
0
6
CONTINUOUS
62
252
70
128
10
0.000000
20
0.000000
30
0.000000
71
17
72
5
73
16
0
VERTEX
8
0
6
CONTINUOUS
62
252
70
128
10
0.000000
20
0.000000
30
0.000000
71
16
72
5
73
6
0
VERTEX
8
0
6
CONTINUOUS
62
252
70
128
10
0.000000
20
0.000000
30
0.000000
71
16
72
6
73
15
0
VERTEX
8
0
6
CONTINUOUS
62
252
70
128
10
0.000000
20
0.000000
30
0.000000
71
15
72
6
73
7
0
VERTEX
8
0
6
CONTINUOUS
62
252
70
128
10
0.000000
20
0.000000
30
0.000000
71
15
72
7
73
14
0
VERTEX
8
0
6
CONTINUOUS
62
252
70
128
10
0.000000
20
0.000000
30
0.000000
71
14
72
7
73
8
0
VERTEX
8
0
6
CONTINUOUS
62
252
70
128
10
0.000000
20
0.000000
30
0.000000
71
14
72
8
73
13
0
VERTEX
8
0
6
CONTINUOUS
62
252
70
128
10
0.000000
20
0.000000
30
0.000000
71
13
72
8
73
9
0
VERTEX
8
0
6
CONTINUOUS
62
252
70
128
10
0.000000
20
0.000000
30
0.000000
71
13
72
9
73
12
0
VERTEX
8
0
6
CONTINUOUS
62
252
70
128
10
0.000000
20
0.000000
30
0.000000
71
12
72
9
73
10
0
VERTEX
8
0
6
CONTINUOUS
62
252
70
128
10
0.000000
20
0.000000
30
0.000000
71
12
72
10
73
11
0
VERTEX
8
0
6
CONTINUOUS
62
252
70
128
10
0.000000
20
0.000000
30
0.000000
71
22
72
23
73
1
0
VERTEX
8
0
6
CONTINUOUS
62
252
70
128
10
0.000000
20
0.000000
30
0.000000
71
1
72
23
73
24
0
SEQEND
0
POLYLINE
66
1
8
0
6
CONTINUOUS
62
252
70
64
75
0
10
0.000000
20
0.000000
30
0.000000
0
VERTEX
8
0
6
CONTINUOUS
62
252
70
192
10
30.800000
20
-25.249900
30
-29.967071
0
VERTEX
8
0
6
CONTINUOUS
62
252
70
192
10
6.000000
20
-25.249900
30
-30.400000
0
VERTEX
8
0
6
CONTINUOUS
62
252
70
192
10
6.000000
20
-25.249900
30
-30.500000
0
VERTEX
8
0
6
CONTINUOUS
62
252
70
192
10
6.000000
20
-25.249900
30
-38.000000
0
VERTEX
8
0
6
CONTINUOUS
62
252
70
192
10
30.800000
20
-25.249900
30
-38.000000
0
VERTEX
8
0
6
CONTINUOUS
62
252
70
128
10
0.000000
20
0.000000
30
0.000000
71
2
72
3
73
1
0
VERTEX
8
0
6
CONTINUOUS
62
252
70
128
10
0.000000
20
0.000000
30
0.000000
71
1
72
3
73
5
0
VERTEX
8
0
6
CONTINUOUS
62
252
70
128
10
0.000000
20
0.000000
30
0.000000
71
5
72
3
73
4
0
SEQEND
0
POLYLINE
66
1
8
0
6
CONTINUOUS
62
252
70
64
75
0
10
0.000000
20
0.000000
30
0.000000
0
VERTEX
8
0
6
CONTINUOUS
62
252
70
192
10
30.800000
20
25.250100
30
-38.000000
0
VERTEX
8
0
6
CONTINUOUS
62
252
70
192
10
30.800000
20
25.219716
30
-38.347296
0
VERTEX
8
0
6
CONTINUOUS
62
252
70
192
10
30.800000
20
25.129485
30
-38.684040
0
VERTEX
8
0
6
CONTINUOUS
62
252
70
192
10
30.800000
20
24.982151
30
-39.000000
0
VERTEX
8
0
6
CONTINUOUS
62
252
70
192
10
30.800000
20
24.782189
30
-39.285575
0
VERTEX
8
0
6
CONTINUOUS
62
252
70
192
10
30.800000
20
24.535675
30
-39.532089
0
VERTEX
8
0
6
CONTINUOUS
62
252
70
192
10
30.800000
20
24.250100
30
-39.732051
0
VERTEX
8
0
6
CONTINUOUS
62
252
70
192
10
30.800000
20
23.934140
30
-39.879385
0
VERTEX
8
0
6
CONTINUOUS
62
252
70
192
10
30.800000
20
23.597396
30
-39.969616
0
VERTEX
8
0
6
CONTINUOUS
62
252
70
192
10
30.800000
20
23.250100
30
-40.000000
0
VERTEX
8
0
6
CONTINUOUS
62
252
70
192
10
6.000000
20
23.250100
30
-40.000000
0
VERTEX
8
0
6
CONTINUOUS
62
252
70
192
10
6.000000
20
23.250117
30
-40.000000
0
VERTEX
8
0
6
CONTINUOUS
62
252
70
192
10
6.000000
20
23.250133
30
-40.000000
0
VERTEX
8
0
6
CONTINUOUS
62
252
70
192
10
6.000000
20
23.250150
30
-40.000000
0
VERTEX
8
0
6
CONTINUOUS
62
252
70
192
10
6.000000
20
23.597440
30
-39.969608
0
VERTEX
8
0
6
CONTINUOUS
62
252
70
192
10
6.000000
20
23.934177
30
-39.879372
0
VERTEX
8
0
6
CONTINUOUS
62
252
70
192
10
6.000000
20
24.250129
30
-39.732034
0
VERTEX
8
0
6
CONTINUOUS
62
252
70
192
10
6.000000
20
24.535696
30
-39.532071
0
VERTEX
8
0
6
CONTINUOUS
62
252
70
192
10
6.000000
20
24.782203
30
-39.285558
0
VERTEX
8
0
6
CONTINUOUS
62
252
70
192
10
6.000000
20
24.982159
30
-38.999986
0
VERTEX
8
0
6
CONTINUOUS
62
252
70
192
10
6.000000
20
25.129489
30
-38.684030
0
VERTEX
8
0
6
CONTINUOUS
62
252
70
192
10
6.000000
20
25.219716
30
-38.347291
0
VERTEX
8
0
6
CONTINUOUS
62
252
70
192
10
6.000000
20
25.250100
30
-38.000000
0
VERTEX
8
0
6
CONTINUOUS
62
252
70
128
10
0.000000
20
0.000000
30
0.000000
71
23
72
1
73
22
0
VERTEX
8
0
6
CONTINUOUS
62
252
70
128
10
0.000000
20
0.000000
30
0.000000
71
22
72
1
73
2
0
VERTEX
8
0
6
CONTINUOUS
62
252
70
128
10
0.000000
20
0.000000
30
0.000000
71
22
72
2
73
21
0
VERTEX
8
0
6
CONTINUOUS
62
252
70
128
10
0.000000
20
0.000000
30
0.000000
71
21
72
2
73
3
0
VERTEX
8
0
6
CONTINUOUS
62
252
70
128
10
0.000000
20
0.000000
30
0.000000
71
21
72
3
73
20
0
VERTEX
8
0
6
CONTINUOUS
62
252
70
128
10
0.000000
20
0.000000
30
0.000000
71
20
72
3
73
4
0
VERTEX
8
0
6
CONTINUOUS
62
252
70
128
10
0.000000
20
0.000000
30
0.000000
71
20
72
4
73
19
0
VERTEX
8
0
6
CONTINUOUS
62
252
70
128
10
0.000000
20
0.000000
30
0.000000
71
19
72
4
73
5
0
VERTEX
8
0
6
CONTINUOUS
62
252
70
128
10
0.000000
20
0.000000
30
0.000000
71
19
72
5
73
18
0
VERTEX
8
0
6
CONTINUOUS
62
252
70
128
10
0.000000
20
0.000000
30
0.000000
71
18
72
5
73
6
0
VERTEX
8
0
6
CONTINUOUS
62
252
70
128
10
0.000000
20
0.000000
30
0.000000
71
18
72
6
73
17
0
VERTEX
8
0
6
CONTINUOUS
62
252
70
128
10
0.000000
20
0.000000
30
0.000000
71
17
72
6
73
7
0
VERTEX
8
0
6
CONTINUOUS
62
252
70
128
10
0.000000
20
0.000000
30
0.000000
71
17
72
7
73
16
0
VERTEX
8
0
6
CONTINUOUS
62
252
70
128
10
0.000000
20
0.000000
30
0.000000
71
16
72
7
73
8
0
VERTEX
8
0
6
CONTINUOUS
62
252
70
128
10
0.000000
20
0.000000
30
0.000000
71
16
72
8
73
15
0
VERTEX
8
0
6
CONTINUOUS
62
252
70
128
10
0.000000
20
0.000000
30
0.000000
71
15
72
8
73
9
0
VERTEX
8
0
6
CONTINUOUS
62
252
70
128
10
0.000000
20
0.000000
30
0.000000
71
15
72
9
73
14
0
VERTEX
8
0
6
CONTINUOUS
62
252
70
128
10
0.000000
20
0.000000
30
0.000000
71
14
72
9
73
10
0
VERTEX
8
0
6
CONTINUOUS
62
252
70
128
10
0.000000
20
0.000000
30
0.000000
71
14
72
10
73
13
0
VERTEX
8
0
6
CONTINUOUS
62
252
70
128
10
0.000000
20
0.000000
30
0.000000
71
13
72
10
73
12
0
VERTEX
8
0
6
CONTINUOUS
62
252
70
128
10
0.000000
20
0.000000
30
0.000000
71
12
72
10
73
11
0
SEQEND
0
POLYLINE
66
1
8
0
6
CONTINUOUS
62
252
70
64
75
0
10
0.000000
20
0.000000
30
0.000000
0
VERTEX
8
0
6
CONTINUOUS
62
252
70
192
10
30.800000
20
17.108679
30
-40.000000
0
VERTEX
8
0
6
CONTINUOUS
62
252
70
192
10
30.800000
20
16.308679
30
-39.200000
0
VERTEX
8
0
6
CONTINUOUS
62
252
70
192
10
6.000000
20
16.308679
30
-39.200000
0
VERTEX
8
0
6
CONTINUOUS
62
252
70
192
10
6.000000
20
17.108679
30
-40.000000
0
VERTEX
8
0
6
CONTINUOUS
62
252
70
128
10
0.000000
20
0.000000
30
0.000000
71
2
72
3
73
1
0
VERTEX
8
0
6
CONTINUOUS
62
252
70
128
10
0.000000
20
0.000000
30
0.000000
71
1
72
3
73
4
0
SEQEND
0
POLYLINE
66
1
8
0
6
CONTINUOUS
62
252
70
64
75
0
10
0.000000
20
0.000000
30
0.000000
0
VERTEX
8
0
6
CONTINUOUS
62
252
70
192
10
30.800000
20
-16.308479
30
-39.200000
0
VERTEX
8
0
6
CONTINUOUS
62
252
70
192
10
30.800000
20
-17.108479
30
-40.000000
0
VERTEX
8
0
6
CONTINUOUS
62
252
70
192
10
6.000000
20
-17.108479
30
-40.000000
0
VERTEX
8
0
6
CONTINUOUS
62
252
70
192
10
6.000000
20
-16.308479
30
-39.200000
0
VERTEX
8
0
6
CONTINUOUS
62
252
70
128
10
0.000000
20
0.000000
30
0.000000
71
2
72
3
73
1
0
VERTEX
8
0
6
CONTINUOUS
62
252
70
128
10
0.000000
20
0.000000
30
0.000000
71
1
72
3
73
4
0
SEQEND
0
POLYLINE
66
1
8
0
6
CONTINUOUS
62
252
70
64
75
0
10
0.000000
20
0.000000
30
0.000000
0
VERTEX
8
0
6
CONTINUOUS
62
252
70
192
10
6.000000
20
16.308679
30
-39.200000
0
VERTEX
8
0
6
CONTINUOUS
62
252
70
192
10
6.000000
20
16.308579
30
-39.200000
0
VERTEX
8
0
6
CONTINUOUS
62
252
70
192
10
6.000000
20
17.108579
30
-40.000000
0
VERTEX
8
0
6
CONTINUOUS
62
252
70
192
10
6.000000
20
17.108679
30
-40.000000
0
VERTEX
8
0
6
CONTINUOUS
62
252
70
128
10
0.000000
20
0.000000
30
0.000000
71
2
72
3
73
1
0
VERTEX
8
0
6
CONTINUOUS
62
252
70
128
10
0.000000
20
0.000000
30
0.000000
71
1
72
3
73
4
0
SEQEND
0
POLYLINE
66
1
8
0
6
CONTINUOUS
62
252
70
64
75
0
10
0.000000
20
0.000000
30
0.000000
0
VERTEX
8
0
6
CONTINUOUS
62
252
70
192
10
6.000000
20
-25.249900
30
-30.500000
0
VERTEX
8
0
6
CONTINUOUS
62
252
70
192
10
6.000000
20
-25.250000
30
-30.500000
0
VERTEX
8
0
6
CONTINUOUS
62
252
70
192
10
6.000000
20
-25.250000
30
-38.000000
0
VERTEX
8
0
6
CONTINUOUS
62
252
70
192
10
6.000000
20
-25.219616
30
-38.347291
0
VERTEX
8
0
6
CONTINUOUS
62
252
70
192
10
6.000000
20
-25.129389
30
-38.684030
0
VERTEX
8
0
6
CONTINUOUS
62
252
70
192
10
6.000000
20
-24.982059
30
-38.999986
0
VERTEX
8
0
6
CONTINUOUS
62
252
70
192
10
6.000000
20
-24.782103
30
-39.285558
0
VERTEX
8
0
6
CONTINUOUS
62
252
70
192
10
6.000000
20
-24.535596
30
-39.532071
0
VERTEX
8
0
6
CONTINUOUS
62
252
70
192
10
6.000000
20
-24.250029
30
-39.732034
0
VERTEX
8
0
6
CONTINUOUS
62
252
70
192
10
6.000000
20
-23.934077
30
-39.879372
0
VERTEX
8
0
6
CONTINUOUS
62
252
70
192
10
6.000000
20
-23.597340
30
-39.969608
0
VERTEX
8
0
6
CONTINUOUS
62
252
70
192
10
6.000000
20
-23.250050
30
-40.000000
0
VERTEX
8
0
6
CONTINUOUS
62
252
70
192
10
6.000000
20
-23.597328
30
-39.969592
0
VERTEX
8
0
6
CONTINUOUS
62
252
70
192
10
6.000000
20
-23.934050
30
-39.879345
0
VERTEX
8
0
6
CONTINUOUS
62
252
70
192
10
6.000000
20
-24.249987
30
-39.732001
0
VERTEX
8
0
6
CONTINUOUS
62
252
70
192
10
6.000000
20
-24.535539
30
-39.532035
0
VERTEX
8
0
6
CONTINUOUS
62
252
70
192
10
6.000000
20
-24.782032
30
-39.285524
0
VERTEX
8
0
6
CONTINUOUS
62
252
70
192
10
6.000000
20
-24.981976
30
-38.999957
0
VERTEX
8
0
6
CONTINUOUS
62
252
70
192
10
6.000000
20
-25.129297
30
-38.684009
0
VERTEX
8
0
6
CONTINUOUS
62
252
70
192
10
6.000000
20
-25.219518
30
-38.347280
0
VERTEX
8
0
6
CONTINUOUS
62
252
70
192
10
6.000000
20
-25.249900
30
-38.000000
0
VERTEX
8
0
6
CONTINUOUS
62
252
70
128
10
0.000000
20
0.000000
30
0.000000
71
1
72
2
73
21
0
VERTEX
8
0
6
CONTINUOUS
62
252
70
128
10
0.000000
20
0.000000
30
0.000000
71
21
72
2
73
3
0
VERTEX
8
0
6
CONTINUOUS
62
252
70
128
10
0.000000
20
0.000000
30
0.000000
71
21
72
3
73
20
0
VERTEX
8
0
6
CONTINUOUS
62
252
70
128
10
0.000000
20
0.000000
30
0.000000
71
20
72
3
73
4
0
VERTEX
8
0
6
CONTINUOUS
62
252
70
128
10
0.000000
20
0.000000
30
0.000000
71
20
72
4
73
19
0
VERTEX
8
0
6
CONTINUOUS
62
252
70
128
10
0.000000
20
0.000000
30
0.000000
71
19
72
4
73
5
0
VERTEX
8
0
6
CONTINUOUS
62
252
70
128
10
0.000000
20
0.000000
30
0.000000
71
19
72
5
73
18
0
VERTEX
8
0
6
CONTINUOUS
62
252
70
128
10
0.000000
20
0.000000
30
0.000000
71
18
72
5
73
6
0
VERTEX
8
0
6
CONTINUOUS
62
252
70
128
10
0.000000
20
0.000000
30
0.000000
71
18
72
6
73
17
0
VERTEX
8
0
6
CONTINUOUS
62
252
70
128
10
0.000000
20
0.000000
30
0.000000
71
17
72
6
73
7
0
VERTEX
8
0
6
CONTINUOUS
62
252
70
128
10
0.000000
20
0.000000
30
0.000000
71
17
72
7
73
16
0
VERTEX
8
0
6
CONTINUOUS
62
252
70
128
10
0.000000
20
0.000000
30
0.000000
71
16
72
7
73
8
0
VERTEX
8
0
6
CONTINUOUS
62
252
70
128
10
0.000000
20
0.000000
30
0.000000
71
16
72
8
73
15
0
VERTEX
8
0
6
CONTINUOUS
62
252
70
128
10
0.000000
20
0.000000
30
0.000000
71
15
72
8
73
9
0
VERTEX
8
0
6
CONTINUOUS
62
252
70
128
10
0.000000
20
0.000000
30
0.000000
71
15
72
9
73
14
0
VERTEX
8
0
6
CONTINUOUS
62
252
70
128
10
0.000000
20
0.000000
30
0.000000
71
14
72
9
73
10
0
VERTEX
8
0
6
CONTINUOUS
62
252
70
128
10
0.000000
20
0.000000
30
0.000000
71
14
72
10
73
13
0
VERTEX
8
0
6
CONTINUOUS
62
252
70
128
10
0.000000
20
0.000000
30
0.000000
71
13
72
10
73
11
0
VERTEX
8
0
6
CONTINUOUS
62
252
70
128
10
0.000000
20
0.000000
30
0.000000
71
13
72
11
73
12
0
SEQEND
0
POLYLINE
66
1
8
0
6
CONTINUOUS
62
252
70
64
75
0
10
0.000000
20
0.000000
30
0.000000
0
VERTEX
8
0
6
CONTINUOUS
62
252
70
192
10
6.000000
20
-23.249900
30
-40.000000
0
VERTEX
8
0
6
CONTINUOUS
62
252
70
192
10
6.000000
20
-23.250000
30
-40.000000
0
VERTEX
8
0
6
CONTINUOUS
62
252
70
192
10
0.500000
20
-23.250000
30
-40.000000
0
VERTEX
8
0
6
CONTINUOUS
62
252
70
192
10
0.500000
20
-17.108579
30
-40.000000
0
VERTEX
8
0
6
CONTINUOUS
62
252
70
192
10
6.000000
20
-17.108579
30
-40.000000
0
VERTEX
8
0
6
CONTINUOUS
62
252
70
192
10
6.000000
20
-17.108479
30
-40.000000
0
VERTEX
8
0
6
CONTINUOUS
62
252
70
192
10
30.800000
20
-17.108479
30
-40.000000
0
VERTEX
8
0
6
CONTINUOUS
62
252
70
192
10
30.800000
20
-23.249900
30
-40.000000
0
VERTEX
8
0
6
CONTINUOUS
62
252
70
128
10
0.000000
20
0.000000
30
0.000000
71
2
72
3
73
1
0
VERTEX
8
0
6
CONTINUOUS
62
252
70
128
10
0.000000
20
0.000000
30
0.000000
71
1
72
3
73
4
0
VERTEX
8
0
6
CONTINUOUS
62
252
70
128
10
0.000000
20
0.000000
30
0.000000
71
1
72
4
73
5
0
VERTEX
8
0
6
CONTINUOUS
62
252
70
128
10
0.000000
20
0.000000
30
0.000000
71
6
72
7
73
5
0
VERTEX
8
0
6
CONTINUOUS
62
252
70
128
10
0.000000
20
0.000000
30
0.000000
71
5
72
7
73
8
0
VERTEX
8
0
6
CONTINUOUS
62
252
70
128
10
0.000000
20
0.000000
30
0.000000
71
5
72
8
73
1
0
SEQEND
0
POLYLINE
66
1
8
0
6
CONTINUOUS
62
252
70
64
75
0
10
0.000000
20
0.000000
30
0.000000
0
VERTEX
8
0
6
CONTINUOUS
62
252
70
192
10
6.000000
20
-23.250000
30
-40.000000
0
VERTEX
8
0
6
CONTINUOUS
62
252
70
192
10
6.000000
20
-23.250017
30
-40.000000
0
VERTEX
8
0
6
CONTINUOUS
62
252
70
192
10
6.000000
20
-23.250033
30
-40.000000
0
VERTEX
8
0
6
CONTINUOUS
62
252
70
192
10
6.000000
20
-23.250050
30
-40.000000
0
VERTEX
8
0
6
CONTINUOUS
62
252
70
192
10
6.000000
20
-23.597340
30
-39.969608
0
VERTEX
8
0
6
CONTINUOUS
62
252
70
192
10
6.000000
20
-23.934077
30
-39.879372
0
VERTEX
8
0
6
CONTINUOUS
62
252
70
192
10
6.000000
20
-24.250029
30
-39.732034
0
VERTEX
8
0
6
CONTINUOUS
62
252
70
192
10
6.000000
20
-24.535596
30
-39.532071
0
VERTEX
8
0
6
CONTINUOUS
62
252
70
192
10
6.000000
20
-24.782103
30
-39.285558
0
VERTEX
8
0
6
CONTINUOUS
62
252
70
192
10
6.000000
20
-24.982059
30
-38.999986
0
VERTEX
8
0
6
CONTINUOUS
62
252
70
192
10
6.000000
20
-25.129389
30
-38.684030
0
VERTEX
8
0
6
CONTINUOUS
62
252
70
192
10
6.000000
20
-25.219616
30
-38.347291
0
VERTEX
8
0
6
CONTINUOUS
62
252
70
192
10
6.000000
20
-25.250000
30
-38.000000
0
VERTEX
8
0
6
CONTINUOUS
62
252
70
192
10
0.500000
20
-25.250000
30
-38.000000
0
VERTEX
8
0
6
CONTINUOUS
62
252
70
192
10
0.500000
20
-25.219616
30
-38.347296
0
VERTEX
8
0
6
CONTINUOUS
62
252
70
192
10
0.500000
20
-25.129385
30
-38.684040
0
VERTEX
8
0
6
CONTINUOUS
62
252
70
192
10
0.500000
20
-24.982051
30
-39.000000
0
VERTEX
8
0
6
CONTINUOUS
62
252
70
192
10
0.500000
20
-24.782089
30
-39.285575
0
VERTEX
8
0
6
CONTINUOUS
62
252
70
192
10
0.500000
20
-24.535575
30
-39.532089
0
VERTEX
8
0
6
CONTINUOUS
62
252
70
192
10
0.500000
20
-24.250000
30
-39.732051
0
VERTEX
8
0
6
CONTINUOUS
62
252
70
192
10
0.500000
20
-23.934040
30
-39.879385
0
VERTEX
8
0
6
CONTINUOUS
62
252
70
192
10
0.500000
20
-23.597296
30
-39.969616
0
VERTEX
8
0
6
CONTINUOUS
62
252
70
192
10
0.500000
20
-23.250000
30
-40.000000
0
VERTEX
8
0
6
CONTINUOUS
62
252
70
128
10
0.000000
20
0.000000
30
0.000000
71
1
72
2
73
23
0
VERTEX
8
0
6
CONTINUOUS
62
252
70
128
10
0.000000
20
0.000000
30
0.000000
71
23
72
2
73
3
0
VERTEX
8
0
6
CONTINUOUS
62
252
70
128
10
0.000000
20
0.000000
30
0.000000
71
23
72
3
73
4
0
VERTEX
8
0
6
CONTINUOUS
62
252
70
128
10
0.000000
20
0.000000
30
0.000000
71
23
72
4
73
22
0
VERTEX
8
0
6
CONTINUOUS
62
252
70
128
10
0.000000
20
0.000000
30
0.000000
71
22
72
4
73
5
0
VERTEX
8
0
6
CONTINUOUS
62
252
70
128
10
0.000000
20
0.000000
30
0.000000
71
22
72
5
73
21
0
VERTEX
8
0
6
CONTINUOUS
62
252
70
128
10
0.000000
20
0.000000
30
0.000000
71
21
72
5
73
6
0
VERTEX
8
0
6
CONTINUOUS
62
252
70
128
10
0.000000
20
0.000000
30
0.000000
71
21
72
6
73
20
0
VERTEX
8
0
6
CONTINUOUS
62
252
70
128
10
0.000000
20
0.000000
30
0.000000
71
20
72
6
73
7
0
VERTEX
8
0
6
CONTINUOUS
62
252
70
128
10
0.000000
20
0.000000
30
0.000000
71
20
72
7
73
19
0
VERTEX
8
0
6
CONTINUOUS
62
252
70
128
10
0.000000
20
0.000000
30
0.000000
71
19
72
7
73
8
0
VERTEX
8
0
6
CONTINUOUS
62
252
70
128
10
0.000000
20
0.000000
30
0.000000
71
19
72
8
73
18
0
VERTEX
8
0
6
CONTINUOUS
62
252
70
128
10
0.000000
20
0.000000
30
0.000000
71
18
72
8
73
9
0
VERTEX
8
0
6
CONTINUOUS
62
252
70
128
10
0.000000
20
0.000000
30
0.000000
71
18
72
9
73
17
0
VERTEX
8
0
6
CONTINUOUS
62
252
70
128
10
0.000000
20
0.000000
30
0.000000
71
17
72
9
73
10
0
VERTEX
8
0
6
CONTINUOUS
62
252
70
128
10
0.000000
20
0.000000
30
0.000000
71
17
72
10
73
16
0
VERTEX
8
0
6
CONTINUOUS
62
252
70
128
10
0.000000
20
0.000000
30
0.000000
71
16
72
10
73
11
0
VERTEX
8
0
6
CONTINUOUS
62
252
70
128
10
0.000000
20
0.000000
30
0.000000
71
16
72
11
73
15
0
VERTEX
8
0
6
CONTINUOUS
62
252
70
128
10
0.000000
20
0.000000
30
0.000000
71
15
72
11
73
12
0
VERTEX
8
0
6
CONTINUOUS
62
252
70
128
10
0.000000
20
0.000000
30
0.000000
71
15
72
12
73
14
0
VERTEX
8
0
6
CONTINUOUS
62
252
70
128
10
0.000000
20
0.000000
30
0.000000
71
14
72
12
73
13
0
SEQEND
0
POLYLINE
66
1
8
0
6
CONTINUOUS
62
252
70
64
75
0
10
0.000000
20
0.000000
30
0.000000
0
VERTEX
8
0
6
CONTINUOUS
62
252
70
192
10
6.000000
20
25.250000
30
-38.000000
0
VERTEX
8
0
6
CONTINUOUS
62
252
70
192
10
6.000000
20
25.219618
30
-38.347280
0
VERTEX
8
0
6
CONTINUOUS
62
252
70
192
10
6.000000
20
25.129397
30
-38.684009
0
VERTEX
8
0
6
CONTINUOUS
62
252
70
192
10
6.000000
20
24.982076
30
-38.999957
0
VERTEX
8
0
6
CONTINUOUS
62
252
70
192
10
6.000000
20
24.782132
30
-39.285524
0
VERTEX
8
0
6
CONTINUOUS
62
252
70
192
10
6.000000
20
24.535639
30
-39.532035
0
VERTEX
8
0
6
CONTINUOUS
62
252
70
192
10
6.000000
20
24.250087
30
-39.732001
0
VERTEX
8
0
6
CONTINUOUS
62
252
70
192
10
6.000000
20
23.934150
30
-39.879345
0
VERTEX
8
0
6
CONTINUOUS
62
252
70
192
10
6.000000
20
23.597428
30
-39.969592
0
VERTEX
8
0
6
CONTINUOUS
62
252
70
192
10
6.000000
20
23.250150
30
-40.000000
0
VERTEX
8
0
6
CONTINUOUS
62
252
70
192
10
6.000000
20
23.250133
30
-40.000000
0
VERTEX
8
0
6
CONTINUOUS
62
252
70
192
10
6.000000
20
23.250117
30
-40.000000
0
VERTEX
8
0
6
CONTINUOUS
62
252
70
192
10
6.000000
20
23.250100
30
-40.000000
0
VERTEX
8
0
6
CONTINUOUS
62
252
70
192
10
6.000000
20
23.250067
30
-40.000000
0
VERTEX
8
0
6
CONTINUOUS
62
252
70
192
10
6.000000
20
23.250033
30
-40.000000
0
VERTEX
8
0
6
CONTINUOUS
62
252
70
192
10
6.000000
20
23.250000
30
-40.000000
0
VERTEX
8
0
6
CONTINUOUS
62
252
70
192
10
0.500000
20
23.250000
30
-40.000000
0
VERTEX
8
0
6
CONTINUOUS
62
252
70
192
10
0.500000
20
23.597296
30
-39.969616
0
VERTEX
8
0
6
CONTINUOUS
62
252
70
192
10
0.500000
20
23.934040
30
-39.879385
0
VERTEX
8
0
6
CONTINUOUS
62
252
70
192
10
0.500000
20
24.250000
30
-39.732051
0
VERTEX
8
0
6
CONTINUOUS
62
252
70
192
10
0.500000
20
24.535575
30
-39.532089
0
VERTEX
8
0
6
CONTINUOUS
62
252
70
192
10
0.500000
20
24.782089
30
-39.285575
0
VERTEX
8
0
6
CONTINUOUS
62
252
70
192
10
0.500000
20
24.982051
30
-39.000000
0
VERTEX
8
0
6
CONTINUOUS
62
252
70
192
10
0.500000
20
25.129385
30
-38.684040
0
VERTEX
8
0
6
CONTINUOUS
62
252
70
192
10
0.500000
20
25.219616
30
-38.347296
0
VERTEX
8
0
6
CONTINUOUS
62
252
70
192
10
0.500000
20
25.250000
30
-38.000000
0
VERTEX
8
0
6
CONTINUOUS
62
252
70
128
10
0.000000
20
0.000000
30
0.000000
71
1
72
2
73
26
0
VERTEX
8
0
6
CONTINUOUS
62
252
70
128
10
0.000000
20
0.000000
30
0.000000
71
26
72
2
73
25
0
VERTEX
8
0
6
CONTINUOUS
62
252
70
128
10
0.000000
20
0.000000
30
0.000000
71
25
72
2
73
3
0
VERTEX
8
0
6
CONTINUOUS
62
252
70
128
10
0.000000
20
0.000000
30
0.000000
71
25
72
3
73
24
0
VERTEX
8
0
6
CONTINUOUS
62
252
70
128
10
0.000000
20
0.000000
30
0.000000
71
24
72
3
73
4
0
VERTEX
8
0
6
CONTINUOUS
62
252
70
128
10
0.000000
20
0.000000
30
0.000000
71
24
72
4
73
23
0
VERTEX
8
0
6
CONTINUOUS
62
252
70
128
10
0.000000
20
0.000000
30
0.000000
71
23
72
4
73
5
0
VERTEX
8
0
6
CONTINUOUS
62
252
70
128
10
0.000000
20
0.000000
30
0.000000
71
23
72
5
73
22
0
VERTEX
8
0
6
CONTINUOUS
62
252
70
128
10
0.000000
20
0.000000
30
0.000000
71
22
72
5
73
6
0
VERTEX
8
0
6
CONTINUOUS
62
252
70
128
10
0.000000
20
0.000000
30
0.000000
71
22
72
6
73
21
0
VERTEX
8
0
6
CONTINUOUS
62
252
70
128
10
0.000000
20
0.000000
30
0.000000
71
21
72
6
73
7
0
VERTEX
8
0
6
CONTINUOUS
62
252
70
128
10
0.000000
20
0.000000
30
0.000000
71
21
72
7
73
20
0
VERTEX
8
0
6
CONTINUOUS
62
252
70
128
10
0.000000
20
0.000000
30
0.000000
71
20
72
7
73
8
0
VERTEX
8
0
6
CONTINUOUS
62
252
70
128
10
0.000000
20
0.000000
30
0.000000
71
20
72
8
73
19
0
VERTEX
8
0
6
CONTINUOUS
62
252
70
128
10
0.000000
20
0.000000
30
0.000000
71
19
72
8
73
9
0
VERTEX
8
0
6
CONTINUOUS
62
252
70
128
10
0.000000
20
0.000000
30
0.000000
71
19
72
9
73
18
0
VERTEX
8
0
6
CONTINUOUS
62
252
70
128
10
0.000000
20
0.000000
30
0.000000
71
18
72
9
73
10
0
VERTEX
8
0
6
CONTINUOUS
62
252
70
128
10
0.000000
20
0.000000
30
0.000000
71
18
72
10
73
17
0
VERTEX
8
0
6
CONTINUOUS
62
252
70
128
10
0.000000
20
0.000000
30
0.000000
71
17
72
10
73
11
0
VERTEX
8
0
6
CONTINUOUS
62
252
70
128
10
0.000000
20
0.000000
30
0.000000
71
17
72
11
73
12
0
VERTEX
8
0
6
CONTINUOUS
62
252
70
128
10
0.000000
20
0.000000
30
0.000000
71
12
72
13
73
17
0
VERTEX
8
0
6
CONTINUOUS
62
252
70
128
10
0.000000
20
0.000000
30
0.000000
71
17
72
13
73
14
0
VERTEX
8
0
6
CONTINUOUS
62
252
70
128
10
0.000000
20
0.000000
30
0.000000
71
17
72
14
73
15
0
VERTEX
8
0
6
CONTINUOUS
62
252
70
128
10
0.000000
20
0.000000
30
0.000000
71
15
72
16
73
17
0
SEQEND
0
POLYLINE
66
1
8
0
6
CONTINUOUS
62
252
70
64
75
0
10
0.000000
20
0.000000
30
0.000000
0
VERTEX
8
0
6
CONTINUOUS
62
252
70
192
10
6.000000
20
17.108679
30
-40.000000
0
VERTEX
8
0
6
CONTINUOUS
62
252
70
192
10
6.000000
20
17.108579
30
-40.000000
0
VERTEX
8
0
6
CONTINUOUS
62
252
70
192
10
0.500000
20
17.108579
30
-40.000000
0
VERTEX
8
0
6
CONTINUOUS
62
252
70
192
10
0.500000
20
23.250000
30
-40.000000
0
VERTEX
8
0
6
CONTINUOUS
62
252
70
192
10
6.000000
20
23.250000
30
-40.000000
0
VERTEX
8
0
6
CONTINUOUS
62
252
70
192
10
6.000000
20
23.250033
30
-40.000000
0
VERTEX
8
0
6
CONTINUOUS
62
252
70
192
10
6.000000
20
23.250067
30
-40.000000
0
VERTEX
8
0
6
CONTINUOUS
62
252
70
192
10
6.000000
20
23.250100
30
-40.000000
0
VERTEX
8
0
6
CONTINUOUS
62
252
70
192
10
30.800000
20
23.250100
30
-40.000000
0
VERTEX
8
0
6
CONTINUOUS
62
252
70
192
10
30.800000
20
17.108679
30
-40.000000
0
VERTEX
8
0
6
CONTINUOUS
62
252
70
128
10
0.000000
20
0.000000
30
0.000000
71
2
72
3
73
1
0
VERTEX
8
0
6
CONTINUOUS
62
252
70
128
10
0.000000
20
0.000000
30
0.000000
71
1
72
3
73
4
0
VERTEX
8
0
6
CONTINUOUS
62
252
70
128
10
0.000000
20
0.000000
30
0.000000
71
1
72
4
73
5
0
VERTEX
8
0
6
CONTINUOUS
62
252
70
128
10
0.000000
20
0.000000
30
0.000000
71
6
72
9
73
5
0
VERTEX
8
0
6
CONTINUOUS
62
252
70
128
10
0.000000
20
0.000000
30
0.000000
71
5
72
9
73
10
0
VERTEX
8
0
6
CONTINUOUS
62
252
70
128
10
0.000000
20
0.000000
30
0.000000
71
5
72
10
73
1
0
VERTEX
8
0
6
CONTINUOUS
62
252
70
128
10
0.000000
20
0.000000
30
0.000000
71
6
72
7
73
9
0
VERTEX
8
0
6
CONTINUOUS
62
252
70
128
10
0.000000
20
0.000000
30
0.000000
71
9
72
7
73
8
0
SEQEND
0
POLYLINE
66
1
8
0
6
CONTINUOUS
62
252
70
64
75
0
10
0.000000
20
0.000000
30
0.000000
0
VERTEX
8
0
6
CONTINUOUS
62
252
70
192
10
6.000000
20
17.108579
30
-40.000000
0
VERTEX
8
0
6
CONTINUOUS
62
252
70
192
10
6.000000
20
16.308579
30
-39.200000
0
VERTEX
8
0
6
CONTINUOUS
62
252
70
192
10
0.500000
20
16.308579
30
-39.200000
0
VERTEX
8
0
6
CONTINUOUS
62
252
70
192
10
0.500000
20
17.108579
30
-40.000000
0
VERTEX
8
0
6
CONTINUOUS
62
252
70
128
10
0.000000
20
0.000000
30
0.000000
71
1
72
2
73
4
0
VERTEX
8
0
6
CONTINUOUS
62
252
70
128
10
0.000000
20
0.000000
30
0.000000
71
4
72
2
73
3
0
SEQEND
0
POLYLINE
66
1
8
0
6
CONTINUOUS
62
252
70
64
75
0
10
0.000000
20
0.000000
30
0.000000
0
VERTEX
8
0
6
CONTINUOUS
62
252
70
192
10
6.000000
20
-16.308479
30
-39.200000
0
VERTEX
8
0
6
CONTINUOUS
62
252
70
192
10
6.000000
20
-16.308579
30
-39.200000
0
VERTEX
8
0
6
CONTINUOUS
62
252
70
192
10
0.500000
20
-16.308579
30
-39.200000
0
VERTEX
8
0
6
CONTINUOUS
62
252
70
192
10
0.500000
20
16.308579
30
-39.200000
0
VERTEX
8
0
6
CONTINUOUS
62
252
70
192
10
6.000000
20
16.308579
30
-39.200000
0
VERTEX
8
0
6
CONTINUOUS
62
252
70
192
10
6.000000
20
16.308679
30
-39.200000
0
VERTEX
8
0
6
CONTINUOUS
62
252
70
192
10
30.800000
20
16.308679
30
-39.200000
0
VERTEX
8
0
6
CONTINUOUS
62
252
70
192
10
30.800000
20
-16.308479
30
-39.200000
0
VERTEX
8
0
6
CONTINUOUS
62
252
70
128
10
0.000000
20
0.000000
30
0.000000
71
2
72
3
73
1
0
VERTEX
8
0
6
CONTINUOUS
62
252
70
128
10
0.000000
20
0.000000
30
0.000000
71
1
72
3
73
4
0
VERTEX
8
0
6
CONTINUOUS
62
252
70
128
10
0.000000
20
0.000000
30
0.000000
71
1
72
4
73
5
0
VERTEX
8
0
6
CONTINUOUS
62
252
70
128
10
0.000000
20
0.000000
30
0.000000
71
6
72
7
73
5
0
VERTEX
8
0
6
CONTINUOUS
62
252
70
128
10
0.000000
20
0.000000
30
0.000000
71
5
72
7
73
8
0
VERTEX
8
0
6
CONTINUOUS
62
252
70
128
10
0.000000
20
0.000000
30
0.000000
71
5
72
8
73
1
0
SEQEND
0
POLYLINE
66
1
8
0
6
CONTINUOUS
62
252
70
64
75
0
10
0.000000
20
0.000000
30
0.000000
0
VERTEX
8
0
6
CONTINUOUS
62
252
70
192
10
6.000000
20
-16.308579
30
-39.200000
0
VERTEX
8
0
6
CONTINUOUS
62
252
70
192
10
6.000000
20
-17.108579
30
-40.000000
0
VERTEX
8
0
6
CONTINUOUS
62
252
70
192
10
0.500000
20
-17.108579
30
-40.000000
0
VERTEX
8
0
6
CONTINUOUS
62
252
70
192
10
0.500000
20
-16.308579
30
-39.200000
0
VERTEX
8
0
6
CONTINUOUS
62
252
70
128
10
0.000000
20
0.000000
30
0.000000
71
1
72
2
73
4
0
VERTEX
8
0
6
CONTINUOUS
62
252
70
128
10
0.000000
20
0.000000
30
0.000000
71
4
72
2
73
3
0
SEQEND
0
ENDSEC
0
EOF
