0
SECTION
2
HEADER
9
$ACADVER
1
AC1009
9
$INSBASE
10
0.0
20
0.0
30
0.0
9
$EXTMIN
10
0.000000
20
0.000000
30
0.000000
9
$EXTMAX
10
0.000000
20
0.000000
30
0.000000
9
$UCSORG
10
0.0
20
0.0
30
0.0
9
$UCSXDIR
10
1.0
20
0.0
30
0.0
9
$UCSYDIR
10
0.0
20
1.0
30
0.0
9
$CLAYER
8
0
9
$SHADEDGE
70
3
0
ENDSEC
0
SECTION
2
TABLES
0
TABLE
2
LTYPE
70
2
0
LTYPE
2
CONTINUOUS
70
0
3
Solid line
72
65
73
0
40
0.0
0
ENDTAB
0
TABLE
2
LAYER
70
5
0
LAYER
2
0
70
0
62
7
6
CONTINUOUS
0
ENDTAB
0
TABLE
2
APPID
70
1
0
APPID
2
ACAD
70
64
0
ENDTAB
0
ENDSEC
0
SECTION
2
BLOCKS
0
ENDSEC
0
SECTION
2
ENTITIES
0
POLYLINE
66
1
8
0
6
CONTINUOUS
62
252
70
64
75
0
10
0.000000
20
0.000000
30
0.000000
0
VERTEX
8
0
6
CONTINUOUS
62
252
70
192
10
87.700000
20
-1.900000
30
2.000000
0
VERTEX
8
0
6
CONTINUOUS
62
252
70
192
10
87.700000
20
-1.900000
30
6.300000
0
VERTEX
8
0
6
CONTINUOUS
62
252
70
192
10
87.700000
20
4.300000
30
6.300000
0
VERTEX
8
0
6
CONTINUOUS
62
252
70
192
10
87.700000
20
4.300000
30
12.000000
0
VERTEX
8
0
6
CONTINUOUS
62
252
70
192
10
87.700000
20
-8.500000
30
12.000000
0
VERTEX
8
0
6
CONTINUOUS
62
252
70
192
10
87.700000
20
-8.500000
30
2.000000
0
VERTEX
8
0
6
CONTINUOUS
62
252
70
128
10
0.000000
20
0.000000
30
0.000000
71
1
72
2
73
6
0
VERTEX
8
0
6
CONTINUOUS
62
252
70
128
10
0.000000
20
0.000000
30
0.000000
71
6
72
2
73
5
0
VERTEX
8
0
6
CONTINUOUS
62
252
70
128
10
0.000000
20
0.000000
30
0.000000
71
5
72
2
73
4
0
VERTEX
8
0
6
CONTINUOUS
62
252
70
128
10
0.000000
20
0.000000
30
0.000000
71
4
72
2
73
3
0
SEQEND
0
POLYLINE
66
1
8
0
6
CONTINUOUS
62
252
70
64
75
0
10
0.000000
20
0.000000
30
0.000000
0
VERTEX
8
0
6
CONTINUOUS
62
252
70
192
10
87.000000
20
-8.500000
30
12.000000
0
VERTEX
8
0
6
CONTINUOUS
62
252
70
192
10
87.000000
20
-6.000000
30
13.400000
0
VERTEX
8
0
6
CONTINUOUS
62
252
70
192
10
83.000000
20
-6.000000
30
13.400000
0
VERTEX
8
0
6
CONTINUOUS
62
252
70
192
10
83.000000
20
-8.500000
30
12.000000
0
VERTEX
8
0
6
CONTINUOUS
62
252
70
128
10
0.000000
20
0.000000
30
0.000000
71
2
72
3
73
1
0
VERTEX
8
0
6
CONTINUOUS
62
252
70
128
10
0.000000
20
0.000000
30
0.000000
71
1
72
3
73
4
0
SEQEND
0
POLYLINE
66
1
8
0
6
CONTINUOUS
62
252
70
64
75
0
10
0.000000
20
0.000000
30
0.000000
0
VERTEX
8
0
6
CONTINUOUS
62
252
70
192
10
87.000000
20
-6.000000
30
13.400000
0
VERTEX
8
0
6
CONTINUOUS
62
252
70
192
10
87.000000
20
-5.500000
30
13.400000
0
VERTEX
8
0
6
CONTINUOUS
62
252
70
192
10
83.000000
20
-5.500000
30
13.400000
0
VERTEX
8
0
6
CONTINUOUS
62
252
70
192
10
83.000000
20
-6.000000
30
13.400000
0
VERTEX
8
0
6
CONTINUOUS
62
252
70
128
10
0.000000
20
0.000000
30
0.000000
71
2
72
3
73
1
0
VERTEX
8
0
6
CONTINUOUS
62
252
70
128
10
0.000000
20
0.000000
30
0.000000
71
1
72
3
73
4
0
SEQEND
0
POLYLINE
66
1
8
0
6
CONTINUOUS
62
252
70
64
75
0
10
0.000000
20
0.000000
30
0.000000
0
VERTEX
8
0
6
CONTINUOUS
62
252
70
192
10
87.000000
20
-5.500000
30
13.400000
0
VERTEX
8
0
6
CONTINUOUS
62
252
70
192
10
87.000000
20
-5.500000
30
12.000000
0
VERTEX
8
0
6
CONTINUOUS
62
252
70
192
10
83.000000
20
-5.500000
30
12.000000
0
VERTEX
8
0
6
CONTINUOUS
62
252
70
192
10
83.000000
20
-5.500000
30
13.400000
0
VERTEX
8
0
6
CONTINUOUS
62
252
70
128
10
0.000000
20
0.000000
30
0.000000
71
2
72
3
73
1
0
VERTEX
8
0
6
CONTINUOUS
62
252
70
128
10
0.000000
20
0.000000
30
0.000000
71
1
72
3
73
4
0
SEQEND
0
POLYLINE
66
1
8
0
6
CONTINUOUS
62
252
70
64
75
0
10
0.000000
20
0.000000
30
0.000000
0
VERTEX
8
0
6
CONTINUOUS
62
252
70
192
10
83.000000
20
-5.500000
30
12.000000
0
VERTEX
8
0
6
CONTINUOUS
62
252
70
192
10
83.000000
20
-8.500000
30
12.000000
0
VERTEX
8
0
6
CONTINUOUS
62
252
70
192
10
83.000000
20
-6.000000
30
13.400000
0
VERTEX
8
0
6
CONTINUOUS
62
252
70
192
10
83.000000
20
-5.500000
30
13.400000
0
VERTEX
8
0
6
CONTINUOUS
62
252
70
128
10
0.000000
20
0.000000
30
0.000000
71
2
72
3
73
1
0
VERTEX
8
0
6
CONTINUOUS
62
252
70
128
10
0.000000
20
0.000000
30
0.000000
71
1
72
3
73
4
0
SEQEND
0
POLYLINE
66
1
8
0
6
CONTINUOUS
62
252
70
64
75
0
10
0.000000
20
0.000000
30
0.000000
0
VERTEX
8
0
6
CONTINUOUS
62
252
70
192
10
87.000000
20
-6.000000
30
13.400000
0
VERTEX
8
0
6
CONTINUOUS
62
252
70
192
10
87.000000
20
-8.500000
30
12.000000
0
VERTEX
8
0
6
CONTINUOUS
62
252
70
192
10
87.000000
20
-5.500000
30
12.000000
0
VERTEX
8
0
6
CONTINUOUS
62
252
70
192
10
87.000000
20
-5.500000
30
13.400000
0
VERTEX
8
0
6
CONTINUOUS
62
252
70
128
10
0.000000
20
0.000000
30
0.000000
71
2
72
3
73
1
0
VERTEX
8
0
6
CONTINUOUS
62
252
70
128
10
0.000000
20
0.000000
30
0.000000
71
1
72
3
73
4
0
SEQEND
0
POLYLINE
66
1
8
0
6
CONTINUOUS
62
252
70
64
75
0
10
0.000000
20
0.000000
30
0.000000
0
VERTEX
8
0
6
CONTINUOUS
62
252
70
192
10
86.800000
20
-3.500000
30
11.200000
0
VERTEX
8
0
6
CONTINUOUS
62
252
70
192
10
83.200000
20
-3.500000
30
11.200000
0
VERTEX
8
0
6
CONTINUOUS
62
252
70
192
10
83.200000
20
-3.500000
30
7.600000
0
VERTEX
8
0
6
CONTINUOUS
62
252
70
192
10
86.800000
20
-3.500000
30
7.600000
0
VERTEX
8
0
6
CONTINUOUS
62
252
70
128
10
0.000000
20
0.000000
30
0.000000
71
2
72
3
73
1
0
VERTEX
8
0
6
CONTINUOUS
62
252
70
128
10
0.000000
20
0.000000
30
0.000000
71
1
72
3
73
4
0
SEQEND
0
POLYLINE
66
1
8
0
6
CONTINUOUS
62
252
70
64
75
0
10
0.000000
20
0.000000
30
0.000000
0
VERTEX
8
0
6
CONTINUOUS
62
252
70
192
10
83.200000
20
-8.500000
30
7.600000
0
VERTEX
8
0
6
CONTINUOUS
62
252
70
192
10
83.200000
20
-3.500000
30
7.600000
0
VERTEX
8
0
6
CONTINUOUS
62
252
70
192
10
83.200000
20
-3.500000
30
11.200000
0
VERTEX
8
0
6
CONTINUOUS
62
252
70
192
10
83.200000
20
-8.500000
30
11.200000
0
VERTEX
8
0
6
CONTINUOUS
62
252
70
128
10
0.000000
20
0.000000
30
0.000000
71
1
72
2
73
4
0
VERTEX
8
0
6
CONTINUOUS
62
252
70
128
10
0.000000
20
0.000000
30
0.000000
71
4
72
2
73
3
0
SEQEND
0
POLYLINE
66
1
8
0
6
CONTINUOUS
62
252
70
64
75
0
10
0.000000
20
0.000000
30
0.000000
0
VERTEX
8
0
6
CONTINUOUS
62
252
70
192
10
86.800000
20
-8.500000
30
7.600000
0
VERTEX
8
0
6
CONTINUOUS
62
252
70
192
10
86.800000
20
-3.500000
30
7.600000
0
VERTEX
8
0
6
CONTINUOUS
62
252
70
192
10
83.200000
20
-3.500000
30
7.600000
0
VERTEX
8
0
6
CONTINUOUS
62
252
70
192
10
83.200000
20
-8.500000
30
7.600000
0
VERTEX
8
0
6
CONTINUOUS
62
252
70
128
10
0.000000
20
0.000000
30
0.000000
71
1
72
2
73
4
0
VERTEX
8
0
6
CONTINUOUS
62
252
70
128
10
0.000000
20
0.000000
30
0.000000
71
4
72
2
73
3
0
SEQEND
0
POLYLINE
66
1
8
0
6
CONTINUOUS
62
252
70
64
75
0
10
0.000000
20
0.000000
30
0.000000
0
VERTEX
8
0
6
CONTINUOUS
62
252
70
192
10
86.800000
20
-8.500000
30
11.200000
0
VERTEX
8
0
6
CONTINUOUS
62
252
70
192
10
86.800000
20
-3.500000
30
11.200000
0
VERTEX
8
0
6
CONTINUOUS
62
252
70
192
10
86.800000
20
-3.500000
30
7.600000
0
VERTEX
8
0
6
CONTINUOUS
62
252
70
192
10
86.800000
20
-8.500000
30
7.600000
0
VERTEX
8
0
6
CONTINUOUS
62
252
70
128
10
0.000000
20
0.000000
30
0.000000
71
1
72
2
73
4
0
VERTEX
8
0
6
CONTINUOUS
62
252
70
128
10
0.000000
20
0.000000
30
0.000000
71
4
72
2
73
3
0
SEQEND
0
POLYLINE
66
1
8
0
6
CONTINUOUS
62
252
70
64
75
0
10
0.000000
20
0.000000
30
0.000000
0
VERTEX
8
0
6
CONTINUOUS
62
252
70
192
10
83.200000
20
-8.500000
30
11.200000
0
VERTEX
8
0
6
CONTINUOUS
62
252
70
192
10
83.200000
20
-3.500000
30
11.200000
0
VERTEX
8
0
6
CONTINUOUS
62
252
70
192
10
86.800000
20
-3.500000
30
11.200000
0
VERTEX
8
0
6
CONTINUOUS
62
252
70
192
10
86.800000
20
-8.500000
30
11.200000
0
VERTEX
8
0
6
CONTINUOUS
62
252
70
128
10
0.000000
20
0.000000
30
0.000000
71
1
72
2
73
4
0
VERTEX
8
0
6
CONTINUOUS
62
252
70
128
10
0.000000
20
0.000000
30
0.000000
71
4
72
2
73
3
0
SEQEND
0
POLYLINE
66
1
8
0
6
CONTINUOUS
62
252
70
64
75
0
10
0.000000
20
0.000000
30
0.000000
0
VERTEX
8
0
6
CONTINUOUS
62
252
70
192
10
86.800000
20
-3.500000
30
6.400000
0
VERTEX
8
0
6
CONTINUOUS
62
252
70
192
10
83.200000
20
-3.500000
30
6.400000
0
VERTEX
8
0
6
CONTINUOUS
62
252
70
192
10
83.200000
20
-3.500000
30
2.800000
0
VERTEX
8
0
6
CONTINUOUS
62
252
70
192
10
86.800000
20
-3.500000
30
2.800000
0
VERTEX
8
0
6
CONTINUOUS
62
252
70
128
10
0.000000
20
0.000000
30
0.000000
71
2
72
3
73
1
0
VERTEX
8
0
6
CONTINUOUS
62
252
70
128
10
0.000000
20
0.000000
30
0.000000
71
1
72
3
73
4
0
SEQEND
0
POLYLINE
66
1
8
0
6
CONTINUOUS
62
252
70
64
75
0
10
0.000000
20
0.000000
30
0.000000
0
VERTEX
8
0
6
CONTINUOUS
62
252
70
192
10
83.200000
20
-8.500000
30
2.800000
0
VERTEX
8
0
6
CONTINUOUS
62
252
70
192
10
83.200000
20
-3.500000
30
2.800000
0
VERTEX
8
0
6
CONTINUOUS
62
252
70
192
10
83.200000
20
-3.500000
30
6.400000
0
VERTEX
8
0
6
CONTINUOUS
62
252
70
192
10
83.200000
20
-8.500000
30
6.400000
0
VERTEX
8
0
6
CONTINUOUS
62
252
70
128
10
0.000000
20
0.000000
30
0.000000
71
1
72
2
73
4
0
VERTEX
8
0
6
CONTINUOUS
62
252
70
128
10
0.000000
20
0.000000
30
0.000000
71
4
72
2
73
3
0
SEQEND
0
POLYLINE
66
1
8
0
6
CONTINUOUS
62
252
70
64
75
0
10
0.000000
20
0.000000
30
0.000000
0
VERTEX
8
0
6
CONTINUOUS
62
252
70
192
10
86.800000
20
-8.500000
30
2.800000
0
VERTEX
8
0
6
CONTINUOUS
62
252
70
192
10
86.800000
20
-3.500000
30
2.800000
0
VERTEX
8
0
6
CONTINUOUS
62
252
70
192
10
83.200000
20
-3.500000
30
2.800000
0
VERTEX
8
0
6
CONTINUOUS
62
252
70
192
10
83.200000
20
-8.500000
30
2.800000
0
VERTEX
8
0
6
CONTINUOUS
62
252
70
128
10
0.000000
20
0.000000
30
0.000000
71
1
72
2
73
4
0
VERTEX
8
0
6
CONTINUOUS
62
252
70
128
10
0.000000
20
0.000000
30
0.000000
71
4
72
2
73
3
0
SEQEND
0
POLYLINE
66
1
8
0
6
CONTINUOUS
62
252
70
64
75
0
10
0.000000
20
0.000000
30
0.000000
0
VERTEX
8
0
6
CONTINUOUS
62
252
70
192
10
86.800000
20
-8.500000
30
6.400000
0
VERTEX
8
0
6
CONTINUOUS
62
252
70
192
10
86.800000
20
-3.500000
30
6.400000
0
VERTEX
8
0
6
CONTINUOUS
62
252
70
192
10
86.800000
20
-3.500000
30
2.800000
0
VERTEX
8
0
6
CONTINUOUS
62
252
70
192
10
86.800000
20
-8.500000
30
2.800000
0
VERTEX
8
0
6
CONTINUOUS
62
252
70
128
10
0.000000
20
0.000000
30
0.000000
71
1
72
2
73
4
0
VERTEX
8
0
6
CONTINUOUS
62
252
70
128
10
0.000000
20
0.000000
30
0.000000
71
4
72
2
73
3
0
SEQEND
0
POLYLINE
66
1
8
0
6
CONTINUOUS
62
252
70
64
75
0
10
0.000000
20
0.000000
30
0.000000
0
VERTEX
8
0
6
CONTINUOUS
62
252
70
192
10
83.200000
20
-8.500000
30
6.400000
0
VERTEX
8
0
6
CONTINUOUS
62
252
70
192
10
83.200000
20
-3.500000
30
6.400000
0
VERTEX
8
0
6
CONTINUOUS
62
252
70
192
10
86.800000
20
-3.500000
30
6.400000
0
VERTEX
8
0
6
CONTINUOUS
62
252
70
192
10
86.800000
20
-8.500000
30
6.400000
0
VERTEX
8
0
6
CONTINUOUS
62
252
70
128
10
0.000000
20
0.000000
30
0.000000
71
1
72
2
73
4
0
VERTEX
8
0
6
CONTINUOUS
62
252
70
128
10
0.000000
20
0.000000
30
0.000000
71
4
72
2
73
3
0
SEQEND
0
POLYLINE
66
1
8
0
6
CONTINUOUS
62
252
70
64
75
0
10
0.000000
20
0.000000
30
0.000000
0
VERTEX
8
0
6
CONTINUOUS
62
252
70
192
10
83.200000
20
-8.500000
30
7.600000
0
VERTEX
8
0
6
CONTINUOUS
62
252
70
192
10
83.200000
20
-8.500000
30
11.200000
0
VERTEX
8
0
6
CONTINUOUS
62
252
70
192
10
86.800000
20
-8.500000
30
11.200000
0
VERTEX
8
0
6
CONTINUOUS
62
252
70
192
10
86.800000
20
-8.500000
30
7.600000
0
VERTEX
8
0
6
CONTINUOUS
62
252
70
192
10
83.200000
20
-8.500000
30
2.800000
0
VERTEX
8
0
6
CONTINUOUS
62
252
70
192
10
83.200000
20
-8.500000
30
6.400000
0
VERTEX
8
0
6
CONTINUOUS
62
252
70
192
10
86.800000
20
-8.500000
30
6.400000
0
VERTEX
8
0
6
CONTINUOUS
62
252
70
192
10
86.800000
20
-8.500000
30
2.800000
0
VERTEX
8
0
6
CONTINUOUS
62
252
70
192
10
87.700000
20
-8.500000
30
12.000000
0
VERTEX
8
0
6
CONTINUOUS
62
252
70
192
10
87.000000
20
-8.500000
30
12.000000
0
VERTEX
8
0
6
CONTINUOUS
62
252
70
192
10
83.000000
20
-8.500000
30
12.000000
0
VERTEX
8
0
6
CONTINUOUS
62
252
70
192
10
82.300000
20
-8.500000
30
12.000000
0
VERTEX
8
0
6
CONTINUOUS
62
252
70
192
10
82.300000
20
-8.500000
30
2.000000
0
VERTEX
8
0
6
CONTINUOUS
62
252
70
192
10
87.700000
20
-8.500000
30
2.000000
0
VERTEX
8
0
6
CONTINUOUS
62
252
70
128
10
0.000000
20
0.000000
30
0.000000
71
2
72
12
73
1
0
VERTEX
8
0
6
CONTINUOUS
62
252
70
128
10
0.000000
20
0.000000
30
0.000000
71
1
72
12
73
13
0
VERTEX
8
0
6
CONTINUOUS
62
252
70
128
10
0.000000
20
0.000000
30
0.000000
71
1
72
13
73
6
0
VERTEX
8
0
6
CONTINUOUS
62
252
70
128
10
0.000000
20
0.000000
30
0.000000
71
6
72
13
73
5
0
VERTEX
8
0
6
CONTINUOUS
62
252
70
128
10
0.000000
20
0.000000
30
0.000000
71
5
72
13
73
14
0
VERTEX
8
0
6
CONTINUOUS
62
252
70
128
10
0.000000
20
0.000000
30
0.000000
71
5
72
14
73
8
0
VERTEX
8
0
6
CONTINUOUS
62
252
70
128
10
0.000000
20
0.000000
30
0.000000
71
8
72
14
73
7
0
VERTEX
8
0
6
CONTINUOUS
62
252
70
128
10
0.000000
20
0.000000
30
0.000000
71
7
72
14
73
4
0
VERTEX
8
0
6
CONTINUOUS
62
252
70
128
10
0.000000
20
0.000000
30
0.000000
71
7
72
4
73
6
0
VERTEX
8
0
6
CONTINUOUS
62
252
70
128
10
0.000000
20
0.000000
30
0.000000
71
6
72
4
73
1
0
VERTEX
8
0
6
CONTINUOUS
62
252
70
128
10
0.000000
20
0.000000
30
0.000000
71
3
72
10
73
2
0
VERTEX
8
0
6
CONTINUOUS
62
252
70
128
10
0.000000
20
0.000000
30
0.000000
71
2
72
10
73
11
0
VERTEX
8
0
6
CONTINUOUS
62
252
70
128
10
0.000000
20
0.000000
30
0.000000
71
2
72
11
73
12
0
VERTEX
8
0
6
CONTINUOUS
62
252
70
128
10
0.000000
20
0.000000
30
0.000000
71
10
72
3
73
9
0
VERTEX
8
0
6
CONTINUOUS
62
252
70
128
10
0.000000
20
0.000000
30
0.000000
71
9
72
3
73
4
0
VERTEX
8
0
6
CONTINUOUS
62
252
70
128
10
0.000000
20
0.000000
30
0.000000
71
9
72
4
73
14
0
SEQEND
0
POLYLINE
66
1
8
0
6
CONTINUOUS
62
252
70
64
75
0
10
0.000000
20
0.000000
30
0.000000
0
VERTEX
8
0
6
CONTINUOUS
62
252
70
192
10
82.300000
20
-1.900000
30
2.000000
0
VERTEX
8
0
6
CONTINUOUS
62
252
70
192
10
87.700000
20
-1.900000
30
2.000000
0
VERTEX
8
0
6
CONTINUOUS
62
252
70
192
10
87.700000
20
-8.500000
30
2.000000
0
VERTEX
8
0
6
CONTINUOUS
62
252
70
192
10
82.300000
20
-8.500000
30
2.000000
0
VERTEX
8
0
6
CONTINUOUS
62
252
70
128
10
0.000000
20
0.000000
30
0.000000
71
2
72
3
73
1
0
VERTEX
8
0
6
CONTINUOUS
62
252
70
128
10
0.000000
20
0.000000
30
0.000000
71
1
72
3
73
4
0
SEQEND
0
POLYLINE
66
1
8
0
6
CONTINUOUS
62
252
70
64
75
0
10
0.000000
20
0.000000
30
0.000000
0
VERTEX
8
0
6
CONTINUOUS
62
252
70
192
10
82.300000
20
-1.900000
30
6.300000
0
VERTEX
8
0
6
CONTINUOUS
62
252
70
192
10
82.300000
20
-1.900000
30
2.000000
0
VERTEX
8
0
6
CONTINUOUS
62
252
70
192
10
82.300000
20
-8.500000
30
2.000000
0
VERTEX
8
0
6
CONTINUOUS
62
252
70
192
10
82.300000
20
-8.500000
30
12.000000
0
VERTEX
8
0
6
CONTINUOUS
62
252
70
192
10
82.300000
20
4.300000
30
12.000000
0
VERTEX
8
0
6
CONTINUOUS
62
252
70
192
10
82.300000
20
4.300000
30
6.300000
0
VERTEX
8
0
6
CONTINUOUS
62
252
70
128
10
0.000000
20
0.000000
30
0.000000
71
2
72
3
73
1
0
VERTEX
8
0
6
CONTINUOUS
62
252
70
128
10
0.000000
20
0.000000
30
0.000000
71
1
72
3
73
4
0
VERTEX
8
0
6
CONTINUOUS
62
252
70
128
10
0.000000
20
0.000000
30
0.000000
71
1
72
4
73
5
0
VERTEX
8
0
6
CONTINUOUS
62
252
70
128
10
0.000000
20
0.000000
30
0.000000
71
5
72
6
73
1
0
SEQEND
0
POLYLINE
66
1
8
0
6
CONTINUOUS
62
252
70
64
75
0
10
0.000000
20
0.000000
30
0.000000
0
VERTEX
8
0
6
CONTINUOUS
62
252
70
192
10
87.000000
20
-5.500000
30
12.000000
0
VERTEX
8
0
6
CONTINUOUS
62
252
70
192
10
87.000000
20
-8.500000
30
12.000000
0
VERTEX
8
0
6
CONTINUOUS
62
252
70
192
10
87.700000
20
-8.500000
30
12.000000
0
VERTEX
8
0
6
CONTINUOUS
62
252
70
192
10
87.700000
20
4.300000
30
12.000000
0
VERTEX
8
0
6
CONTINUOUS
62
252
70
192
10
82.300000
20
4.300000
30
12.000000
0
VERTEX
8
0
6
CONTINUOUS
62
252
70
192
10
82.300000
20
-8.500000
30
12.000000
0
VERTEX
8
0
6
CONTINUOUS
62
252
70
192
10
83.000000
20
-8.500000
30
12.000000
0
VERTEX
8
0
6
CONTINUOUS
62
252
70
192
10
83.000000
20
-5.500000
30
12.000000
0
VERTEX
8
0
6
CONTINUOUS
62
252
70
128
10
0.000000
20
0.000000
30
0.000000
71
2
72
3
73
1
0
VERTEX
8
0
6
CONTINUOUS
62
252
70
128
10
0.000000
20
0.000000
30
0.000000
71
1
72
3
73
4
0
VERTEX
8
0
6
CONTINUOUS
62
252
70
128
10
0.000000
20
0.000000
30
0.000000
71
1
72
4
73
8
0
VERTEX
8
0
6
CONTINUOUS
62
252
70
128
10
0.000000
20
0.000000
30
0.000000
71
8
72
4
73
5
0
VERTEX
8
0
6
CONTINUOUS
62
252
70
128
10
0.000000
20
0.000000
30
0.000000
71
8
72
5
73
6
0
VERTEX
8
0
6
CONTINUOUS
62
252
70
128
10
0.000000
20
0.000000
30
0.000000
71
6
72
7
73
8
0
SEQEND
0
POLYLINE
66
1
8
0
6
CONTINUOUS
62
252
70
64
75
0
10
0.000000
20
0.000000
30
0.000000
0
VERTEX
8
0
6
CONTINUOUS
62
252
70
192
10
87.700000
20
-1.900000
30
6.300000
0
VERTEX
8
0
6
CONTINUOUS
62
252
70
192
10
87.700000
20
-1.900000
30
2.000000
0
VERTEX
8
0
6
CONTINUOUS
62
252
70
192
10
82.300000
20
-1.900000
30
2.000000
0
VERTEX
8
0
6
CONTINUOUS
62
252
70
192
10
82.300000
20
-1.900000
30
6.300000
0
VERTEX
8
0
6
CONTINUOUS
62
252
70
192
10
77.300000
20
-1.900000
30
6.300000
0
VERTEX
8
0
6
CONTINUOUS
62
252
70
192
10
77.300000
20
-1.900000
30
1.600000
0
VERTEX
8
0
6
CONTINUOUS
62
252
70
192
10
92.700000
20
-1.900000
30
1.600000
0
VERTEX
8
0
6
CONTINUOUS
62
252
70
192
10
92.700000
20
-1.900000
30
6.300000
0
VERTEX
8
0
6
CONTINUOUS
62
252
70
128
10
0.000000
20
0.000000
30
0.000000
71
1
72
2
73
8
0
VERTEX
8
0
6
CONTINUOUS
62
252
70
128
10
0.000000
20
0.000000
30
0.000000
71
8
72
2
73
7
0
VERTEX
8
0
6
CONTINUOUS
62
252
70
128
10
0.000000
20
0.000000
30
0.000000
71
7
72
2
73
6
0
VERTEX
8
0
6
CONTINUOUS
62
252
70
128
10
0.000000
20
0.000000
30
0.000000
71
6
72
2
73
3
0
VERTEX
8
0
6
CONTINUOUS
62
252
70
128
10
0.000000
20
0.000000
30
0.000000
71
6
72
3
73
5
0
VERTEX
8
0
6
CONTINUOUS
62
252
70
128
10
0.000000
20
0.000000
30
0.000000
71
5
72
3
73
4
0
SEQEND
0
POLYLINE
66
1
8
0
6
CONTINUOUS
62
252
70
64
75
0
10
0.000000
20
0.000000
30
0.000000
0
VERTEX
8
0
6
CONTINUOUS
62
252
70
192
10
82.300000
20
-1.900000
30
6.300000
0
VERTEX
8
0
6
CONTINUOUS
62
252
70
192
10
82.300000
20
4.300000
30
6.300000
0
VERTEX
8
0
6
CONTINUOUS
62
252
70
192
10
77.300000
20
4.300000
30
6.300000
0
VERTEX
8
0
6
CONTINUOUS
62
252
70
192
10
77.300000
20
-1.900000
30
6.300000
0
VERTEX
8
0
6
CONTINUOUS
62
252
70
128
10
0.000000
20
0.000000
30
0.000000
71
1
72
2
73
4
0
VERTEX
8
0
6
CONTINUOUS
62
252
70
128
10
0.000000
20
0.000000
30
0.000000
71
4
72
2
73
3
0
SEQEND
0
POLYLINE
66
1
8
0
6
CONTINUOUS
62
252
70
64
75
0
10
0.000000
20
0.000000
30
0.000000
0
VERTEX
8
0
6
CONTINUOUS
62
252
70
192
10
77.300000
20
4.300000
30
6.300000
0
VERTEX
8
0
6
CONTINUOUS
62
252
70
192
10
77.300000
20
4.300000
30
1.600000
0
VERTEX
8
0
6
CONTINUOUS
62
252
70
192
10
77.300000
20
-1.900000
30
1.600000
0
VERTEX
8
0
6
CONTINUOUS
62
252
70
192
10
77.300000
20
-1.900000
30
6.300000
0
VERTEX
8
0
6
CONTINUOUS
62
252
70
128
10
0.000000
20
0.000000
30
0.000000
71
2
72
3
73
1
0
VERTEX
8
0
6
CONTINUOUS
62
252
70
128
10
0.000000
20
0.000000
30
0.000000
71
1
72
3
73
4
0
SEQEND
0
POLYLINE
66
1
8
0
6
CONTINUOUS
62
252
70
64
75
0
10
0.000000
20
0.000000
30
0.000000
0
VERTEX
8
0
6
CONTINUOUS
62
252
70
192
10
92.700000
20
4.300000
30
1.600000
0
VERTEX
8
0
6
CONTINUOUS
62
252
70
192
10
92.700000
20
4.300000
30
6.300000
0
VERTEX
8
0
6
CONTINUOUS
62
252
70
192
10
92.700000
20
-1.900000
30
6.300000
0
VERTEX
8
0
6
CONTINUOUS
62
252
70
192
10
92.700000
20
-1.900000
30
1.600000
0
VERTEX
8
0
6
CONTINUOUS
62
252
70
128
10
0.000000
20
0.000000
30
0.000000
71
2
72
3
73
1
0
VERTEX
8
0
6
CONTINUOUS
62
252
70
128
10
0.000000
20
0.000000
30
0.000000
71
1
72
3
73
4
0
SEQEND
0
POLYLINE
66
1
8
0
6
CONTINUOUS
62
252
70
64
75
0
10
0.000000
20
0.000000
30
0.000000
0
VERTEX
8
0
6
CONTINUOUS
62
252
70
192
10
87.700000
20
4.300000
30
6.300000
0
VERTEX
8
0
6
CONTINUOUS
62
252
70
192
10
87.700000
20
-1.900000
30
6.300000
0
VERTEX
8
0
6
CONTINUOUS
62
252
70
192
10
92.700000
20
-1.900000
30
6.300000
0
VERTEX
8
0
6
CONTINUOUS
62
252
70
192
10
92.700000
20
4.300000
30
6.300000
0
VERTEX
8
0
6
CONTINUOUS
62
252
70
128
10
0.000000
20
0.000000
30
0.000000
71
2
72
3
73
1
0
VERTEX
8
0
6
CONTINUOUS
62
252
70
128
10
0.000000
20
0.000000
30
0.000000
71
1
72
3
73
4
0
SEQEND
0
POLYLINE
66
1
8
0
6
CONTINUOUS
62
252
70
64
75
0
10
0.000000
20
0.000000
30
0.000000
0
VERTEX
8
0
6
CONTINUOUS
62
252
70
192
10
87.700000
20
4.300000
30
6.300000
0
VERTEX
8
0
6
CONTINUOUS
62
252
70
192
10
92.700000
20
4.300000
30
6.300000
0
VERTEX
8
0
6
CONTINUOUS
62
252
70
192
10
92.700000
20
4.300000
30
1.600000
0
VERTEX
8
0
6
CONTINUOUS
62
252
70
192
10
77.300000
20
4.300000
30
1.600000
0
VERTEX
8
0
6
CONTINUOUS
62
252
70
192
10
77.300000
20
4.300000
30
6.300000
0
VERTEX
8
0
6
CONTINUOUS
62
252
70
192
10
82.300000
20
4.300000
30
6.300000
0
VERTEX
8
0
6
CONTINUOUS
62
252
70
192
10
82.300000
20
4.300000
30
12.000000
0
VERTEX
8
0
6
CONTINUOUS
62
252
70
192
10
87.700000
20
4.300000
30
12.000000
0
VERTEX
8
0
6
CONTINUOUS
62
252
70
128
10
0.000000
20
0.000000
30
0.000000
71
2
72
3
73
1
0
VERTEX
8
0
6
CONTINUOUS
62
252
70
128
10
0.000000
20
0.000000
30
0.000000
71
1
72
3
73
4
0
VERTEX
8
0
6
CONTINUOUS
62
252
70
128
10
0.000000
20
0.000000
30
0.000000
71
1
72
4
73
6
0
VERTEX
8
0
6
CONTINUOUS
62
252
70
128
10
0.000000
20
0.000000
30
0.000000
71
6
72
4
73
5
0
VERTEX
8
0
6
CONTINUOUS
62
252
70
128
10
0.000000
20
0.000000
30
0.000000
71
7
72
8
73
6
0
VERTEX
8
0
6
CONTINUOUS
62
252
70
128
10
0.000000
20
0.000000
30
0.000000
71
6
72
8
73
1
0
SEQEND
0
POLYLINE
66
1
8
0
6
CONTINUOUS
62
252
70
64
75
0
10
0.000000
20
0.000000
30
0.000000
0
VERTEX
8
0
6
CONTINUOUS
62
252
70
192
10
26.180000
20
-0.200000
30
5.460000
0
VERTEX
8
0
6
CONTINUOUS
62
252
70
192
10
26.180000
20
-0.200000
30
4.820000
0
VERTEX
8
0
6
CONTINUOUS
62
252
70
192
10
26.180000
20
-5.700000
30
4.820000
0
VERTEX
8
0
6
CONTINUOUS
62
252
70
192
10
26.180000
20
-5.700000
30
5.460000
0
VERTEX
8
0
6
CONTINUOUS
62
252
70
128
10
0.000000
20
0.000000
30
0.000000
71
2
72
3
73
1
0
VERTEX
8
0
6
CONTINUOUS
62
252
70
128
10
0.000000
20
0.000000
30
0.000000
71
1
72
3
73
4
0
SEQEND
0
POLYLINE
66
1
8
0
6
CONTINUOUS
62
252
70
64
75
0
10
0.000000
20
0.000000
30
0.000000
0
VERTEX
8
0
6
CONTINUOUS
62
252
70
192
10
26.180000
20
-0.200000
30
4.820000
0
VERTEX
8
0
6
CONTINUOUS
62
252
70
192
10
26.820000
20
-0.200000
30
4.820000
0
VERTEX
8
0
6
CONTINUOUS
62
252
70
192
10
26.820000
20
-5.700000
30
4.820000
0
VERTEX
8
0
6
CONTINUOUS
62
252
70
192
10
26.180000
20
-5.700000
30
4.820000
0
VERTEX
8
0
6
CONTINUOUS
62
252
70
128
10
0.000000
20
0.000000
30
0.000000
71
1
72
2
73
4
0
VERTEX
8
0
6
CONTINUOUS
62
252
70
128
10
0.000000
20
0.000000
30
0.000000
71
4
72
2
73
3
0
SEQEND
0
POLYLINE
66
1
8
0
6
CONTINUOUS
62
252
70
64
75
0
10
0.000000
20
0.000000
30
0.000000
0
VERTEX
8
0
6
CONTINUOUS
62
252
70
192
10
26.820000
20
-5.700000
30
4.820000
0
VERTEX
8
0
6
CONTINUOUS
62
252
70
192
10
26.820000
20
-5.700000
30
5.460000
0
VERTEX
8
0
6
CONTINUOUS
62
252
70
192
10
26.180000
20
-5.700000
30
5.460000
0
VERTEX
8
0
6
CONTINUOUS
62
252
70
192
10
26.180000
20
-5.700000
30
4.820000
0
VERTEX
8
0
6
CONTINUOUS
62
252
70
128
10
0.000000
20
0.000000
30
0.000000
71
2
72
3
73
1
0
VERTEX
8
0
6
CONTINUOUS
62
252
70
128
10
0.000000
20
0.000000
30
0.000000
71
1
72
3
73
4
0
SEQEND
0
POLYLINE
66
1
8
0
6
CONTINUOUS
62
252
70
64
75
0
10
0.000000
20
0.000000
30
0.000000
0
VERTEX
8
0
6
CONTINUOUS
62
252
70
192
10
26.820000
20
-0.200000
30
5.460000
0
VERTEX
8
0
6
CONTINUOUS
62
252
70
192
10
26.180000
20
-0.200000
30
5.460000
0
VERTEX
8
0
6
CONTINUOUS
62
252
70
192
10
26.180000
20
-5.700000
30
5.460000
0
VERTEX
8
0
6
CONTINUOUS
62
252
70
192
10
26.820000
20
-5.700000
30
5.460000
0
VERTEX
8
0
6
CONTINUOUS
62
252
70
128
10
0.000000
20
0.000000
30
0.000000
71
2
72
3
73
1
0
VERTEX
8
0
6
CONTINUOUS
62
252
70
128
10
0.000000
20
0.000000
30
0.000000
71
1
72
3
73
4
0
SEQEND
0
POLYLINE
66
1
8
0
6
CONTINUOUS
62
252
70
64
75
0
10
0.000000
20
0.000000
30
0.000000
0
VERTEX
8
0
6
CONTINUOUS
62
252
70
192
10
26.820000
20
-0.200000
30
4.820000
0
VERTEX
8
0
6
CONTINUOUS
62
252
70
192
10
26.820000
20
-0.200000
30
5.460000
0
VERTEX
8
0
6
CONTINUOUS
62
252
70
192
10
26.820000
20
-5.700000
30
5.460000
0
VERTEX
8
0
6
CONTINUOUS
62
252
70
192
10
26.820000
20
-5.700000
30
4.820000
0
VERTEX
8
0
6
CONTINUOUS
62
252
70
128
10
0.000000
20
0.000000
30
0.000000
71
2
72
3
73
1
0
VERTEX
8
0
6
CONTINUOUS
62
252
70
128
10
0.000000
20
0.000000
30
0.000000
71
1
72
3
73
4
0
SEQEND
0
POLYLINE
66
1
8
0
6
CONTINUOUS
62
252
70
64
75
0
10
0.000000
20
0.000000
30
0.000000
0
VERTEX
8
0
6
CONTINUOUS
62
252
70
192
10
23.680000
20
-0.200000
30
5.460000
0
VERTEX
8
0
6
CONTINUOUS
62
252
70
192
10
23.680000
20
-0.200000
30
4.820000
0
VERTEX
8
0
6
CONTINUOUS
62
252
70
192
10
23.680000
20
-5.700000
30
4.820000
0
VERTEX
8
0
6
CONTINUOUS
62
252
70
192
10
23.680000
20
-5.700000
30
5.460000
0
VERTEX
8
0
6
CONTINUOUS
62
252
70
128
10
0.000000
20
0.000000
30
0.000000
71
2
72
3
73
1
0
VERTEX
8
0
6
CONTINUOUS
62
252
70
128
10
0.000000
20
0.000000
30
0.000000
71
1
72
3
73
4
0
SEQEND
0
POLYLINE
66
1
8
0
6
CONTINUOUS
62
252
70
64
75
0
10
0.000000
20
0.000000
30
0.000000
0
VERTEX
8
0
6
CONTINUOUS
62
252
70
192
10
23.680000
20
-0.200000
30
4.820000
0
VERTEX
8
0
6
CONTINUOUS
62
252
70
192
10
24.320000
20
-0.200000
30
4.820000
0
VERTEX
8
0
6
CONTINUOUS
62
252
70
192
10
24.320000
20
-5.700000
30
4.820000
0
VERTEX
8
0
6
CONTINUOUS
62
252
70
192
10
23.680000
20
-5.700000
30
4.820000
0
VERTEX
8
0
6
CONTINUOUS
62
252
70
128
10
0.000000
20
0.000000
30
0.000000
71
1
72
2
73
4
0
VERTEX
8
0
6
CONTINUOUS
62
252
70
128
10
0.000000
20
0.000000
30
0.000000
71
4
72
2
73
3
0
SEQEND
0
POLYLINE
66
1
8
0
6
CONTINUOUS
62
252
70
64
75
0
10
0.000000
20
0.000000
30
0.000000
0
VERTEX
8
0
6
CONTINUOUS
62
252
70
192
10
24.320000
20
-5.700000
30
4.820000
0
VERTEX
8
0
6
CONTINUOUS
62
252
70
192
10
24.320000
20
-5.700000
30
5.460000
0
VERTEX
8
0
6
CONTINUOUS
62
252
70
192
10
23.680000
20
-5.700000
30
5.460000
0
VERTEX
8
0
6
CONTINUOUS
62
252
70
192
10
23.680000
20
-5.700000
30
4.820000
0
VERTEX
8
0
6
CONTINUOUS
62
252
70
128
10
0.000000
20
0.000000
30
0.000000
71
2
72
3
73
1
0
VERTEX
8
0
6
CONTINUOUS
62
252
70
128
10
0.000000
20
0.000000
30
0.000000
71
1
72
3
73
4
0
SEQEND
0
POLYLINE
66
1
8
0
6
CONTINUOUS
62
252
70
64
75
0
10
0.000000
20
0.000000
30
0.000000
0
VERTEX
8
0
6
CONTINUOUS
62
252
70
192
10
24.320000
20
-0.200000
30
5.460000
0
VERTEX
8
0
6
CONTINUOUS
62
252
70
192
10
23.680000
20
-0.200000
30
5.460000
0
VERTEX
8
0
6
CONTINUOUS
62
252
70
192
10
23.680000
20
-5.700000
30
5.460000
0
VERTEX
8
0
6
CONTINUOUS
62
252
70
192
10
24.320000
20
-5.700000
30
5.460000
0
VERTEX
8
0
6
CONTINUOUS
62
252
70
128
10
0.000000
20
0.000000
30
0.000000
71
2
72
3
73
1
0
VERTEX
8
0
6
CONTINUOUS
62
252
70
128
10
0.000000
20
0.000000
30
0.000000
71
1
72
3
73
4
0
SEQEND
0
POLYLINE
66
1
8
0
6
CONTINUOUS
62
252
70
64
75
0
10
0.000000
20
0.000000
30
0.000000
0
VERTEX
8
0
6
CONTINUOUS
62
252
70
192
10
24.320000
20
-0.200000
30
4.820000
0
VERTEX
8
0
6
CONTINUOUS
62
252
70
192
10
24.320000
20
-0.200000
30
5.460000
0
VERTEX
8
0
6
CONTINUOUS
62
252
70
192
10
24.320000
20
-5.700000
30
5.460000
0
VERTEX
8
0
6
CONTINUOUS
62
252
70
192
10
24.320000
20
-5.700000
30
4.820000
0
VERTEX
8
0
6
CONTINUOUS
62
252
70
128
10
0.000000
20
0.000000
30
0.000000
71
1
72
2
73
4
0
VERTEX
8
0
6
CONTINUOUS
62
252
70
128
10
0.000000
20
0.000000
30
0.000000
71
4
72
2
73
3
0
SEQEND
0
POLYLINE
66
1
8
0
6
CONTINUOUS
62
252
70
64
75
0
10
0.000000
20
0.000000
30
0.000000
0
VERTEX
8
0
6
CONTINUOUS
62
252
70
192
10
21.180000
20
-0.200000
30
5.460000
0
VERTEX
8
0
6
CONTINUOUS
62
252
70
192
10
21.180000
20
-0.200000
30
4.820000
0
VERTEX
8
0
6
CONTINUOUS
62
252
70
192
10
21.180000
20
-5.700000
30
4.820000
0
VERTEX
8
0
6
CONTINUOUS
62
252
70
192
10
21.180000
20
-5.700000
30
5.460000
0
VERTEX
8
0
6
CONTINUOUS
62
252
70
128
10
0.000000
20
0.000000
30
0.000000
71
2
72
3
73
1
0
VERTEX
8
0
6
CONTINUOUS
62
252
70
128
10
0.000000
20
0.000000
30
0.000000
71
1
72
3
73
4
0
SEQEND
0
POLYLINE
66
1
8
0
6
CONTINUOUS
62
252
70
64
75
0
10
0.000000
20
0.000000
30
0.000000
0
VERTEX
8
0
6
CONTINUOUS
62
252
70
192
10
21.180000
20
-0.200000
30
4.820000
0
VERTEX
8
0
6
CONTINUOUS
62
252
70
192
10
21.820000
20
-0.200000
30
4.820000
0
VERTEX
8
0
6
CONTINUOUS
62
252
70
192
10
21.820000
20
-5.700000
30
4.820000
0
VERTEX
8
0
6
CONTINUOUS
62
252
70
192
10
21.180000
20
-5.700000
30
4.820000
0
VERTEX
8
0
6
CONTINUOUS
62
252
70
128
10
0.000000
20
0.000000
30
0.000000
71
1
72
2
73
4
0
VERTEX
8
0
6
CONTINUOUS
62
252
70
128
10
0.000000
20
0.000000
30
0.000000
71
4
72
2
73
3
0
SEQEND
0
POLYLINE
66
1
8
0
6
CONTINUOUS
62
252
70
64
75
0
10
0.000000
20
0.000000
30
0.000000
0
VERTEX
8
0
6
CONTINUOUS
62
252
70
192
10
21.820000
20
-5.700000
30
4.820000
0
VERTEX
8
0
6
CONTINUOUS
62
252
70
192
10
21.820000
20
-5.700000
30
5.460000
0
VERTEX
8
0
6
CONTINUOUS
62
252
70
192
10
21.180000
20
-5.700000
30
5.460000
0
VERTEX
8
0
6
CONTINUOUS
62
252
70
192
10
21.180000
20
-5.700000
30
4.820000
0
VERTEX
8
0
6
CONTINUOUS
62
252
70
128
10
0.000000
20
0.000000
30
0.000000
71
2
72
3
73
1
0
VERTEX
8
0
6
CONTINUOUS
62
252
70
128
10
0.000000
20
0.000000
30
0.000000
71
1
72
3
73
4
0
SEQEND
0
POLYLINE
66
1
8
0
6
CONTINUOUS
62
252
70
64
75
0
10
0.000000
20
0.000000
30
0.000000
0
VERTEX
8
0
6
CONTINUOUS
62
252
70
192
10
21.820000
20
-0.200000
30
5.460000
0
VERTEX
8
0
6
CONTINUOUS
62
252
70
192
10
21.180000
20
-0.200000
30
5.460000
0
VERTEX
8
0
6
CONTINUOUS
62
252
70
192
10
21.180000
20
-5.700000
30
5.460000
0
VERTEX
8
0
6
CONTINUOUS
62
252
70
192
10
21.820000
20
-5.700000
30
5.460000
0
VERTEX
8
0
6
CONTINUOUS
62
252
70
128
10
0.000000
20
0.000000
30
0.000000
71
2
72
3
73
1
0
VERTEX
8
0
6
CONTINUOUS
62
252
70
128
10
0.000000
20
0.000000
30
0.000000
71
1
72
3
73
4
0
SEQEND
0
POLYLINE
66
1
8
0
6
CONTINUOUS
62
252
70
64
75
0
10
0.000000
20
0.000000
30
0.000000
0
VERTEX
8
0
6
CONTINUOUS
62
252
70
192
10
21.820000
20
-0.200000
30
4.820000
0
VERTEX
8
0
6
CONTINUOUS
62
252
70
192
10
21.820000
20
-0.200000
30
5.460000
0
VERTEX
8
0
6
CONTINUOUS
62
252
70
192
10
21.820000
20
-5.700000
30
5.460000
0
VERTEX
8
0
6
CONTINUOUS
62
252
70
192
10
21.820000
20
-5.700000
30
4.820000
0
VERTEX
8
0
6
CONTINUOUS
62
252
70
128
10
0.000000
20
0.000000
30
0.000000
71
2
72
3
73
1
0
VERTEX
8
0
6
CONTINUOUS
62
252
70
128
10
0.000000
20
0.000000
30
0.000000
71
1
72
3
73
4
0
SEQEND
0
POLYLINE
66
1
8
0
6
CONTINUOUS
62
252
70
64
75
0
10
0.000000
20
0.000000
30
0.000000
0
VERTEX
8
0
6
CONTINUOUS
62
252
70
192
10
18.680000
20
-0.200000
30
5.460000
0
VERTEX
8
0
6
CONTINUOUS
62
252
70
192
10
18.680000
20
-0.200000
30
4.820000
0
VERTEX
8
0
6
CONTINUOUS
62
252
70
192
10
18.680000
20
-5.700000
30
4.820000
0
VERTEX
8
0
6
CONTINUOUS
62
252
70
192
10
18.680000
20
-5.700000
30
5.460000
0
VERTEX
8
0
6
CONTINUOUS
62
252
70
128
10
0.000000
20
0.000000
30
0.000000
71
2
72
3
73
1
0
VERTEX
8
0
6
CONTINUOUS
62
252
70
128
10
0.000000
20
0.000000
30
0.000000
71
1
72
3
73
4
0
SEQEND
0
POLYLINE
66
1
8
0
6
CONTINUOUS
62
252
70
64
75
0
10
0.000000
20
0.000000
30
0.000000
0
VERTEX
8
0
6
CONTINUOUS
62
252
70
192
10
18.680000
20
-0.200000
30
4.820000
0
VERTEX
8
0
6
CONTINUOUS
62
252
70
192
10
19.320000
20
-0.200000
30
4.820000
0
VERTEX
8
0
6
CONTINUOUS
62
252
70
192
10
19.320000
20
-5.700000
30
4.820000
0
VERTEX
8
0
6
CONTINUOUS
62
252
70
192
10
18.680000
20
-5.700000
30
4.820000
0
VERTEX
8
0
6
CONTINUOUS
62
252
70
128
10
0.000000
20
0.000000
30
0.000000
71
1
72
2
73
4
0
VERTEX
8
0
6
CONTINUOUS
62
252
70
128
10
0.000000
20
0.000000
30
0.000000
71
4
72
2
73
3
0
SEQEND
0
POLYLINE
66
1
8
0
6
CONTINUOUS
62
252
70
64
75
0
10
0.000000
20
0.000000
30
0.000000
0
VERTEX
8
0
6
CONTINUOUS
62
252
70
192
10
19.320000
20
-5.700000
30
4.820000
0
VERTEX
8
0
6
CONTINUOUS
62
252
70
192
10
19.320000
20
-5.700000
30
5.460000
0
VERTEX
8
0
6
CONTINUOUS
62
252
70
192
10
18.680000
20
-5.700000
30
5.460000
0
VERTEX
8
0
6
CONTINUOUS
62
252
70
192
10
18.680000
20
-5.700000
30
4.820000
0
VERTEX
8
0
6
CONTINUOUS
62
252
70
128
10
0.000000
20
0.000000
30
0.000000
71
2
72
3
73
1
0
VERTEX
8
0
6
CONTINUOUS
62
252
70
128
10
0.000000
20
0.000000
30
0.000000
71
1
72
3
73
4
0
SEQEND
0
POLYLINE
66
1
8
0
6
CONTINUOUS
62
252
70
64
75
0
10
0.000000
20
0.000000
30
0.000000
0
VERTEX
8
0
6
CONTINUOUS
62
252
70
192
10
19.320000
20
-0.200000
30
5.460000
0
VERTEX
8
0
6
CONTINUOUS
62
252
70
192
10
18.680000
20
-0.200000
30
5.460000
0
VERTEX
8
0
6
CONTINUOUS
62
252
70
192
10
18.680000
20
-5.700000
30
5.460000
0
VERTEX
8
0
6
CONTINUOUS
62
252
70
192
10
19.320000
20
-5.700000
30
5.460000
0
VERTEX
8
0
6
CONTINUOUS
62
252
70
128
10
0.000000
20
0.000000
30
0.000000
71
2
72
3
73
1
0
VERTEX
8
0
6
CONTINUOUS
62
252
70
128
10
0.000000
20
0.000000
30
0.000000
71
1
72
3
73
4
0
SEQEND
0
POLYLINE
66
1
8
0
6
CONTINUOUS
62
252
70
64
75
0
10
0.000000
20
0.000000
30
0.000000
0
VERTEX
8
0
6
CONTINUOUS
62
252
70
192
10
19.320000
20
-0.200000
30
4.820000
0
VERTEX
8
0
6
CONTINUOUS
62
252
70
192
10
19.320000
20
-0.200000
30
5.460000
0
VERTEX
8
0
6
CONTINUOUS
62
252
70
192
10
19.320000
20
-5.700000
30
5.460000
0
VERTEX
8
0
6
CONTINUOUS
62
252
70
192
10
19.320000
20
-5.700000
30
4.820000
0
VERTEX
8
0
6
CONTINUOUS
62
252
70
128
10
0.000000
20
0.000000
30
0.000000
71
2
72
3
73
1
0
VERTEX
8
0
6
CONTINUOUS
62
252
70
128
10
0.000000
20
0.000000
30
0.000000
71
1
72
3
73
4
0
SEQEND
0
POLYLINE
66
1
8
0
6
CONTINUOUS
62
252
70
64
75
0
10
0.000000
20
0.000000
30
0.000000
0
VERTEX
8
0
6
CONTINUOUS
62
252
70
192
10
16.180000
20
-0.200000
30
5.460000
0
VERTEX
8
0
6
CONTINUOUS
62
252
70
192
10
16.180000
20
-0.200000
30
4.820000
0
VERTEX
8
0
6
CONTINUOUS
62
252
70
192
10
16.180000
20
-5.700000
30
4.820000
0
VERTEX
8
0
6
CONTINUOUS
62
252
70
192
10
16.180000
20
-5.700000
30
5.460000
0
VERTEX
8
0
6
CONTINUOUS
62
252
70
128
10
0.000000
20
0.000000
30
0.000000
71
2
72
3
73
1
0
VERTEX
8
0
6
CONTINUOUS
62
252
70
128
10
0.000000
20
0.000000
30
0.000000
71
1
72
3
73
4
0
SEQEND
0
POLYLINE
66
1
8
0
6
CONTINUOUS
62
252
70
64
75
0
10
0.000000
20
0.000000
30
0.000000
0
VERTEX
8
0
6
CONTINUOUS
62
252
70
192
10
16.180000
20
-0.200000
30
4.820000
0
VERTEX
8
0
6
CONTINUOUS
62
252
70
192
10
16.820000
20
-0.200000
30
4.820000
0
VERTEX
8
0
6
CONTINUOUS
62
252
70
192
10
16.820000
20
-5.700000
30
4.820000
0
VERTEX
8
0
6
CONTINUOUS
62
252
70
192
10
16.180000
20
-5.700000
30
4.820000
0
VERTEX
8
0
6
CONTINUOUS
62
252
70
128
10
0.000000
20
0.000000
30
0.000000
71
1
72
2
73
4
0
VERTEX
8
0
6
CONTINUOUS
62
252
70
128
10
0.000000
20
0.000000
30
0.000000
71
4
72
2
73
3
0
SEQEND
0
POLYLINE
66
1
8
0
6
CONTINUOUS
62
252
70
64
75
0
10
0.000000
20
0.000000
30
0.000000
0
VERTEX
8
0
6
CONTINUOUS
62
252
70
192
10
16.820000
20
-5.700000
30
4.820000
0
VERTEX
8
0
6
CONTINUOUS
62
252
70
192
10
16.820000
20
-5.700000
30
5.460000
0
VERTEX
8
0
6
CONTINUOUS
62
252
70
192
10
16.180000
20
-5.700000
30
5.460000
0
VERTEX
8
0
6
CONTINUOUS
62
252
70
192
10
16.180000
20
-5.700000
30
4.820000
0
VERTEX
8
0
6
CONTINUOUS
62
252
70
128
10
0.000000
20
0.000000
30
0.000000
71
2
72
3
73
1
0
VERTEX
8
0
6
CONTINUOUS
62
252
70
128
10
0.000000
20
0.000000
30
0.000000
71
1
72
3
73
4
0
SEQEND
0
POLYLINE
66
1
8
0
6
CONTINUOUS
62
252
70
64
75
0
10
0.000000
20
0.000000
30
0.000000
0
VERTEX
8
0
6
CONTINUOUS
62
252
70
192
10
16.820000
20
-0.200000
30
5.460000
0
VERTEX
8
0
6
CONTINUOUS
62
252
70
192
10
16.180000
20
-0.200000
30
5.460000
0
VERTEX
8
0
6
CONTINUOUS
62
252
70
192
10
16.180000
20
-5.700000
30
5.460000
0
VERTEX
8
0
6
CONTINUOUS
62
252
70
192
10
16.820000
20
-5.700000
30
5.460000
0
VERTEX
8
0
6
CONTINUOUS
62
252
70
128
10
0.000000
20
0.000000
30
0.000000
71
2
72
3
73
1
0
VERTEX
8
0
6
CONTINUOUS
62
252
70
128
10
0.000000
20
0.000000
30
0.000000
71
1
72
3
73
4
0
SEQEND
0
POLYLINE
66
1
8
0
6
CONTINUOUS
62
252
70
64
75
0
10
0.000000
20
0.000000
30
0.000000
0
VERTEX
8
0
6
CONTINUOUS
62
252
70
192
10
16.820000
20
-0.200000
30
4.820000
0
VERTEX
8
0
6
CONTINUOUS
62
252
70
192
10
16.820000
20
-0.200000
30
5.460000
0
VERTEX
8
0
6
CONTINUOUS
62
252
70
192
10
16.820000
20
-5.700000
30
5.460000
0
VERTEX
8
0
6
CONTINUOUS
62
252
70
192
10
16.820000
20
-5.700000
30
4.820000
0
VERTEX
8
0
6
CONTINUOUS
62
252
70
128
10
0.000000
20
0.000000
30
0.000000
71
1
72
2
73
4
0
VERTEX
8
0
6
CONTINUOUS
62
252
70
128
10
0.000000
20
0.000000
30
0.000000
71
4
72
2
73
3
0
SEQEND
0
POLYLINE
66
1
8
0
6
CONTINUOUS
62
252
70
64
75
0
10
0.000000
20
0.000000
30
0.000000
0
VERTEX
8
0
6
CONTINUOUS
62
252
70
192
10
13.680000
20
-0.200000
30
5.460000
0
VERTEX
8
0
6
CONTINUOUS
62
252
70
192
10
13.680000
20
-0.200000
30
4.820000
0
VERTEX
8
0
6
CONTINUOUS
62
252
70
192
10
13.680000
20
-5.700000
30
4.820000
0
VERTEX
8
0
6
CONTINUOUS
62
252
70
192
10
13.680000
20
-5.700000
30
5.460000
0
VERTEX
8
0
6
CONTINUOUS
62
252
70
128
10
0.000000
20
0.000000
30
0.000000
71
2
72
3
73
1
0
VERTEX
8
0
6
CONTINUOUS
62
252
70
128
10
0.000000
20
0.000000
30
0.000000
71
1
72
3
73
4
0
SEQEND
0
POLYLINE
66
1
8
0
6
CONTINUOUS
62
252
70
64
75
0
10
0.000000
20
0.000000
30
0.000000
0
VERTEX
8
0
6
CONTINUOUS
62
252
70
192
10
13.680000
20
-0.200000
30
4.820000
0
VERTEX
8
0
6
CONTINUOUS
62
252
70
192
10
14.320000
20
-0.200000
30
4.820000
0
VERTEX
8
0
6
CONTINUOUS
62
252
70
192
10
14.320000
20
-5.700000
30
4.820000
0
VERTEX
8
0
6
CONTINUOUS
62
252
70
192
10
13.680000
20
-5.700000
30
4.820000
0
VERTEX
8
0
6
CONTINUOUS
62
252
70
128
10
0.000000
20
0.000000
30
0.000000
71
2
72
3
73
1
0
VERTEX
8
0
6
CONTINUOUS
62
252
70
128
10
0.000000
20
0.000000
30
0.000000
71
1
72
3
73
4
0
SEQEND
0
POLYLINE
66
1
8
0
6
CONTINUOUS
62
252
70
64
75
0
10
0.000000
20
0.000000
30
0.000000
0
VERTEX
8
0
6
CONTINUOUS
62
252
70
192
10
14.320000
20
-5.700000
30
4.820000
0
VERTEX
8
0
6
CONTINUOUS
62
252
70
192
10
14.320000
20
-5.700000
30
5.460000
0
VERTEX
8
0
6
CONTINUOUS
62
252
70
192
10
13.680000
20
-5.700000
30
5.460000
0
VERTEX
8
0
6
CONTINUOUS
62
252
70
192
10
13.680000
20
-5.700000
30
4.820000
0
VERTEX
8
0
6
CONTINUOUS
62
252
70
128
10
0.000000
20
0.000000
30
0.000000
71
2
72
3
73
1
0
VERTEX
8
0
6
CONTINUOUS
62
252
70
128
10
0.000000
20
0.000000
30
0.000000
71
1
72
3
73
4
0
SEQEND
0
POLYLINE
66
1
8
0
6
CONTINUOUS
62
252
70
64
75
0
10
0.000000
20
0.000000
30
0.000000
0
VERTEX
8
0
6
CONTINUOUS
62
252
70
192
10
14.320000
20
-0.200000
30
5.460000
0
VERTEX
8
0
6
CONTINUOUS
62
252
70
192
10
13.680000
20
-0.200000
30
5.460000
0
VERTEX
8
0
6
CONTINUOUS
62
252
70
192
10
13.680000
20
-5.700000
30
5.460000
0
VERTEX
8
0
6
CONTINUOUS
62
252
70
192
10
14.320000
20
-5.700000
30
5.460000
0
VERTEX
8
0
6
CONTINUOUS
62
252
70
128
10
0.000000
20
0.000000
30
0.000000
71
1
72
2
73
4
0
VERTEX
8
0
6
CONTINUOUS
62
252
70
128
10
0.000000
20
0.000000
30
0.000000
71
4
72
2
73
3
0
SEQEND
0
POLYLINE
66
1
8
0
6
CONTINUOUS
62
252
70
64
75
0
10
0.000000
20
0.000000
30
0.000000
0
VERTEX
8
0
6
CONTINUOUS
62
252
70
192
10
14.320000
20
-0.200000
30
4.820000
0
VERTEX
8
0
6
CONTINUOUS
62
252
70
192
10
14.320000
20
-0.200000
30
5.460000
0
VERTEX
8
0
6
CONTINUOUS
62
252
70
192
10
14.320000
20
-5.700000
30
5.460000
0
VERTEX
8
0
6
CONTINUOUS
62
252
70
192
10
14.320000
20
-5.700000
30
4.820000
0
VERTEX
8
0
6
CONTINUOUS
62
252
70
128
10
0.000000
20
0.000000
30
0.000000
71
1
72
2
73
4
0
VERTEX
8
0
6
CONTINUOUS
62
252
70
128
10
0.000000
20
0.000000
30
0.000000
71
4
72
2
73
3
0
SEQEND
0
POLYLINE
66
1
8
0
6
CONTINUOUS
62
252
70
64
75
0
10
0.000000
20
0.000000
30
0.000000
0
VERTEX
8
0
6
CONTINUOUS
62
252
70
192
10
11.180000
20
-0.200000
30
5.460000
0
VERTEX
8
0
6
CONTINUOUS
62
252
70
192
10
11.180000
20
-0.200000
30
4.820000
0
VERTEX
8
0
6
CONTINUOUS
62
252
70
192
10
11.180000
20
-5.700000
30
4.820000
0
VERTEX
8
0
6
CONTINUOUS
62
252
70
192
10
11.180000
20
-5.700000
30
5.460000
0
VERTEX
8
0
6
CONTINUOUS
62
252
70
128
10
0.000000
20
0.000000
30
0.000000
71
2
72
3
73
1
0
VERTEX
8
0
6
CONTINUOUS
62
252
70
128
10
0.000000
20
0.000000
30
0.000000
71
1
72
3
73
4
0
SEQEND
0
POLYLINE
66
1
8
0
6
CONTINUOUS
62
252
70
64
75
0
10
0.000000
20
0.000000
30
0.000000
0
VERTEX
8
0
6
CONTINUOUS
62
252
70
192
10
11.180000
20
-0.200000
30
4.820000
0
VERTEX
8
0
6
CONTINUOUS
62
252
70
192
10
11.820000
20
-0.200000
30
4.820000
0
VERTEX
8
0
6
CONTINUOUS
62
252
70
192
10
11.820000
20
-5.700000
30
4.820000
0
VERTEX
8
0
6
CONTINUOUS
62
252
70
192
10
11.180000
20
-5.700000
30
4.820000
0
VERTEX
8
0
6
CONTINUOUS
62
252
70
128
10
0.000000
20
0.000000
30
0.000000
71
2
72
3
73
1
0
VERTEX
8
0
6
CONTINUOUS
62
252
70
128
10
0.000000
20
0.000000
30
0.000000
71
1
72
3
73
4
0
SEQEND
0
POLYLINE
66
1
8
0
6
CONTINUOUS
62
252
70
64
75
0
10
0.000000
20
0.000000
30
0.000000
0
VERTEX
8
0
6
CONTINUOUS
62
252
70
192
10
11.820000
20
-5.700000
30
4.820000
0
VERTEX
8
0
6
CONTINUOUS
62
252
70
192
10
11.820000
20
-5.700000
30
5.460000
0
VERTEX
8
0
6
CONTINUOUS
62
252
70
192
10
11.180000
20
-5.700000
30
5.460000
0
VERTEX
8
0
6
CONTINUOUS
62
252
70
192
10
11.180000
20
-5.700000
30
4.820000
0
VERTEX
8
0
6
CONTINUOUS
62
252
70
128
10
0.000000
20
0.000000
30
0.000000
71
2
72
3
73
1
0
VERTEX
8
0
6
CONTINUOUS
62
252
70
128
10
0.000000
20
0.000000
30
0.000000
71
1
72
3
73
4
0
SEQEND
0
POLYLINE
66
1
8
0
6
CONTINUOUS
62
252
70
64
75
0
10
0.000000
20
0.000000
30
0.000000
0
VERTEX
8
0
6
CONTINUOUS
62
252
70
192
10
11.820000
20
-0.200000
30
5.460000
0
VERTEX
8
0
6
CONTINUOUS
62
252
70
192
10
11.180000
20
-0.200000
30
5.460000
0
VERTEX
8
0
6
CONTINUOUS
62
252
70
192
10
11.180000
20
-5.700000
30
5.460000
0
VERTEX
8
0
6
CONTINUOUS
62
252
70
192
10
11.820000
20
-5.700000
30
5.460000
0
VERTEX
8
0
6
CONTINUOUS
62
252
70
128
10
0.000000
20
0.000000
30
0.000000
71
1
72
2
73
4
0
VERTEX
8
0
6
CONTINUOUS
62
252
70
128
10
0.000000
20
0.000000
30
0.000000
71
4
72
2
73
3
0
SEQEND
0
POLYLINE
66
1
8
0
6
CONTINUOUS
62
252
70
64
75
0
10
0.000000
20
0.000000
30
0.000000
0
VERTEX
8
0
6
CONTINUOUS
62
252
70
192
10
11.820000
20
-0.200000
30
4.820000
0
VERTEX
8
0
6
CONTINUOUS
62
252
70
192
10
11.820000
20
-0.200000
30
5.460000
0
VERTEX
8
0
6
CONTINUOUS
62
252
70
192
10
11.820000
20
-5.700000
30
5.460000
0
VERTEX
8
0
6
CONTINUOUS
62
252
70
192
10
11.820000
20
-5.700000
30
4.820000
0
VERTEX
8
0
6
CONTINUOUS
62
252
70
128
10
0.000000
20
0.000000
30
0.000000
71
2
72
3
73
1
0
VERTEX
8
0
6
CONTINUOUS
62
252
70
128
10
0.000000
20
0.000000
30
0.000000
71
1
72
3
73
4
0
SEQEND
0
POLYLINE
66
1
8
0
6
CONTINUOUS
62
252
70
64
75
0
10
0.000000
20
0.000000
30
0.000000
0
VERTEX
8
0
6
CONTINUOUS
62
252
70
192
10
8.680000
20
-0.200000
30
5.460000
0
VERTEX
8
0
6
CONTINUOUS
62
252
70
192
10
8.680000
20
-0.200000
30
4.820000
0
VERTEX
8
0
6
CONTINUOUS
62
252
70
192
10
8.680000
20
-5.700000
30
4.820000
0
VERTEX
8
0
6
CONTINUOUS
62
252
70
192
10
8.680000
20
-5.700000
30
5.460000
0
VERTEX
8
0
6
CONTINUOUS
62
252
70
128
10
0.000000
20
0.000000
30
0.000000
71
2
72
3
73
1
0
VERTEX
8
0
6
CONTINUOUS
62
252
70
128
10
0.000000
20
0.000000
30
0.000000
71
1
72
3
73
4
0
SEQEND
0
POLYLINE
66
1
8
0
6
CONTINUOUS
62
252
70
64
75
0
10
0.000000
20
0.000000
30
0.000000
0
VERTEX
8
0
6
CONTINUOUS
62
252
70
192
10
8.680000
20
-0.200000
30
4.820000
0
VERTEX
8
0
6
CONTINUOUS
62
252
70
192
10
9.320000
20
-0.200000
30
4.820000
0
VERTEX
8
0
6
CONTINUOUS
62
252
70
192
10
9.320000
20
-5.700000
30
4.820000
0
VERTEX
8
0
6
CONTINUOUS
62
252
70
192
10
8.680000
20
-5.700000
30
4.820000
0
VERTEX
8
0
6
CONTINUOUS
62
252
70
128
10
0.000000
20
0.000000
30
0.000000
71
2
72
3
73
1
0
VERTEX
8
0
6
CONTINUOUS
62
252
70
128
10
0.000000
20
0.000000
30
0.000000
71
1
72
3
73
4
0
SEQEND
0
POLYLINE
66
1
8
0
6
CONTINUOUS
62
252
70
64
75
0
10
0.000000
20
0.000000
30
0.000000
0
VERTEX
8
0
6
CONTINUOUS
62
252
70
192
10
9.320000
20
-5.700000
30
4.820000
0
VERTEX
8
0
6
CONTINUOUS
62
252
70
192
10
9.320000
20
-5.700000
30
5.460000
0
VERTEX
8
0
6
CONTINUOUS
62
252
70
192
10
8.680000
20
-5.700000
30
5.460000
0
VERTEX
8
0
6
CONTINUOUS
62
252
70
192
10
8.680000
20
-5.700000
30
4.820000
0
VERTEX
8
0
6
CONTINUOUS
62
252
70
128
10
0.000000
20
0.000000
30
0.000000
71
2
72
3
73
1
0
VERTEX
8
0
6
CONTINUOUS
62
252
70
128
10
0.000000
20
0.000000
30
0.000000
71
1
72
3
73
4
0
SEQEND
0
POLYLINE
66
1
8
0
6
CONTINUOUS
62
252
70
64
75
0
10
0.000000
20
0.000000
30
0.000000
0
VERTEX
8
0
6
CONTINUOUS
62
252
70
192
10
9.320000
20
-0.200000
30
5.460000
0
VERTEX
8
0
6
CONTINUOUS
62
252
70
192
10
8.680000
20
-0.200000
30
5.460000
0
VERTEX
8
0
6
CONTINUOUS
62
252
70
192
10
8.680000
20
-5.700000
30
5.460000
0
VERTEX
8
0
6
CONTINUOUS
62
252
70
192
10
9.320000
20
-5.700000
30
5.460000
0
VERTEX
8
0
6
CONTINUOUS
62
252
70
128
10
0.000000
20
0.000000
30
0.000000
71
1
72
2
73
4
0
VERTEX
8
0
6
CONTINUOUS
62
252
70
128
10
0.000000
20
0.000000
30
0.000000
71
4
72
2
73
3
0
SEQEND
0
POLYLINE
66
1
8
0
6
CONTINUOUS
62
252
70
64
75
0
10
0.000000
20
0.000000
30
0.000000
0
VERTEX
8
0
6
CONTINUOUS
62
252
70
192
10
9.320000
20
-0.200000
30
4.820000
0
VERTEX
8
0
6
CONTINUOUS
62
252
70
192
10
9.320000
20
-0.200000
30
5.460000
0
VERTEX
8
0
6
CONTINUOUS
62
252
70
192
10
9.320000
20
-5.700000
30
5.460000
0
VERTEX
8
0
6
CONTINUOUS
62
252
70
192
10
9.320000
20
-5.700000
30
4.820000
0
VERTEX
8
0
6
CONTINUOUS
62
252
70
128
10
0.000000
20
0.000000
30
0.000000
71
1
72
2
73
4
0
VERTEX
8
0
6
CONTINUOUS
62
252
70
128
10
0.000000
20
0.000000
30
0.000000
71
4
72
2
73
3
0
SEQEND
0
POLYLINE
66
1
8
0
6
CONTINUOUS
62
252
70
64
75
0
10
0.000000
20
0.000000
30
0.000000
0
VERTEX
8
0
6
CONTINUOUS
62
252
70
192
10
6.180000
20
-0.200000
30
5.460000
0
VERTEX
8
0
6
CONTINUOUS
62
252
70
192
10
6.180000
20
-0.200000
30
4.820000
0
VERTEX
8
0
6
CONTINUOUS
62
252
70
192
10
6.180000
20
-5.700000
30
4.820000
0
VERTEX
8
0
6
CONTINUOUS
62
252
70
192
10
6.180000
20
-5.700000
30
5.460000
0
VERTEX
8
0
6
CONTINUOUS
62
252
70
128
10
0.000000
20
0.000000
30
0.000000
71
2
72
3
73
1
0
VERTEX
8
0
6
CONTINUOUS
62
252
70
128
10
0.000000
20
0.000000
30
0.000000
71
1
72
3
73
4
0
SEQEND
0
POLYLINE
66
1
8
0
6
CONTINUOUS
62
252
70
64
75
0
10
0.000000
20
0.000000
30
0.000000
0
VERTEX
8
0
6
CONTINUOUS
62
252
70
192
10
6.180000
20
-0.200000
30
4.820000
0
VERTEX
8
0
6
CONTINUOUS
62
252
70
192
10
6.820000
20
-0.200000
30
4.820000
0
VERTEX
8
0
6
CONTINUOUS
62
252
70
192
10
6.820000
20
-5.700000
30
4.820000
0
VERTEX
8
0
6
CONTINUOUS
62
252
70
192
10
6.180000
20
-5.700000
30
4.820000
0
VERTEX
8
0
6
CONTINUOUS
62
252
70
128
10
0.000000
20
0.000000
30
0.000000
71
1
72
2
73
4
0
VERTEX
8
0
6
CONTINUOUS
62
252
70
128
10
0.000000
20
0.000000
30
0.000000
71
4
72
2
73
3
0
SEQEND
0
POLYLINE
66
1
8
0
6
CONTINUOUS
62
252
70
64
75
0
10
0.000000
20
0.000000
30
0.000000
0
VERTEX
8
0
6
CONTINUOUS
62
252
70
192
10
6.820000
20
-5.700000
30
4.820000
0
VERTEX
8
0
6
CONTINUOUS
62
252
70
192
10
6.820000
20
-5.700000
30
5.460000
0
VERTEX
8
0
6
CONTINUOUS
62
252
70
192
10
6.180000
20
-5.700000
30
5.460000
0
VERTEX
8
0
6
CONTINUOUS
62
252
70
192
10
6.180000
20
-5.700000
30
4.820000
0
VERTEX
8
0
6
CONTINUOUS
62
252
70
128
10
0.000000
20
0.000000
30
0.000000
71
2
72
3
73
1
0
VERTEX
8
0
6
CONTINUOUS
62
252
70
128
10
0.000000
20
0.000000
30
0.000000
71
1
72
3
73
4
0
SEQEND
0
POLYLINE
66
1
8
0
6
CONTINUOUS
62
252
70
64
75
0
10
0.000000
20
0.000000
30
0.000000
0
VERTEX
8
0
6
CONTINUOUS
62
252
70
192
10
6.820000
20
-0.200000
30
5.460000
0
VERTEX
8
0
6
CONTINUOUS
62
252
70
192
10
6.180000
20
-0.200000
30
5.460000
0
VERTEX
8
0
6
CONTINUOUS
62
252
70
192
10
6.180000
20
-5.700000
30
5.460000
0
VERTEX
8
0
6
CONTINUOUS
62
252
70
192
10
6.820000
20
-5.700000
30
5.460000
0
VERTEX
8
0
6
CONTINUOUS
62
252
70
128
10
0.000000
20
0.000000
30
0.000000
71
1
72
2
73
4
0
VERTEX
8
0
6
CONTINUOUS
62
252
70
128
10
0.000000
20
0.000000
30
0.000000
71
4
72
2
73
3
0
SEQEND
0
POLYLINE
66
1
8
0
6
CONTINUOUS
62
252
70
64
75
0
10
0.000000
20
0.000000
30
0.000000
0
VERTEX
8
0
6
CONTINUOUS
62
252
70
192
10
6.820000
20
-0.200000
30
4.820000
0
VERTEX
8
0
6
CONTINUOUS
62
252
70
192
10
6.820000
20
-0.200000
30
5.460000
0
VERTEX
8
0
6
CONTINUOUS
62
252
70
192
10
6.820000
20
-5.700000
30
5.460000
0
VERTEX
8
0
6
CONTINUOUS
62
252
70
192
10
6.820000
20
-5.700000
30
4.820000
0
VERTEX
8
0
6
CONTINUOUS
62
252
70
128
10
0.000000
20
0.000000
30
0.000000
71
1
72
2
73
4
0
VERTEX
8
0
6
CONTINUOUS
62
252
70
128
10
0.000000
20
0.000000
30
0.000000
71
4
72
2
73
3
0
SEQEND
0
POLYLINE
66
1
8
0
6
CONTINUOUS
62
252
70
64
75
0
10
0.000000
20
0.000000
30
0.000000
0
VERTEX
8
0
6
CONTINUOUS
62
252
70
192
10
20.100000
20
-0.200000
30
6.300000
0
VERTEX
8
0
6
CONTINUOUS
62
252
70
192
10
20.100000
20
-0.200000
30
7.100000
0
VERTEX
8
0
6
CONTINUOUS
62
252
70
192
10
20.100000
20
-7.400000
30
7.100000
0
VERTEX
8
0
6
CONTINUOUS
62
252
70
192
10
20.100000
20
-7.400000
30
6.300000
0
VERTEX
8
0
6
CONTINUOUS
62
252
70
128
10
0.000000
20
0.000000
30
0.000000
71
1
72
2
73
4
0
VERTEX
8
0
6
CONTINUOUS
62
252
70
128
10
0.000000
20
0.000000
30
0.000000
71
4
72
2
73
3
0
SEQEND
0
POLYLINE
66
1
8
0
6
CONTINUOUS
62
252
70
64
75
0
10
0.000000
20
0.000000
30
0.000000
0
VERTEX
8
0
6
CONTINUOUS
62
252
70
192
10
20.100000
20
-0.200000
30
7.100000
0
VERTEX
8
0
6
CONTINUOUS
62
252
70
192
10
22.000000
20
-0.200000
30
7.100000
0
VERTEX
8
0
6
CONTINUOUS
62
252
70
192
10
22.000000
20
-7.400000
30
7.100000
0
VERTEX
8
0
6
CONTINUOUS
62
252
70
192
10
20.100000
20
-7.400000
30
7.100000
0
VERTEX
8
0
6
CONTINUOUS
62
252
70
128
10
0.000000
20
0.000000
30
0.000000
71
1
72
2
73
4
0
VERTEX
8
0
6
CONTINUOUS
62
252
70
128
10
0.000000
20
0.000000
30
0.000000
71
4
72
2
73
3
0
SEQEND
0
POLYLINE
66
1
8
0
6
CONTINUOUS
62
252
70
64
75
0
10
0.000000
20
0.000000
30
0.000000
0
VERTEX
8
0
6
CONTINUOUS
62
252
70
192
10
22.000000
20
-0.200000
30
7.100000
0
VERTEX
8
0
6
CONTINUOUS
62
252
70
192
10
22.000000
20
-0.200000
30
6.300000
0
VERTEX
8
0
6
CONTINUOUS
62
252
70
192
10
22.000000
20
-7.400000
30
6.300000
0
VERTEX
8
0
6
CONTINUOUS
62
252
70
192
10
22.000000
20
-7.400000
30
7.100000
0
VERTEX
8
0
6
CONTINUOUS
62
252
70
128
10
0.000000
20
0.000000
30
0.000000
71
2
72
3
73
1
0
VERTEX
8
0
6
CONTINUOUS
62
252
70
128
10
0.000000
20
0.000000
30
0.000000
71
1
72
3
73
4
0
SEQEND
0
POLYLINE
66
1
8
0
6
CONTINUOUS
62
252
70
64
75
0
10
0.000000
20
0.000000
30
0.000000
0
VERTEX
8
0
6
CONTINUOUS
62
252
70
192
10
22.000000
20
-0.200000
30
6.300000
0
VERTEX
8
0
6
CONTINUOUS
62
252
70
192
10
24.500000
20
-0.200000
30
6.300000
0
VERTEX
8
0
6
CONTINUOUS
62
252
70
192
10
24.500000
20
-7.400000
30
6.300000
0
VERTEX
8
0
6
CONTINUOUS
62
252
70
192
10
22.000000
20
-7.400000
30
6.300000
0
VERTEX
8
0
6
CONTINUOUS
62
252
70
128
10
0.000000
20
0.000000
30
0.000000
71
2
72
3
73
1
0
VERTEX
8
0
6
CONTINUOUS
62
252
70
128
10
0.000000
20
0.000000
30
0.000000
71
1
72
3
73
4
0
SEQEND
0
POLYLINE
66
1
8
0
6
CONTINUOUS
62
252
70
64
75
0
10
0.000000
20
0.000000
30
0.000000
0
VERTEX
8
0
6
CONTINUOUS
62
252
70
192
10
24.500000
20
-0.200000
30
6.300000
0
VERTEX
8
0
6
CONTINUOUS
62
252
70
192
10
24.500000
20
-0.200000
30
5.900000
0
VERTEX
8
0
6
CONTINUOUS
62
252
70
192
10
24.500000
20
-7.400000
30
5.900000
0
VERTEX
8
0
6
CONTINUOUS
62
252
70
192
10
24.500000
20
-7.400000
30
6.300000
0
VERTEX
8
0
6
CONTINUOUS
62
252
70
128
10
0.000000
20
0.000000
30
0.000000
71
2
72
3
73
1
0
VERTEX
8
0
6
CONTINUOUS
62
252
70
128
10
0.000000
20
0.000000
30
0.000000
71
1
72
3
73
4
0
SEQEND
0
POLYLINE
66
1
8
0
6
CONTINUOUS
62
252
70
64
75
0
10
0.000000
20
0.000000
30
0.000000
0
VERTEX
8
0
6
CONTINUOUS
62
252
70
192
10
24.500000
20
-0.200000
30
5.900000
0
VERTEX
8
0
6
CONTINUOUS
62
252
70
192
10
28.000000
20
-0.200000
30
5.900000
0
VERTEX
8
0
6
CONTINUOUS
62
252
70
192
10
28.000000
20
-7.400000
30
5.900000
0
VERTEX
8
0
6
CONTINUOUS
62
252
70
192
10
24.500000
20
-7.400000
30
5.900000
0
VERTEX
8
0
6
CONTINUOUS
62
252
70
128
10
0.000000
20
0.000000
30
0.000000
71
1
72
2
73
4
0
VERTEX
8
0
6
CONTINUOUS
62
252
70
128
10
0.000000
20
0.000000
30
0.000000
71
4
72
2
73
3
0
SEQEND
0
POLYLINE
66
1
8
0
6
CONTINUOUS
62
252
70
64
75
0
10
0.000000
20
0.000000
30
0.000000
0
VERTEX
8
0
6
CONTINUOUS
62
252
70
192
10
12.900000
20
-0.200000
30
6.300000
0
VERTEX
8
0
6
CONTINUOUS
62
252
70
192
10
20.100000
20
-0.200000
30
6.300000
0
VERTEX
8
0
6
CONTINUOUS
62
252
70
192
10
20.100000
20
-7.400000
30
6.300000
0
VERTEX
8
0
6
CONTINUOUS
62
252
70
192
10
12.900000
20
-7.400000
30
6.300000
0
VERTEX
8
0
6
CONTINUOUS
62
252
70
128
10
0.000000
20
0.000000
30
0.000000
71
2
72
3
73
1
0
VERTEX
8
0
6
CONTINUOUS
62
252
70
128
10
0.000000
20
0.000000
30
0.000000
71
1
72
3
73
4
0
SEQEND
0
POLYLINE
66
1
8
0
6
CONTINUOUS
62
252
70
64
75
0
10
0.000000
20
0.000000
30
0.000000
0
VERTEX
8
0
6
CONTINUOUS
62
252
70
192
10
12.900000
20
-0.200000
30
7.100000
0
VERTEX
8
0
6
CONTINUOUS
62
252
70
192
10
12.900000
20
-0.200000
30
6.300000
0
VERTEX
8
0
6
CONTINUOUS
62
252
70
192
10
12.900000
20
-7.400000
30
6.300000
0
VERTEX
8
0
6
CONTINUOUS
62
252
70
192
10
12.900000
20
-7.400000
30
7.100000
0
VERTEX
8
0
6
CONTINUOUS
62
252
70
128
10
0.000000
20
0.000000
30
0.000000
71
2
72
3
73
1
0
VERTEX
8
0
6
CONTINUOUS
62
252
70
128
10
0.000000
20
0.000000
30
0.000000
71
1
72
3
73
4
0
SEQEND
0
POLYLINE
66
1
8
0
6
CONTINUOUS
62
252
70
64
75
0
10
0.000000
20
0.000000
30
0.000000
0
VERTEX
8
0
6
CONTINUOUS
62
252
70
192
10
11.000000
20
-0.200000
30
7.100000
0
VERTEX
8
0
6
CONTINUOUS
62
252
70
192
10
12.900000
20
-0.200000
30
7.100000
0
VERTEX
8
0
6
CONTINUOUS
62
252
70
192
10
12.900000
20
-7.400000
30
7.100000
0
VERTEX
8
0
6
CONTINUOUS
62
252
70
192
10
11.000000
20
-7.400000
30
7.100000
0
VERTEX
8
0
6
CONTINUOUS
62
252
70
128
10
0.000000
20
0.000000
30
0.000000
71
2
72
3
73
1
0
VERTEX
8
0
6
CONTINUOUS
62
252
70
128
10
0.000000
20
0.000000
30
0.000000
71
1
72
3
73
4
0
SEQEND
0
POLYLINE
66
1
8
0
6
CONTINUOUS
62
252
70
64
75
0
10
0.000000
20
0.000000
30
0.000000
0
VERTEX
8
0
6
CONTINUOUS
62
252
70
192
10
11.000000
20
-0.200000
30
6.300000
0
VERTEX
8
0
6
CONTINUOUS
62
252
70
192
10
11.000000
20
-0.200000
30
7.100000
0
VERTEX
8
0
6
CONTINUOUS
62
252
70
192
10
11.000000
20
-7.400000
30
7.100000
0
VERTEX
8
0
6
CONTINUOUS
62
252
70
192
10
11.000000
20
-7.400000
30
6.300000
0
VERTEX
8
0
6
CONTINUOUS
62
252
70
128
10
0.000000
20
0.000000
30
0.000000
71
1
72
2
73
4
0
VERTEX
8
0
6
CONTINUOUS
62
252
70
128
10
0.000000
20
0.000000
30
0.000000
71
4
72
2
73
3
0
SEQEND
0
POLYLINE
66
1
8
0
6
CONTINUOUS
62
252
70
64
75
0
10
0.000000
20
0.000000
30
0.000000
0
VERTEX
8
0
6
CONTINUOUS
62
252
70
192
10
8.500000
20
-0.200000
30
6.300000
0
VERTEX
8
0
6
CONTINUOUS
62
252
70
192
10
11.000000
20
-0.200000
30
6.300000
0
VERTEX
8
0
6
CONTINUOUS
62
252
70
192
10
11.000000
20
-7.400000
30
6.300000
0
VERTEX
8
0
6
CONTINUOUS
62
252
70
192
10
8.500000
20
-7.400000
30
6.300000
0
VERTEX
8
0
6
CONTINUOUS
62
252
70
128
10
0.000000
20
0.000000
30
0.000000
71
2
72
3
73
1
0
VERTEX
8
0
6
CONTINUOUS
62
252
70
128
10
0.000000
20
0.000000
30
0.000000
71
1
72
3
73
4
0
SEQEND
0
POLYLINE
66
1
8
0
6
CONTINUOUS
62
252
70
64
75
0
10
0.000000
20
0.000000
30
0.000000
0
VERTEX
8
0
6
CONTINUOUS
62
252
70
192
10
8.500000
20
-0.200000
30
5.900000
0
VERTEX
8
0
6
CONTINUOUS
62
252
70
192
10
8.500000
20
-0.200000
30
6.300000
0
VERTEX
8
0
6
CONTINUOUS
62
252
70
192
10
8.500000
20
-7.400000
30
6.300000
0
VERTEX
8
0
6
CONTINUOUS
62
252
70
192
10
8.500000
20
-7.400000
30
5.900000
0
VERTEX
8
0
6
CONTINUOUS
62
252
70
128
10
0.000000
20
0.000000
30
0.000000
71
1
72
2
73
4
0
VERTEX
8
0
6
CONTINUOUS
62
252
70
128
10
0.000000
20
0.000000
30
0.000000
71
4
72
2
73
3
0
SEQEND
0
POLYLINE
66
1
8
0
6
CONTINUOUS
62
252
70
64
75
0
10
0.000000
20
0.000000
30
0.000000
0
VERTEX
8
0
6
CONTINUOUS
62
252
70
192
10
5.000000
20
-0.200000
30
5.900000
0
VERTEX
8
0
6
CONTINUOUS
62
252
70
192
10
8.500000
20
-0.200000
30
5.900000
0
VERTEX
8
0
6
CONTINUOUS
62
252
70
192
10
8.500000
20
-7.400000
30
5.900000
0
VERTEX
8
0
6
CONTINUOUS
62
252
70
192
10
5.000000
20
-7.400000
30
5.900000
0
VERTEX
8
0
6
CONTINUOUS
62
252
70
128
10
0.000000
20
0.000000
30
0.000000
71
2
72
3
73
1
0
VERTEX
8
0
6
CONTINUOUS
62
252
70
128
10
0.000000
20
0.000000
30
0.000000
71
1
72
3
73
4
0
SEQEND
0
POLYLINE
66
1
8
0
6
CONTINUOUS
62
252
70
64
75
0
10
0.000000
20
0.000000
30
0.000000
0
VERTEX
8
0
6
CONTINUOUS
62
252
70
192
10
28.000000
20
-7.400000
30
7.600000
0
VERTEX
8
0
6
CONTINUOUS
62
252
70
192
10
5.000000
20
-7.400000
30
7.600000
0
VERTEX
8
0
6
CONTINUOUS
62
252
70
192
10
5.000000
20
-7.400000
30
5.900000
0
VERTEX
8
0
6
CONTINUOUS
62
252
70
192
10
8.500000
20
-7.400000
30
5.900000
0
VERTEX
8
0
6
CONTINUOUS
62
252
70
192
10
8.500000
20
-7.400000
30
6.300000
0
VERTEX
8
0
6
CONTINUOUS
62
252
70
192
10
11.000000
20
-7.400000
30
6.300000
0
VERTEX
8
0
6
CONTINUOUS
62
252
70
192
10
11.000000
20
-7.400000
30
7.100000
0
VERTEX
8
0
6
CONTINUOUS
62
252
70
192
10
12.900000
20
-7.400000
30
7.100000
0
VERTEX
8
0
6
CONTINUOUS
62
252
70
192
10
12.900000
20
-7.400000
30
6.300000
0
VERTEX
8
0
6
CONTINUOUS
62
252
70
192
10
20.100000
20
-7.400000
30
6.300000
0
VERTEX
8
0
6
CONTINUOUS
62
252
70
192
10
20.100000
20
-7.400000
30
7.100000
0
VERTEX
8
0
6
CONTINUOUS
62
252
70
192
10
22.000000
20
-7.400000
30
7.100000
0
VERTEX
8
0
6
CONTINUOUS
62
252
70
192
10
22.000000
20
-7.400000
30
6.300000
0
VERTEX
8
0
6
CONTINUOUS
62
252
70
192
10
24.500000
20
-7.400000
30
6.300000
0
VERTEX
8
0
6
CONTINUOUS
62
252
70
192
10
24.500000
20
-7.400000
30
5.900000
0
VERTEX
8
0
6
CONTINUOUS
62
252
70
192
10
28.000000
20
-7.400000
30
5.900000
0
VERTEX
8
0
6
CONTINUOUS
62
252
70
128
10
0.000000
20
0.000000
30
0.000000
71
2
72
8
73
1
0
VERTEX
8
0
6
CONTINUOUS
62
252
70
128
10
0.000000
20
0.000000
30
0.000000
71
1
72
8
73
11
0
VERTEX
8
0
6
CONTINUOUS
62
252
70
128
10
0.000000
20
0.000000
30
0.000000
71
1
72
11
73
12
0
VERTEX
8
0
6
CONTINUOUS
62
252
70
128
10
0.000000
20
0.000000
30
0.000000
71
3
72
5
73
2
0
VERTEX
8
0
6
CONTINUOUS
62
252
70
128
10
0.000000
20
0.000000
30
0.000000
71
2
72
5
73
7
0
VERTEX
8
0
6
CONTINUOUS
62
252
70
128
10
0.000000
20
0.000000
30
0.000000
71
2
72
7
73
8
0
VERTEX
8
0
6
CONTINUOUS
62
252
70
128
10
0.000000
20
0.000000
30
0.000000
71
3
72
4
73
5
0
VERTEX
8
0
6
CONTINUOUS
62
252
70
128
10
0.000000
20
0.000000
30
0.000000
71
5
72
6
73
7
0
VERTEX
8
0
6
CONTINUOUS
62
252
70
128
10
0.000000
20
0.000000
30
0.000000
71
8
72
9
73
11
0
VERTEX
8
0
6
CONTINUOUS
62
252
70
128
10
0.000000
20
0.000000
30
0.000000
71
11
72
9
73
10
0
VERTEX
8
0
6
CONTINUOUS
62
252
70
128
10
0.000000
20
0.000000
30
0.000000
71
13
72
14
73
12
0
VERTEX
8
0
6
CONTINUOUS
62
252
70
128
10
0.000000
20
0.000000
30
0.000000
71
12
72
14
73
1
0
VERTEX
8
0
6
CONTINUOUS
62
252
70
128
10
0.000000
20
0.000000
30
0.000000
71
15
72
16
73
14
0
VERTEX
8
0
6
CONTINUOUS
62
252
70
128
10
0.000000
20
0.000000
30
0.000000
71
14
72
16
73
1
0
SEQEND
0
POLYLINE
66
1
8
0
6
CONTINUOUS
62
252
70
64
75
0
10
0.000000
20
0.000000
30
0.000000
0
VERTEX
8
0
6
CONTINUOUS
62
252
70
192
10
5.000000
20
2.300000
30
1.600000
0
VERTEX
8
0
6
CONTINUOUS
62
252
70
192
10
5.000000
20
2.300000
30
7.600000
0
VERTEX
8
0
6
CONTINUOUS
62
252
70
192
10
28.000000
20
2.300000
30
7.600000
0
VERTEX
8
0
6
CONTINUOUS
62
252
70
192
10
28.000000
20
2.300000
30
1.600000
0
VERTEX
8
0
6
CONTINUOUS
62
252
70
128
10
0.000000
20
0.000000
30
0.000000
71
1
72
2
73
4
0
VERTEX
8
0
6
CONTINUOUS
62
252
70
128
10
0.000000
20
0.000000
30
0.000000
71
4
72
2
73
3
0
SEQEND
0
POLYLINE
66
1
8
0
6
CONTINUOUS
62
252
70
64
75
0
10
0.000000
20
0.000000
30
0.000000
0
VERTEX
8
0
6
CONTINUOUS
62
252
70
192
10
28.000000
20
-0.200000
30
5.900000
0
VERTEX
8
0
6
CONTINUOUS
62
252
70
192
10
28.000000
20
-0.200000
30
1.600000
0
VERTEX
8
0
6
CONTINUOUS
62
252
70
192
10
28.000000
20
2.300000
30
1.600000
0
VERTEX
8
0
6
CONTINUOUS
62
252
70
192
10
28.000000
20
2.300000
30
7.600000
0
VERTEX
8
0
6
CONTINUOUS
62
252
70
192
10
28.000000
20
-7.400000
30
7.600000
0
VERTEX
8
0
6
CONTINUOUS
62
252
70
192
10
28.000000
20
-7.400000
30
5.900000
0
VERTEX
8
0
6
CONTINUOUS
62
252
70
128
10
0.000000
20
0.000000
30
0.000000
71
2
72
3
73
1
0
VERTEX
8
0
6
CONTINUOUS
62
252
70
128
10
0.000000
20
0.000000
30
0.000000
71
1
72
3
73
4
0
VERTEX
8
0
6
CONTINUOUS
62
252
70
128
10
0.000000
20
0.000000
30
0.000000
71
1
72
4
73
5
0
VERTEX
8
0
6
CONTINUOUS
62
252
70
128
10
0.000000
20
0.000000
30
0.000000
71
5
72
6
73
1
0
SEQEND
0
POLYLINE
66
1
8
0
6
CONTINUOUS
62
252
70
64
75
0
10
0.000000
20
0.000000
30
0.000000
0
VERTEX
8
0
6
CONTINUOUS
62
252
70
192
10
26.820000
20
-0.200000
30
4.820000
0
VERTEX
8
0
6
CONTINUOUS
62
252
70
192
10
26.180000
20
-0.200000
30
4.820000
0
VERTEX
8
0
6
CONTINUOUS
62
252
70
192
10
26.180000
20
-0.200000
30
5.460000
0
VERTEX
8
0
6
CONTINUOUS
62
252
70
192
10
26.820000
20
-0.200000
30
5.460000
0
VERTEX
8
0
6
CONTINUOUS
62
252
70
192
10
24.320000
20
-0.200000
30
4.820000
0
VERTEX
8
0
6
CONTINUOUS
62
252
70
192
10
23.680000
20
-0.200000
30
4.820000
0
VERTEX
8
0
6
CONTINUOUS
62
252
70
192
10
23.680000
20
-0.200000
30
5.460000
0
VERTEX
8
0
6
CONTINUOUS
62
252
70
192
10
24.320000
20
-0.200000
30
5.460000
0
VERTEX
8
0
6
CONTINUOUS
62
252
70
192
10
21.820000
20
-0.200000
30
4.820000
0
VERTEX
8
0
6
CONTINUOUS
62
252
70
192
10
21.180000
20
-0.200000
30
4.820000
0
VERTEX
8
0
6
CONTINUOUS
62
252
70
192
10
21.180000
20
-0.200000
30
5.460000
0
VERTEX
8
0
6
CONTINUOUS
62
252
70
192
10
21.820000
20
-0.200000
30
5.460000
0
VERTEX
8
0
6
CONTINUOUS
62
252
70
192
10
19.320000
20
-0.200000
30
4.820000
0
VERTEX
8
0
6
CONTINUOUS
62
252
70
192
10
18.680000
20
-0.200000
30
4.820000
0
VERTEX
8
0
6
CONTINUOUS
62
252
70
192
10
18.680000
20
-0.200000
30
5.460000
0
VERTEX
8
0
6
CONTINUOUS
62
252
70
192
10
19.320000
20
-0.200000
30
5.460000
0
VERTEX
8
0
6
CONTINUOUS
62
252
70
192
10
16.820000
20
-0.200000
30
4.820000
0
VERTEX
8
0
6
CONTINUOUS
62
252
70
192
10
16.180000
20
-0.200000
30
4.820000
0
VERTEX
8
0
6
CONTINUOUS
62
252
70
192
10
16.180000
20
-0.200000
30
5.460000
0
VERTEX
8
0
6
CONTINUOUS
62
252
70
192
10
16.820000
20
-0.200000
30
5.460000
0
VERTEX
8
0
6
CONTINUOUS
62
252
70
192
10
14.320000
20
-0.200000
30
4.820000
0
VERTEX
8
0
6
CONTINUOUS
62
252
70
192
10
13.680000
20
-0.200000
30
4.820000
0
VERTEX
8
0
6
CONTINUOUS
62
252
70
192
10
13.680000
20
-0.200000
30
5.460000
0
VERTEX
8
0
6
CONTINUOUS
62
252
70
192
10
14.320000
20
-0.200000
30
5.460000
0
VERTEX
8
0
6
CONTINUOUS
62
252
70
192
10
11.820000
20
-0.200000
30
4.820000
0
VERTEX
8
0
6
CONTINUOUS
62
252
70
192
10
11.180000
20
-0.200000
30
4.820000
0
VERTEX
8
0
6
CONTINUOUS
62
252
70
192
10
11.180000
20
-0.200000
30
5.460000
0
VERTEX
8
0
6
CONTINUOUS
62
252
70
192
10
11.820000
20
-0.200000
30
5.460000
0
VERTEX
8
0
6
CONTINUOUS
62
252
70
192
10
9.320000
20
-0.200000
30
4.820000
0
VERTEX
8
0
6
CONTINUOUS
62
252
70
192
10
8.680000
20
-0.200000
30
4.820000
0
VERTEX
8
0
6
CONTINUOUS
62
252
70
192
10
8.680000
20
-0.200000
30
5.460000
0
VERTEX
8
0
6
CONTINUOUS
62
252
70
192
10
9.320000
20
-0.200000
30
5.460000
0
VERTEX
8
0
6
CONTINUOUS
62
252
70
192
10
6.820000
20
-0.200000
30
4.820000
0
VERTEX
8
0
6
CONTINUOUS
62
252
70
192
10
6.180000
20
-0.200000
30
4.820000
0
VERTEX
8
0
6
CONTINUOUS
62
252
70
192
10
6.180000
20
-0.200000
30
5.460000
0
VERTEX
8
0
6
CONTINUOUS
62
252
70
192
10
6.820000
20
-0.200000
30
5.460000
0
VERTEX
8
0
6
CONTINUOUS
62
252
70
192
10
28.000000
20
-0.200000
30
5.900000
0
VERTEX
8
0
6
CONTINUOUS
62
252
70
192
10
24.500000
20
-0.200000
30
5.900000
0
VERTEX
8
0
6
CONTINUOUS
62
252
70
192
10
24.500000
20
-0.200000
30
6.300000
0
VERTEX
8
0
6
CONTINUOUS
62
252
70
192
10
22.000000
20
-0.200000
30
6.300000
0
VERTEX
8
0
6
CONTINUOUS
62
252
70
192
10
22.000000
20
-0.200000
30
7.100000
0
VERTEX
8
0
6
CONTINUOUS
62
252
70
192
10
20.100000
20
-0.200000
30
7.100000
0
VERTEX
8
0
6
CONTINUOUS
62
252
70
192
10
20.100000
20
-0.200000
30
6.300000
0
VERTEX
8
0
6
CONTINUOUS
62
252
70
192
10
12.900000
20
-0.200000
30
6.300000
0
VERTEX
8
0
6
CONTINUOUS
62
252
70
192
10
12.900000
20
-0.200000
30
7.100000
0
VERTEX
8
0
6
CONTINUOUS
62
252
70
192
10
11.000000
20
-0.200000
30
7.100000
0
VERTEX
8
0
6
CONTINUOUS
62
252
70
192
10
11.000000
20
-0.200000
30
6.300000
0
VERTEX
8
0
6
CONTINUOUS
62
252
70
192
10
8.500000
20
-0.200000
30
6.300000
0
VERTEX
8
0
6
CONTINUOUS
62
252
70
192
10
8.500000
20
-0.200000
30
5.900000
0
VERTEX
8
0
6
CONTINUOUS
62
252
70
192
10
5.000000
20
-0.200000
30
5.900000
0
VERTEX
8
0
6
CONTINUOUS
62
252
70
192
10
5.000000
20
-0.200000
30
1.600000
0
VERTEX
8
0
6
CONTINUOUS
62
252
70
192
10
28.000000
20
-0.200000
30
1.600000
0
VERTEX
8
0
6
CONTINUOUS
62
252
70
128
10
0.000000
20
0.000000
30
0.000000
71
2
72
52
73
1
0
VERTEX
8
0
6
CONTINUOUS
62
252
70
128
10
0.000000
20
0.000000
30
0.000000
71
1
72
52
73
37
0
VERTEX
8
0
6
CONTINUOUS
62
252
70
128
10
0.000000
20
0.000000
30
0.000000
71
1
72
37
73
4
0
VERTEX
8
0
6
CONTINUOUS
62
252
70
128
10
0.000000
20
0.000000
30
0.000000
71
4
72
37
73
3
0
VERTEX
8
0
6
CONTINUOUS
62
252
70
128
10
0.000000
20
0.000000
30
0.000000
71
3
72
37
73
38
0
VERTEX
8
0
6
CONTINUOUS
62
252
70
128
10
0.000000
20
0.000000
30
0.000000
71
3
72
38
73
8
0
VERTEX
8
0
6
CONTINUOUS
62
252
70
128
10
0.000000
20
0.000000
30
0.000000
71
8
72
38
73
7
0
VERTEX
8
0
6
CONTINUOUS
62
252
70
128
10
0.000000
20
0.000000
30
0.000000
71
7
72
38
73
40
0
VERTEX
8
0
6
CONTINUOUS
62
252
70
128
10
0.000000
20
0.000000
30
0.000000
71
7
72
40
73
12
0
VERTEX
8
0
6
CONTINUOUS
62
252
70
128
10
0.000000
20
0.000000
30
0.000000
71
12
72
40
73
11
0
VERTEX
8
0
6
CONTINUOUS
62
252
70
128
10
0.000000
20
0.000000
30
0.000000
71
11
72
40
73
43
0
VERTEX
8
0
6
CONTINUOUS
62
252
70
128
10
0.000000
20
0.000000
30
0.000000
71
11
72
43
73
16
0
VERTEX
8
0
6
CONTINUOUS
62
252
70
128
10
0.000000
20
0.000000
30
0.000000
71
16
72
43
73
15
0
VERTEX
8
0
6
CONTINUOUS
62
252
70
128
10
0.000000
20
0.000000
30
0.000000
71
15
72
43
73
20
0
VERTEX
8
0
6
CONTINUOUS
62
252
70
128
10
0.000000
20
0.000000
30
0.000000
71
15
72
20
73
17
0
VERTEX
8
0
6
CONTINUOUS
62
252
70
128
10
0.000000
20
0.000000
30
0.000000
71
52
72
2
73
5
0
VERTEX
8
0
6
CONTINUOUS
62
252
70
128
10
0.000000
20
0.000000
30
0.000000
71
5
72
2
73
3
0
VERTEX
8
0
6
CONTINUOUS
62
252
70
128
10
0.000000
20
0.000000
30
0.000000
71
5
72
3
73
8
0
VERTEX
8
0
6
CONTINUOUS
62
252
70
128
10
0.000000
20
0.000000
30
0.000000
71
5
72
6
73
52
0
VERTEX
8
0
6
CONTINUOUS
62
252
70
128
10
0.000000
20
0.000000
30
0.000000
71
52
72
6
73
9
0
VERTEX
8
0
6
CONTINUOUS
62
252
70
128
10
0.000000
20
0.000000
30
0.000000
71
52
72
9
73
10
0
VERTEX
8
0
6
CONTINUOUS
62
252
70
128
10
0.000000
20
0.000000
30
0.000000
71
6
72
7
73
9
0
VERTEX
8
0
6
CONTINUOUS
62
252
70
128
10
0.000000
20
0.000000
30
0.000000
71
9
72
7
73
12
0
VERTEX
8
0
6
CONTINUOUS
62
252
70
128
10
0.000000
20
0.000000
30
0.000000
71
52
72
10
73
13
0
VERTEX
8
0
6
CONTINUOUS
62
252
70
128
10
0.000000
20
0.000000
30
0.000000
71
13
72
10
73
11
0
VERTEX
8
0
6
CONTINUOUS
62
252
70
128
10
0.000000
20
0.000000
30
0.000000
71
13
72
11
73
16
0
VERTEX
8
0
6
CONTINUOUS
62
252
70
128
10
0.000000
20
0.000000
30
0.000000
71
13
72
14
73
52
0
VERTEX
8
0
6
CONTINUOUS
62
252
70
128
10
0.000000
20
0.000000
30
0.000000
71
52
72
14
73
17
0
VERTEX
8
0
6
CONTINUOUS
62
252
70
128
10
0.000000
20
0.000000
30
0.000000
71
52
72
17
73
18
0
VERTEX
8
0
6
CONTINUOUS
62
252
70
128
10
0.000000
20
0.000000
30
0.000000
71
14
72
15
73
17
0
VERTEX
8
0
6
CONTINUOUS
62
252
70
128
10
0.000000
20
0.000000
30
0.000000
71
19
72
21
73
18
0
VERTEX
8
0
6
CONTINUOUS
62
252
70
128
10
0.000000
20
0.000000
30
0.000000
71
18
72
21
73
51
0
VERTEX
8
0
6
CONTINUOUS
62
252
70
128
10
0.000000
20
0.000000
30
0.000000
71
18
72
51
73
52
0
VERTEX
8
0
6
CONTINUOUS
62
252
70
128
10
0.000000
20
0.000000
30
0.000000
71
20
72
43
73
19
0
VERTEX
8
0
6
CONTINUOUS
62
252
70
128
10
0.000000
20
0.000000
30
0.000000
71
19
72
43
73
44
0
VERTEX
8
0
6
CONTINUOUS
62
252
70
128
10
0.000000
20
0.000000
30
0.000000
71
19
72
44
73
24
0
VERTEX
8
0
6
CONTINUOUS
62
252
70
128
10
0.000000
20
0.000000
30
0.000000
71
24
72
44
73
23
0
VERTEX
8
0
6
CONTINUOUS
62
252
70
128
10
0.000000
20
0.000000
30
0.000000
71
23
72
44
73
28
0
VERTEX
8
0
6
CONTINUOUS
62
252
70
128
10
0.000000
20
0.000000
30
0.000000
71
23
72
28
73
25
0
VERTEX
8
0
6
CONTINUOUS
62
252
70
128
10
0.000000
20
0.000000
30
0.000000
71
21
72
22
73
51
0
VERTEX
8
0
6
CONTINUOUS
62
252
70
128
10
0.000000
20
0.000000
30
0.000000
71
51
72
22
73
25
0
VERTEX
8
0
6
CONTINUOUS
62
252
70
128
10
0.000000
20
0.000000
30
0.000000
71
51
72
25
73
26
0
VERTEX
8
0
6
CONTINUOUS
62
252
70
128
10
0.000000
20
0.000000
30
0.000000
71
22
72
23
73
25
0
VERTEX
8
0
6
CONTINUOUS
62
252
70
128
10
0.000000
20
0.000000
30
0.000000
71
24
72
21
73
19
0
VERTEX
8
0
6
CONTINUOUS
62
252
70
128
10
0.000000
20
0.000000
30
0.000000
71
51
72
26
73
29
0
VERTEX
8
0
6
CONTINUOUS
62
252
70
128
10
0.000000
20
0.000000
30
0.000000
71
29
72
26
73
27
0
VERTEX
8
0
6
CONTINUOUS
62
252
70
128
10
0.000000
20
0.000000
30
0.000000
71
29
72
27
73
32
0
VERTEX
8
0
6
CONTINUOUS
62
252
70
128
10
0.000000
20
0.000000
30
0.000000
71
32
72
27
73
47
0
VERTEX
8
0
6
CONTINUOUS
62
252
70
128
10
0.000000
20
0.000000
30
0.000000
71
32
72
47
73
49
0
VERTEX
8
0
6
CONTINUOUS
62
252
70
128
10
0.000000
20
0.000000
30
0.000000
71
49
72
47
73
48
0
VERTEX
8
0
6
CONTINUOUS
62
252
70
128
10
0.000000
20
0.000000
30
0.000000
71
27
72
28
73
47
0
VERTEX
8
0
6
CONTINUOUS
62
252
70
128
10
0.000000
20
0.000000
30
0.000000
71
47
72
28
73
44
0
VERTEX
8
0
6
CONTINUOUS
62
252
70
128
10
0.000000
20
0.000000
30
0.000000
71
47
72
44
73
45
0
VERTEX
8
0
6
CONTINUOUS
62
252
70
128
10
0.000000
20
0.000000
30
0.000000
71
29
72
30
73
51
0
VERTEX
8
0
6
CONTINUOUS
62
252
70
128
10
0.000000
20
0.000000
30
0.000000
71
51
72
30
73
33
0
VERTEX
8
0
6
CONTINUOUS
62
252
70
128
10
0.000000
20
0.000000
30
0.000000
71
51
72
33
73
34
0
VERTEX
8
0
6
CONTINUOUS
62
252
70
128
10
0.000000
20
0.000000
30
0.000000
71
30
72
31
73
33
0
VERTEX
8
0
6
CONTINUOUS
62
252
70
128
10
0.000000
20
0.000000
30
0.000000
71
33
72
31
73
36
0
VERTEX
8
0
6
CONTINUOUS
62
252
70
128
10
0.000000
20
0.000000
30
0.000000
71
36
72
31
73
49
0
VERTEX
8
0
6
CONTINUOUS
62
252
70
128
10
0.000000
20
0.000000
30
0.000000
71
36
72
49
73
50
0
VERTEX
8
0
6
CONTINUOUS
62
252
70
128
10
0.000000
20
0.000000
30
0.000000
71
31
72
32
73
49
0
VERTEX
8
0
6
CONTINUOUS
62
252
70
128
10
0.000000
20
0.000000
30
0.000000
71
51
72
34
73
50
0
VERTEX
8
0
6
CONTINUOUS
62
252
70
128
10
0.000000
20
0.000000
30
0.000000
71
50
72
34
73
35
0
VERTEX
8
0
6
CONTINUOUS
62
252
70
128
10
0.000000
20
0.000000
30
0.000000
71
50
72
35
73
36
0
VERTEX
8
0
6
CONTINUOUS
62
252
70
128
10
0.000000
20
0.000000
30
0.000000
71
38
72
39
73
40
0
VERTEX
8
0
6
CONTINUOUS
62
252
70
128
10
0.000000
20
0.000000
30
0.000000
71
40
72
41
73
43
0
VERTEX
8
0
6
CONTINUOUS
62
252
70
128
10
0.000000
20
0.000000
30
0.000000
71
43
72
41
73
42
0
VERTEX
8
0
6
CONTINUOUS
62
252
70
128
10
0.000000
20
0.000000
30
0.000000
71
45
72
46
73
47
0
SEQEND
0
POLYLINE
66
1
8
0
6
CONTINUOUS
62
252
70
64
75
0
10
0.000000
20
0.000000
30
0.000000
0
VERTEX
8
0
6
CONTINUOUS
62
252
70
192
10
28.000000
20
-7.400000
30
7.600000
0
VERTEX
8
0
6
CONTINUOUS
62
252
70
192
10
28.000000
20
2.300000
30
7.600000
0
VERTEX
8
0
6
CONTINUOUS
62
252
70
192
10
5.000000
20
2.300000
30
7.600000
0
VERTEX
8
0
6
CONTINUOUS
62
252
70
192
10
5.000000
20
-7.400000
30
7.600000
0
VERTEX
8
0
6
CONTINUOUS
62
252
70
128
10
0.000000
20
0.000000
30
0.000000
71
2
72
3
73
1
0
VERTEX
8
0
6
CONTINUOUS
62
252
70
128
10
0.000000
20
0.000000
30
0.000000
71
1
72
3
73
4
0
SEQEND
0
POLYLINE
66
1
8
0
6
CONTINUOUS
62
252
70
64
75
0
10
0.000000
20
0.000000
30
0.000000
0
VERTEX
8
0
6
CONTINUOUS
62
252
70
192
10
5.000000
20
2.300000
30
7.600000
0
VERTEX
8
0
6
CONTINUOUS
62
252
70
192
10
5.000000
20
2.300000
30
1.600000
0
VERTEX
8
0
6
CONTINUOUS
62
252
70
192
10
5.000000
20
-0.200000
30
1.600000
0
VERTEX
8
0
6
CONTINUOUS
62
252
70
192
10
5.000000
20
-0.200000
30
5.900000
0
VERTEX
8
0
6
CONTINUOUS
62
252
70
192
10
5.000000
20
-7.400000
30
5.900000
0
VERTEX
8
0
6
CONTINUOUS
62
252
70
192
10
5.000000
20
-7.400000
30
7.600000
0
VERTEX
8
0
6
CONTINUOUS
62
252
70
128
10
0.000000
20
0.000000
30
0.000000
71
6
72
1
73
4
0
VERTEX
8
0
6
CONTINUOUS
62
252
70
128
10
0.000000
20
0.000000
30
0.000000
71
4
72
1
73
2
0
VERTEX
8
0
6
CONTINUOUS
62
252
70
128
10
0.000000
20
0.000000
30
0.000000
71
4
72
2
73
3
0
VERTEX
8
0
6
CONTINUOUS
62
252
70
128
10
0.000000
20
0.000000
30
0.000000
71
4
72
5
73
6
0
SEQEND
0
POLYLINE
66
1
8
0
6
CONTINUOUS
62
252
70
64
75
0
10
0.000000
20
0.000000
30
0.000000
0
VERTEX
8
0
6
CONTINUOUS
62
252
70
192
10
49.700000
20
-3.500000
30
1.600000
0
VERTEX
8
0
6
CONTINUOUS
62
252
70
192
10
71.300000
20
-3.500000
30
1.600000
0
VERTEX
8
0
6
CONTINUOUS
62
252
70
192
10
71.300000
20
-5.600000
30
1.600000
0
VERTEX
8
0
6
CONTINUOUS
62
252
70
192
10
49.700000
20
-5.600000
30
1.600000
0
VERTEX
8
0
6
CONTINUOUS
62
252
70
128
10
0.000000
20
0.000000
30
0.000000
71
1
72
2
73
4
0
VERTEX
8
0
6
CONTINUOUS
62
252
70
128
10
0.000000
20
0.000000
30
0.000000
71
4
72
2
73
3
0
SEQEND
0
POLYLINE
66
1
8
0
6
CONTINUOUS
62
252
70
64
75
0
10
0.000000
20
0.000000
30
0.000000
0
VERTEX
8
0
6
CONTINUOUS
62
252
70
192
10
69.250000
20
-0.600000
30
4.850000
0
VERTEX
8
0
6
CONTINUOUS
62
252
70
192
10
69.250000
20
-0.600000
30
4.350000
0
VERTEX
8
0
6
CONTINUOUS
62
252
70
192
10
69.250000
20
-4.600000
30
4.350000
0
VERTEX
8
0
6
CONTINUOUS
62
252
70
192
10
69.250000
20
-4.600000
30
4.850000
0
VERTEX
8
0
6
CONTINUOUS
62
252
70
128
10
0.000000
20
0.000000
30
0.000000
71
2
72
3
73
1
0
VERTEX
8
0
6
CONTINUOUS
62
252
70
128
10
0.000000
20
0.000000
30
0.000000
71
1
72
3
73
4
0
SEQEND
0
POLYLINE
66
1
8
0
6
CONTINUOUS
62
252
70
64
75
0
10
0.000000
20
0.000000
30
0.000000
0
VERTEX
8
0
6
CONTINUOUS
62
252
70
192
10
69.250000
20
-0.600000
30
4.350000
0
VERTEX
8
0
6
CONTINUOUS
62
252
70
192
10
69.750000
20
-0.600000
30
4.350000
0
VERTEX
8
0
6
CONTINUOUS
62
252
70
192
10
69.750000
20
-4.600000
30
4.350000
0
VERTEX
8
0
6
CONTINUOUS
62
252
70
192
10
69.250000
20
-4.600000
30
4.350000
0
VERTEX
8
0
6
CONTINUOUS
62
252
70
128
10
0.000000
20
0.000000
30
0.000000
71
2
72
3
73
1
0
VERTEX
8
0
6
CONTINUOUS
62
252
70
128
10
0.000000
20
0.000000
30
0.000000
71
1
72
3
73
4
0
SEQEND
0
POLYLINE
66
1
8
0
6
CONTINUOUS
62
252
70
64
75
0
10
0.000000
20
0.000000
30
0.000000
0
VERTEX
8
0
6
CONTINUOUS
62
252
70
192
10
69.750000
20
-4.600000
30
4.350000
0
VERTEX
8
0
6
CONTINUOUS
62
252
70
192
10
69.750000
20
-4.600000
30
4.850000
0
VERTEX
8
0
6
CONTINUOUS
62
252
70
192
10
69.250000
20
-4.600000
30
4.850000
0
VERTEX
8
0
6
CONTINUOUS
62
252
70
192
10
69.250000
20
-4.600000
30
4.350000
0
VERTEX
8
0
6
CONTINUOUS
62
252
70
128
10
0.000000
20
0.000000
30
0.000000
71
2
72
3
73
1
0
VERTEX
8
0
6
CONTINUOUS
62
252
70
128
10
0.000000
20
0.000000
30
0.000000
71
1
72
3
73
4
0
SEQEND
0
POLYLINE
66
1
8
0
6
CONTINUOUS
62
252
70
64
75
0
10
0.000000
20
0.000000
30
0.000000
0
VERTEX
8
0
6
CONTINUOUS
62
252
70
192
10
69.750000
20
-0.600000
30
4.850000
0
VERTEX
8
0
6
CONTINUOUS
62
252
70
192
10
69.250000
20
-0.600000
30
4.850000
0
VERTEX
8
0
6
CONTINUOUS
62
252
70
192
10
69.250000
20
-4.600000
30
4.850000
0
VERTEX
8
0
6
CONTINUOUS
62
252
70
192
10
69.750000
20
-4.600000
30
4.850000
0
VERTEX
8
0
6
CONTINUOUS
62
252
70
128
10
0.000000
20
0.000000
30
0.000000
71
2
72
3
73
1
0
VERTEX
8
0
6
CONTINUOUS
62
252
70
128
10
0.000000
20
0.000000
30
0.000000
71
1
72
3
73
4
0
SEQEND
0
POLYLINE
66
1
8
0
6
CONTINUOUS
62
252
70
64
75
0
10
0.000000
20
0.000000
30
0.000000
0
VERTEX
8
0
6
CONTINUOUS
62
252
70
192
10
69.750000
20
-0.600000
30
4.350000
0
VERTEX
8
0
6
CONTINUOUS
62
252
70
192
10
69.750000
20
-0.600000
30
4.850000
0
VERTEX
8
0
6
CONTINUOUS
62
252
70
192
10
69.750000
20
-4.600000
30
4.850000
0
VERTEX
8
0
6
CONTINUOUS
62
252
70
192
10
69.750000
20
-4.600000
30
4.350000
0
VERTEX
8
0
6
CONTINUOUS
62
252
70
128
10
0.000000
20
0.000000
30
0.000000
71
2
72
3
73
1
0
VERTEX
8
0
6
CONTINUOUS
62
252
70
128
10
0.000000
20
0.000000
30
0.000000
71
1
72
3
73
4
0
SEQEND
0
POLYLINE
66
1
8
0
6
CONTINUOUS
62
252
70
64
75
0
10
0.000000
20
0.000000
30
0.000000
0
VERTEX
8
0
6
CONTINUOUS
62
252
70
192
10
67.250000
20
-0.600000
30
4.850000
0
VERTEX
8
0
6
CONTINUOUS
62
252
70
192
10
67.250000
20
-0.600000
30
4.350000
0
VERTEX
8
0
6
CONTINUOUS
62
252
70
192
10
67.250000
20
-4.600000
30
4.350000
0
VERTEX
8
0
6
CONTINUOUS
62
252
70
192
10
67.250000
20
-4.600000
30
4.850000
0
VERTEX
8
0
6
CONTINUOUS
62
252
70
128
10
0.000000
20
0.000000
30
0.000000
71
2
72
3
73
1
0
VERTEX
8
0
6
CONTINUOUS
62
252
70
128
10
0.000000
20
0.000000
30
0.000000
71
1
72
3
73
4
0
SEQEND
0
POLYLINE
66
1
8
0
6
CONTINUOUS
62
252
70
64
75
0
10
0.000000
20
0.000000
30
0.000000
0
VERTEX
8
0
6
CONTINUOUS
62
252
70
192
10
67.250000
20
-0.600000
30
4.350000
0
VERTEX
8
0
6
CONTINUOUS
62
252
70
192
10
67.750000
20
-0.600000
30
4.350000
0
VERTEX
8
0
6
CONTINUOUS
62
252
70
192
10
67.750000
20
-4.600000
30
4.350000
0
VERTEX
8
0
6
CONTINUOUS
62
252
70
192
10
67.250000
20
-4.600000
30
4.350000
0
VERTEX
8
0
6
CONTINUOUS
62
252
70
128
10
0.000000
20
0.000000
30
0.000000
71
2
72
3
73
1
0
VERTEX
8
0
6
CONTINUOUS
62
252
70
128
10
0.000000
20
0.000000
30
0.000000
71
1
72
3
73
4
0
SEQEND
0
POLYLINE
66
1
8
0
6
CONTINUOUS
62
252
70
64
75
0
10
0.000000
20
0.000000
30
0.000000
0
VERTEX
8
0
6
CONTINUOUS
62
252
70
192
10
67.750000
20
-4.600000
30
4.350000
0
VERTEX
8
0
6
CONTINUOUS
62
252
70
192
10
67.750000
20
-4.600000
30
4.850000
0
VERTEX
8
0
6
CONTINUOUS
62
252
70
192
10
67.250000
20
-4.600000
30
4.850000
0
VERTEX
8
0
6
CONTINUOUS
62
252
70
192
10
67.250000
20
-4.600000
30
4.350000
0
VERTEX
8
0
6
CONTINUOUS
62
252
70
128
10
0.000000
20
0.000000
30
0.000000
71
2
72
3
73
1
0
VERTEX
8
0
6
CONTINUOUS
62
252
70
128
10
0.000000
20
0.000000
30
0.000000
71
1
72
3
73
4
0
SEQEND
0
POLYLINE
66
1
8
0
6
CONTINUOUS
62
252
70
64
75
0
10
0.000000
20
0.000000
30
0.000000
0
VERTEX
8
0
6
CONTINUOUS
62
252
70
192
10
67.750000
20
-0.600000
30
4.850000
0
VERTEX
8
0
6
CONTINUOUS
62
252
70
192
10
67.250000
20
-0.600000
30
4.850000
0
VERTEX
8
0
6
CONTINUOUS
62
252
70
192
10
67.250000
20
-4.600000
30
4.850000
0
VERTEX
8
0
6
CONTINUOUS
62
252
70
192
10
67.750000
20
-4.600000
30
4.850000
0
VERTEX
8
0
6
CONTINUOUS
62
252
70
128
10
0.000000
20
0.000000
30
0.000000
71
2
72
3
73
1
0
VERTEX
8
0
6
CONTINUOUS
62
252
70
128
10
0.000000
20
0.000000
30
0.000000
71
1
72
3
73
4
0
SEQEND
0
POLYLINE
66
1
8
0
6
CONTINUOUS
62
252
70
64
75
0
10
0.000000
20
0.000000
30
0.000000
0
VERTEX
8
0
6
CONTINUOUS
62
252
70
192
10
67.750000
20
-0.600000
30
4.350000
0
VERTEX
8
0
6
CONTINUOUS
62
252
70
192
10
67.750000
20
-0.600000
30
4.850000
0
VERTEX
8
0
6
CONTINUOUS
62
252
70
192
10
67.750000
20
-4.600000
30
4.850000
0
VERTEX
8
0
6
CONTINUOUS
62
252
70
192
10
67.750000
20
-4.600000
30
4.350000
0
VERTEX
8
0
6
CONTINUOUS
62
252
70
128
10
0.000000
20
0.000000
30
0.000000
71
2
72
3
73
1
0
VERTEX
8
0
6
CONTINUOUS
62
252
70
128
10
0.000000
20
0.000000
30
0.000000
71
1
72
3
73
4
0
SEQEND
0
POLYLINE
66
1
8
0
6
CONTINUOUS
62
252
70
64
75
0
10
0.000000
20
0.000000
30
0.000000
0
VERTEX
8
0
6
CONTINUOUS
62
252
70
192
10
65.250000
20
-0.600000
30
4.850000
0
VERTEX
8
0
6
CONTINUOUS
62
252
70
192
10
65.250000
20
-0.600000
30
4.350000
0
VERTEX
8
0
6
CONTINUOUS
62
252
70
192
10
65.250000
20
-4.600000
30
4.350000
0
VERTEX
8
0
6
CONTINUOUS
62
252
70
192
10
65.250000
20
-4.600000
30
4.850000
0
VERTEX
8
0
6
CONTINUOUS
62
252
70
128
10
0.000000
20
0.000000
30
0.000000
71
2
72
3
73
1
0
VERTEX
8
0
6
CONTINUOUS
62
252
70
128
10
0.000000
20
0.000000
30
0.000000
71
1
72
3
73
4
0
SEQEND
0
POLYLINE
66
1
8
0
6
CONTINUOUS
62
252
70
64
75
0
10
0.000000
20
0.000000
30
0.000000
0
VERTEX
8
0
6
CONTINUOUS
62
252
70
192
10
65.250000
20
-0.600000
30
4.350000
0
VERTEX
8
0
6
CONTINUOUS
62
252
70
192
10
65.750000
20
-0.600000
30
4.350000
0
VERTEX
8
0
6
CONTINUOUS
62
252
70
192
10
65.750000
20
-4.600000
30
4.350000
0
VERTEX
8
0
6
CONTINUOUS
62
252
70
192
10
65.250000
20
-4.600000
30
4.350000
0
VERTEX
8
0
6
CONTINUOUS
62
252
70
128
10
0.000000
20
0.000000
30
0.000000
71
2
72
3
73
1
0
VERTEX
8
0
6
CONTINUOUS
62
252
70
128
10
0.000000
20
0.000000
30
0.000000
71
1
72
3
73
4
0
SEQEND
0
POLYLINE
66
1
8
0
6
CONTINUOUS
62
252
70
64
75
0
10
0.000000
20
0.000000
30
0.000000
0
VERTEX
8
0
6
CONTINUOUS
62
252
70
192
10
65.750000
20
-4.600000
30
4.350000
0
VERTEX
8
0
6
CONTINUOUS
62
252
70
192
10
65.750000
20
-4.600000
30
4.850000
0
VERTEX
8
0
6
CONTINUOUS
62
252
70
192
10
65.250000
20
-4.600000
30
4.850000
0
VERTEX
8
0
6
CONTINUOUS
62
252
70
192
10
65.250000
20
-4.600000
30
4.350000
0
VERTEX
8
0
6
CONTINUOUS
62
252
70
128
10
0.000000
20
0.000000
30
0.000000
71
2
72
3
73
1
0
VERTEX
8
0
6
CONTINUOUS
62
252
70
128
10
0.000000
20
0.000000
30
0.000000
71
1
72
3
73
4
0
SEQEND
0
POLYLINE
66
1
8
0
6
CONTINUOUS
62
252
70
64
75
0
10
0.000000
20
0.000000
30
0.000000
0
VERTEX
8
0
6
CONTINUOUS
62
252
70
192
10
65.750000
20
-0.600000
30
4.850000
0
VERTEX
8
0
6
CONTINUOUS
62
252
70
192
10
65.250000
20
-0.600000
30
4.850000
0
VERTEX
8
0
6
CONTINUOUS
62
252
70
192
10
65.250000
20
-4.600000
30
4.850000
0
VERTEX
8
0
6
CONTINUOUS
62
252
70
192
10
65.750000
20
-4.600000
30
4.850000
0
VERTEX
8
0
6
CONTINUOUS
62
252
70
128
10
0.000000
20
0.000000
30
0.000000
71
2
72
3
73
1
0
VERTEX
8
0
6
CONTINUOUS
62
252
70
128
10
0.000000
20
0.000000
30
0.000000
71
1
72
3
73
4
0
SEQEND
0
POLYLINE
66
1
8
0
6
CONTINUOUS
62
252
70
64
75
0
10
0.000000
20
0.000000
30
0.000000
0
VERTEX
8
0
6
CONTINUOUS
62
252
70
192
10
65.750000
20
-0.600000
30
4.350000
0
VERTEX
8
0
6
CONTINUOUS
62
252
70
192
10
65.750000
20
-0.600000
30
4.850000
0
VERTEX
8
0
6
CONTINUOUS
62
252
70
192
10
65.750000
20
-4.600000
30
4.850000
0
VERTEX
8
0
6
CONTINUOUS
62
252
70
192
10
65.750000
20
-4.600000
30
4.350000
0
VERTEX
8
0
6
CONTINUOUS
62
252
70
128
10
0.000000
20
0.000000
30
0.000000
71
2
72
3
73
1
0
VERTEX
8
0
6
CONTINUOUS
62
252
70
128
10
0.000000
20
0.000000
30
0.000000
71
1
72
3
73
4
0
SEQEND
0
POLYLINE
66
1
8
0
6
CONTINUOUS
62
252
70
64
75
0
10
0.000000
20
0.000000
30
0.000000
0
VERTEX
8
0
6
CONTINUOUS
62
252
70
192
10
63.250000
20
-0.600000
30
4.850000
0
VERTEX
8
0
6
CONTINUOUS
62
252
70
192
10
63.250000
20
-0.600000
30
4.350000
0
VERTEX
8
0
6
CONTINUOUS
62
252
70
192
10
63.250000
20
-4.600000
30
4.350000
0
VERTEX
8
0
6
CONTINUOUS
62
252
70
192
10
63.250000
20
-4.600000
30
4.850000
0
VERTEX
8
0
6
CONTINUOUS
62
252
70
128
10
0.000000
20
0.000000
30
0.000000
71
2
72
3
73
1
0
VERTEX
8
0
6
CONTINUOUS
62
252
70
128
10
0.000000
20
0.000000
30
0.000000
71
1
72
3
73
4
0
SEQEND
0
POLYLINE
66
1
8
0
6
CONTINUOUS
62
252
70
64
75
0
10
0.000000
20
0.000000
30
0.000000
0
VERTEX
8
0
6
CONTINUOUS
62
252
70
192
10
63.250000
20
-0.600000
30
4.350000
0
VERTEX
8
0
6
CONTINUOUS
62
252
70
192
10
63.750000
20
-0.600000
30
4.350000
0
VERTEX
8
0
6
CONTINUOUS
62
252
70
192
10
63.750000
20
-4.600000
30
4.350000
0
VERTEX
8
0
6
CONTINUOUS
62
252
70
192
10
63.250000
20
-4.600000
30
4.350000
0
VERTEX
8
0
6
CONTINUOUS
62
252
70
128
10
0.000000
20
0.000000
30
0.000000
71
2
72
3
73
1
0
VERTEX
8
0
6
CONTINUOUS
62
252
70
128
10
0.000000
20
0.000000
30
0.000000
71
1
72
3
73
4
0
SEQEND
0
POLYLINE
66
1
8
0
6
CONTINUOUS
62
252
70
64
75
0
10
0.000000
20
0.000000
30
0.000000
0
VERTEX
8
0
6
CONTINUOUS
62
252
70
192
10
63.750000
20
-4.600000
30
4.350000
0
VERTEX
8
0
6
CONTINUOUS
62
252
70
192
10
63.750000
20
-4.600000
30
4.850000
0
VERTEX
8
0
6
CONTINUOUS
62
252
70
192
10
63.250000
20
-4.600000
30
4.850000
0
VERTEX
8
0
6
CONTINUOUS
62
252
70
192
10
63.250000
20
-4.600000
30
4.350000
0
VERTEX
8
0
6
CONTINUOUS
62
252
70
128
10
0.000000
20
0.000000
30
0.000000
71
2
72
3
73
1
0
VERTEX
8
0
6
CONTINUOUS
62
252
70
128
10
0.000000
20
0.000000
30
0.000000
71
1
72
3
73
4
0
SEQEND
0
POLYLINE
66
1
8
0
6
CONTINUOUS
62
252
70
64
75
0
10
0.000000
20
0.000000
30
0.000000
0
VERTEX
8
0
6
CONTINUOUS
62
252
70
192
10
63.750000
20
-0.600000
30
4.850000
0
VERTEX
8
0
6
CONTINUOUS
62
252
70
192
10
63.250000
20
-0.600000
30
4.850000
0
VERTEX
8
0
6
CONTINUOUS
62
252
70
192
10
63.250000
20
-4.600000
30
4.850000
0
VERTEX
8
0
6
CONTINUOUS
62
252
70
192
10
63.750000
20
-4.600000
30
4.850000
0
VERTEX
8
0
6
CONTINUOUS
62
252
70
128
10
0.000000
20
0.000000
30
0.000000
71
2
72
3
73
1
0
VERTEX
8
0
6
CONTINUOUS
62
252
70
128
10
0.000000
20
0.000000
30
0.000000
71
1
72
3
73
4
0
SEQEND
0
POLYLINE
66
1
8
0
6
CONTINUOUS
62
252
70
64
75
0
10
0.000000
20
0.000000
30
0.000000
0
VERTEX
8
0
6
CONTINUOUS
62
252
70
192
10
63.750000
20
-0.600000
30
4.350000
0
VERTEX
8
0
6
CONTINUOUS
62
252
70
192
10
63.750000
20
-0.600000
30
4.850000
0
VERTEX
8
0
6
CONTINUOUS
62
252
70
192
10
63.750000
20
-4.600000
30
4.850000
0
VERTEX
8
0
6
CONTINUOUS
62
252
70
192
10
63.750000
20
-4.600000
30
4.350000
0
VERTEX
8
0
6
CONTINUOUS
62
252
70
128
10
0.000000
20
0.000000
30
0.000000
71
1
72
2
73
4
0
VERTEX
8
0
6
CONTINUOUS
62
252
70
128
10
0.000000
20
0.000000
30
0.000000
71
4
72
2
73
3
0
SEQEND
0
POLYLINE
66
1
8
0
6
CONTINUOUS
62
252
70
64
75
0
10
0.000000
20
0.000000
30
0.000000
0
VERTEX
8
0
6
CONTINUOUS
62
252
70
192
10
61.250000
20
-0.600000
30
4.850000
0
VERTEX
8
0
6
CONTINUOUS
62
252
70
192
10
61.250000
20
-0.600000
30
4.350000
0
VERTEX
8
0
6
CONTINUOUS
62
252
70
192
10
61.250000
20
-4.600000
30
4.350000
0
VERTEX
8
0
6
CONTINUOUS
62
252
70
192
10
61.250000
20
-4.600000
30
4.850000
0
VERTEX
8
0
6
CONTINUOUS
62
252
70
128
10
0.000000
20
0.000000
30
0.000000
71
2
72
3
73
1
0
VERTEX
8
0
6
CONTINUOUS
62
252
70
128
10
0.000000
20
0.000000
30
0.000000
71
1
72
3
73
4
0
SEQEND
0
POLYLINE
66
1
8
0
6
CONTINUOUS
62
252
70
64
75
0
10
0.000000
20
0.000000
30
0.000000
0
VERTEX
8
0
6
CONTINUOUS
62
252
70
192
10
61.250000
20
-0.600000
30
4.350000
0
VERTEX
8
0
6
CONTINUOUS
62
252
70
192
10
61.750000
20
-0.600000
30
4.350000
0
VERTEX
8
0
6
CONTINUOUS
62
252
70
192
10
61.750000
20
-4.600000
30
4.350000
0
VERTEX
8
0
6
CONTINUOUS
62
252
70
192
10
61.250000
20
-4.600000
30
4.350000
0
VERTEX
8
0
6
CONTINUOUS
62
252
70
128
10
0.000000
20
0.000000
30
0.000000
71
2
72
3
73
1
0
VERTEX
8
0
6
CONTINUOUS
62
252
70
128
10
0.000000
20
0.000000
30
0.000000
71
1
72
3
73
4
0
SEQEND
0
POLYLINE
66
1
8
0
6
CONTINUOUS
62
252
70
64
75
0
10
0.000000
20
0.000000
30
0.000000
0
VERTEX
8
0
6
CONTINUOUS
62
252
70
192
10
61.750000
20
-4.600000
30
4.350000
0
VERTEX
8
0
6
CONTINUOUS
62
252
70
192
10
61.750000
20
-4.600000
30
4.850000
0
VERTEX
8
0
6
CONTINUOUS
62
252
70
192
10
61.250000
20
-4.600000
30
4.850000
0
VERTEX
8
0
6
CONTINUOUS
62
252
70
192
10
61.250000
20
-4.600000
30
4.350000
0
VERTEX
8
0
6
CONTINUOUS
62
252
70
128
10
0.000000
20
0.000000
30
0.000000
71
2
72
3
73
1
0
VERTEX
8
0
6
CONTINUOUS
62
252
70
128
10
0.000000
20
0.000000
30
0.000000
71
1
72
3
73
4
0
SEQEND
0
POLYLINE
66
1
8
0
6
CONTINUOUS
62
252
70
64
75
0
10
0.000000
20
0.000000
30
0.000000
0
VERTEX
8
0
6
CONTINUOUS
62
252
70
192
10
61.750000
20
-0.600000
30
4.850000
0
VERTEX
8
0
6
CONTINUOUS
62
252
70
192
10
61.250000
20
-0.600000
30
4.850000
0
VERTEX
8
0
6
CONTINUOUS
62
252
70
192
10
61.250000
20
-4.600000
30
4.850000
0
VERTEX
8
0
6
CONTINUOUS
62
252
70
192
10
61.750000
20
-4.600000
30
4.850000
0
VERTEX
8
0
6
CONTINUOUS
62
252
70
128
10
0.000000
20
0.000000
30
0.000000
71
2
72
3
73
1
0
VERTEX
8
0
6
CONTINUOUS
62
252
70
128
10
0.000000
20
0.000000
30
0.000000
71
1
72
3
73
4
0
SEQEND
0
POLYLINE
66
1
8
0
6
CONTINUOUS
62
252
70
64
75
0
10
0.000000
20
0.000000
30
0.000000
0
VERTEX
8
0
6
CONTINUOUS
62
252
70
192
10
61.750000
20
-0.600000
30
4.350000
0
VERTEX
8
0
6
CONTINUOUS
62
252
70
192
10
61.750000
20
-0.600000
30
4.850000
0
VERTEX
8
0
6
CONTINUOUS
62
252
70
192
10
61.750000
20
-4.600000
30
4.850000
0
VERTEX
8
0
6
CONTINUOUS
62
252
70
192
10
61.750000
20
-4.600000
30
4.350000
0
VERTEX
8
0
6
CONTINUOUS
62
252
70
128
10
0.000000
20
0.000000
30
0.000000
71
1
72
2
73
4
0
VERTEX
8
0
6
CONTINUOUS
62
252
70
128
10
0.000000
20
0.000000
30
0.000000
71
4
72
2
73
3
0
SEQEND
0
POLYLINE
66
1
8
0
6
CONTINUOUS
62
252
70
64
75
0
10
0.000000
20
0.000000
30
0.000000
0
VERTEX
8
0
6
CONTINUOUS
62
252
70
192
10
59.250000
20
-0.600000
30
4.850000
0
VERTEX
8
0
6
CONTINUOUS
62
252
70
192
10
59.250000
20
-0.600000
30
4.350000
0
VERTEX
8
0
6
CONTINUOUS
62
252
70
192
10
59.250000
20
-4.600000
30
4.350000
0
VERTEX
8
0
6
CONTINUOUS
62
252
70
192
10
59.250000
20
-4.600000
30
4.850000
0
VERTEX
8
0
6
CONTINUOUS
62
252
70
128
10
0.000000
20
0.000000
30
0.000000
71
2
72
3
73
1
0
VERTEX
8
0
6
CONTINUOUS
62
252
70
128
10
0.000000
20
0.000000
30
0.000000
71
1
72
3
73
4
0
SEQEND
0
POLYLINE
66
1
8
0
6
CONTINUOUS
62
252
70
64
75
0
10
0.000000
20
0.000000
30
0.000000
0
VERTEX
8
0
6
CONTINUOUS
62
252
70
192
10
59.250000
20
-0.600000
30
4.350000
0
VERTEX
8
0
6
CONTINUOUS
62
252
70
192
10
59.750000
20
-0.600000
30
4.350000
0
VERTEX
8
0
6
CONTINUOUS
62
252
70
192
10
59.750000
20
-4.600000
30
4.350000
0
VERTEX
8
0
6
CONTINUOUS
62
252
70
192
10
59.250000
20
-4.600000
30
4.350000
0
VERTEX
8
0
6
CONTINUOUS
62
252
70
128
10
0.000000
20
0.000000
30
0.000000
71
2
72
3
73
1
0
VERTEX
8
0
6
CONTINUOUS
62
252
70
128
10
0.000000
20
0.000000
30
0.000000
71
1
72
3
73
4
0
SEQEND
0
POLYLINE
66
1
8
0
6
CONTINUOUS
62
252
70
64
75
0
10
0.000000
20
0.000000
30
0.000000
0
VERTEX
8
0
6
CONTINUOUS
62
252
70
192
10
59.750000
20
-4.600000
30
4.350000
0
VERTEX
8
0
6
CONTINUOUS
62
252
70
192
10
59.750000
20
-4.600000
30
4.850000
0
VERTEX
8
0
6
CONTINUOUS
62
252
70
192
10
59.250000
20
-4.600000
30
4.850000
0
VERTEX
8
0
6
CONTINUOUS
62
252
70
192
10
59.250000
20
-4.600000
30
4.350000
0
VERTEX
8
0
6
CONTINUOUS
62
252
70
128
10
0.000000
20
0.000000
30
0.000000
71
2
72
3
73
1
0
VERTEX
8
0
6
CONTINUOUS
62
252
70
128
10
0.000000
20
0.000000
30
0.000000
71
1
72
3
73
4
0
SEQEND
0
POLYLINE
66
1
8
0
6
CONTINUOUS
62
252
70
64
75
0
10
0.000000
20
0.000000
30
0.000000
0
VERTEX
8
0
6
CONTINUOUS
62
252
70
192
10
59.750000
20
-0.600000
30
4.850000
0
VERTEX
8
0
6
CONTINUOUS
62
252
70
192
10
59.250000
20
-0.600000
30
4.850000
0
VERTEX
8
0
6
CONTINUOUS
62
252
70
192
10
59.250000
20
-4.600000
30
4.850000
0
VERTEX
8
0
6
CONTINUOUS
62
252
70
192
10
59.750000
20
-4.600000
30
4.850000
0
VERTEX
8
0
6
CONTINUOUS
62
252
70
128
10
0.000000
20
0.000000
30
0.000000
71
2
72
3
73
1
0
VERTEX
8
0
6
CONTINUOUS
62
252
70
128
10
0.000000
20
0.000000
30
0.000000
71
1
72
3
73
4
0
SEQEND
0
POLYLINE
66
1
8
0
6
CONTINUOUS
62
252
70
64
75
0
10
0.000000
20
0.000000
30
0.000000
0
VERTEX
8
0
6
CONTINUOUS
62
252
70
192
10
59.750000
20
-0.600000
30
4.350000
0
VERTEX
8
0
6
CONTINUOUS
62
252
70
192
10
59.750000
20
-0.600000
30
4.850000
0
VERTEX
8
0
6
CONTINUOUS
62
252
70
192
10
59.750000
20
-4.600000
30
4.850000
0
VERTEX
8
0
6
CONTINUOUS
62
252
70
192
10
59.750000
20
-4.600000
30
4.350000
0
VERTEX
8
0
6
CONTINUOUS
62
252
70
128
10
0.000000
20
0.000000
30
0.000000
71
2
72
3
73
1
0
VERTEX
8
0
6
CONTINUOUS
62
252
70
128
10
0.000000
20
0.000000
30
0.000000
71
1
72
3
73
4
0
SEQEND
0
POLYLINE
66
1
8
0
6
CONTINUOUS
62
252
70
64
75
0
10
0.000000
20
0.000000
30
0.000000
0
VERTEX
8
0
6
CONTINUOUS
62
252
70
192
10
57.250000
20
-0.600000
30
4.850000
0
VERTEX
8
0
6
CONTINUOUS
62
252
70
192
10
57.250000
20
-0.600000
30
4.350000
0
VERTEX
8
0
6
CONTINUOUS
62
252
70
192
10
57.250000
20
-4.600000
30
4.350000
0
VERTEX
8
0
6
CONTINUOUS
62
252
70
192
10
57.250000
20
-4.600000
30
4.850000
0
VERTEX
8
0
6
CONTINUOUS
62
252
70
128
10
0.000000
20
0.000000
30
0.000000
71
2
72
3
73
1
0
VERTEX
8
0
6
CONTINUOUS
62
252
70
128
10
0.000000
20
0.000000
30
0.000000
71
1
72
3
73
4
0
SEQEND
0
POLYLINE
66
1
8
0
6
CONTINUOUS
62
252
70
64
75
0
10
0.000000
20
0.000000
30
0.000000
0
VERTEX
8
0
6
CONTINUOUS
62
252
70
192
10
57.250000
20
-0.600000
30
4.350000
0
VERTEX
8
0
6
CONTINUOUS
62
252
70
192
10
57.750000
20
-0.600000
30
4.350000
0
VERTEX
8
0
6
CONTINUOUS
62
252
70
192
10
57.750000
20
-4.600000
30
4.350000
0
VERTEX
8
0
6
CONTINUOUS
62
252
70
192
10
57.250000
20
-4.600000
30
4.350000
0
VERTEX
8
0
6
CONTINUOUS
62
252
70
128
10
0.000000
20
0.000000
30
0.000000
71
2
72
3
73
1
0
VERTEX
8
0
6
CONTINUOUS
62
252
70
128
10
0.000000
20
0.000000
30
0.000000
71
1
72
3
73
4
0
SEQEND
0
POLYLINE
66
1
8
0
6
CONTINUOUS
62
252
70
64
75
0
10
0.000000
20
0.000000
30
0.000000
0
VERTEX
8
0
6
CONTINUOUS
62
252
70
192
10
57.750000
20
-4.600000
30
4.350000
0
VERTEX
8
0
6
CONTINUOUS
62
252
70
192
10
57.750000
20
-4.600000
30
4.850000
0
VERTEX
8
0
6
CONTINUOUS
62
252
70
192
10
57.250000
20
-4.600000
30
4.850000
0
VERTEX
8
0
6
CONTINUOUS
62
252
70
192
10
57.250000
20
-4.600000
30
4.350000
0
VERTEX
8
0
6
CONTINUOUS
62
252
70
128
10
0.000000
20
0.000000
30
0.000000
71
2
72
3
73
1
0
VERTEX
8
0
6
CONTINUOUS
62
252
70
128
10
0.000000
20
0.000000
30
0.000000
71
1
72
3
73
4
0
SEQEND
0
POLYLINE
66
1
8
0
6
CONTINUOUS
62
252
70
64
75
0
10
0.000000
20
0.000000
30
0.000000
0
VERTEX
8
0
6
CONTINUOUS
62
252
70
192
10
57.750000
20
-0.600000
30
4.850000
0
VERTEX
8
0
6
CONTINUOUS
62
252
70
192
10
57.250000
20
-0.600000
30
4.850000
0
VERTEX
8
0
6
CONTINUOUS
62
252
70
192
10
57.250000
20
-4.600000
30
4.850000
0
VERTEX
8
0
6
CONTINUOUS
62
252
70
192
10
57.750000
20
-4.600000
30
4.850000
0
VERTEX
8
0
6
CONTINUOUS
62
252
70
128
10
0.000000
20
0.000000
30
0.000000
71
2
72
3
73
1
0
VERTEX
8
0
6
CONTINUOUS
62
252
70
128
10
0.000000
20
0.000000
30
0.000000
71
1
72
3
73
4
0
SEQEND
0
POLYLINE
66
1
8
0
6
CONTINUOUS
62
252
70
64
75
0
10
0.000000
20
0.000000
30
0.000000
0
VERTEX
8
0
6
CONTINUOUS
62
252
70
192
10
57.750000
20
-0.600000
30
4.350000
0
VERTEX
8
0
6
CONTINUOUS
62
252
70
192
10
57.750000
20
-0.600000
30
4.850000
0
VERTEX
8
0
6
CONTINUOUS
62
252
70
192
10
57.750000
20
-4.600000
30
4.850000
0
VERTEX
8
0
6
CONTINUOUS
62
252
70
192
10
57.750000
20
-4.600000
30
4.350000
0
VERTEX
8
0
6
CONTINUOUS
62
252
70
128
10
0.000000
20
0.000000
30
0.000000
71
2
72
3
73
1
0
VERTEX
8
0
6
CONTINUOUS
62
252
70
128
10
0.000000
20
0.000000
30
0.000000
71
1
72
3
73
4
0
SEQEND
0
POLYLINE
66
1
8
0
6
CONTINUOUS
62
252
70
64
75
0
10
0.000000
20
0.000000
30
0.000000
0
VERTEX
8
0
6
CONTINUOUS
62
252
70
192
10
55.250000
20
-0.600000
30
4.850000
0
VERTEX
8
0
6
CONTINUOUS
62
252
70
192
10
55.250000
20
-0.600000
30
4.350000
0
VERTEX
8
0
6
CONTINUOUS
62
252
70
192
10
55.250000
20
-4.600000
30
4.350000
0
VERTEX
8
0
6
CONTINUOUS
62
252
70
192
10
55.250000
20
-4.600000
30
4.850000
0
VERTEX
8
0
6
CONTINUOUS
62
252
70
128
10
0.000000
20
0.000000
30
0.000000
71
2
72
3
73
1
0
VERTEX
8
0
6
CONTINUOUS
62
252
70
128
10
0.000000
20
0.000000
30
0.000000
71
1
72
3
73
4
0
SEQEND
0
POLYLINE
66
1
8
0
6
CONTINUOUS
62
252
70
64
75
0
10
0.000000
20
0.000000
30
0.000000
0
VERTEX
8
0
6
CONTINUOUS
62
252
70
192
10
55.250000
20
-0.600000
30
4.350000
0
VERTEX
8
0
6
CONTINUOUS
62
252
70
192
10
55.750000
20
-0.600000
30
4.350000
0
VERTEX
8
0
6
CONTINUOUS
62
252
70
192
10
55.750000
20
-4.600000
30
4.350000
0
VERTEX
8
0
6
CONTINUOUS
62
252
70
192
10
55.250000
20
-4.600000
30
4.350000
0
VERTEX
8
0
6
CONTINUOUS
62
252
70
128
10
0.000000
20
0.000000
30
0.000000
71
2
72
3
73
1
0
VERTEX
8
0
6
CONTINUOUS
62
252
70
128
10
0.000000
20
0.000000
30
0.000000
71
1
72
3
73
4
0
SEQEND
0
POLYLINE
66
1
8
0
6
CONTINUOUS
62
252
70
64
75
0
10
0.000000
20
0.000000
30
0.000000
0
VERTEX
8
0
6
CONTINUOUS
62
252
70
192
10
55.750000
20
-4.600000
30
4.350000
0
VERTEX
8
0
6
CONTINUOUS
62
252
70
192
10
55.750000
20
-4.600000
30
4.850000
0
VERTEX
8
0
6
CONTINUOUS
62
252
70
192
10
55.250000
20
-4.600000
30
4.850000
0
VERTEX
8
0
6
CONTINUOUS
62
252
70
192
10
55.250000
20
-4.600000
30
4.350000
0
VERTEX
8
0
6
CONTINUOUS
62
252
70
128
10
0.000000
20
0.000000
30
0.000000
71
2
72
3
73
1
0
VERTEX
8
0
6
CONTINUOUS
62
252
70
128
10
0.000000
20
0.000000
30
0.000000
71
1
72
3
73
4
0
SEQEND
0
POLYLINE
66
1
8
0
6
CONTINUOUS
62
252
70
64
75
0
10
0.000000
20
0.000000
30
0.000000
0
VERTEX
8
0
6
CONTINUOUS
62
252
70
192
10
55.750000
20
-0.600000
30
4.850000
0
VERTEX
8
0
6
CONTINUOUS
62
252
70
192
10
55.250000
20
-0.600000
30
4.850000
0
VERTEX
8
0
6
CONTINUOUS
62
252
70
192
10
55.250000
20
-4.600000
30
4.850000
0
VERTEX
8
0
6
CONTINUOUS
62
252
70
192
10
55.750000
20
-4.600000
30
4.850000
0
VERTEX
8
0
6
CONTINUOUS
62
252
70
128
10
0.000000
20
0.000000
30
0.000000
71
2
72
3
73
1
0
VERTEX
8
0
6
CONTINUOUS
62
252
70
128
10
0.000000
20
0.000000
30
0.000000
71
1
72
3
73
4
0
SEQEND
0
POLYLINE
66
1
8
0
6
CONTINUOUS
62
252
70
64
75
0
10
0.000000
20
0.000000
30
0.000000
0
VERTEX
8
0
6
CONTINUOUS
62
252
70
192
10
55.750000
20
-0.600000
30
4.350000
0
VERTEX
8
0
6
CONTINUOUS
62
252
70
192
10
55.750000
20
-0.600000
30
4.850000
0
VERTEX
8
0
6
CONTINUOUS
62
252
70
192
10
55.750000
20
-4.600000
30
4.850000
0
VERTEX
8
0
6
CONTINUOUS
62
252
70
192
10
55.750000
20
-4.600000
30
4.350000
0
VERTEX
8
0
6
CONTINUOUS
62
252
70
128
10
0.000000
20
0.000000
30
0.000000
71
1
72
2
73
4
0
VERTEX
8
0
6
CONTINUOUS
62
252
70
128
10
0.000000
20
0.000000
30
0.000000
71
4
72
2
73
3
0
SEQEND
0
POLYLINE
66
1
8
0
6
CONTINUOUS
62
252
70
64
75
0
10
0.000000
20
0.000000
30
0.000000
0
VERTEX
8
0
6
CONTINUOUS
62
252
70
192
10
53.250000
20
-0.600000
30
4.850000
0
VERTEX
8
0
6
CONTINUOUS
62
252
70
192
10
53.250000
20
-0.600000
30
4.350000
0
VERTEX
8
0
6
CONTINUOUS
62
252
70
192
10
53.250000
20
-4.600000
30
4.350000
0
VERTEX
8
0
6
CONTINUOUS
62
252
70
192
10
53.250000
20
-4.600000
30
4.850000
0
VERTEX
8
0
6
CONTINUOUS
62
252
70
128
10
0.000000
20
0.000000
30
0.000000
71
2
72
3
73
1
0
VERTEX
8
0
6
CONTINUOUS
62
252
70
128
10
0.000000
20
0.000000
30
0.000000
71
1
72
3
73
4
0
SEQEND
0
POLYLINE
66
1
8
0
6
CONTINUOUS
62
252
70
64
75
0
10
0.000000
20
0.000000
30
0.000000
0
VERTEX
8
0
6
CONTINUOUS
62
252
70
192
10
53.250000
20
-0.600000
30
4.350000
0
VERTEX
8
0
6
CONTINUOUS
62
252
70
192
10
53.750000
20
-0.600000
30
4.350000
0
VERTEX
8
0
6
CONTINUOUS
62
252
70
192
10
53.750000
20
-4.600000
30
4.350000
0
VERTEX
8
0
6
CONTINUOUS
62
252
70
192
10
53.250000
20
-4.600000
30
4.350000
0
VERTEX
8
0
6
CONTINUOUS
62
252
70
128
10
0.000000
20
0.000000
30
0.000000
71
2
72
3
73
1
0
VERTEX
8
0
6
CONTINUOUS
62
252
70
128
10
0.000000
20
0.000000
30
0.000000
71
1
72
3
73
4
0
SEQEND
0
POLYLINE
66
1
8
0
6
CONTINUOUS
62
252
70
64
75
0
10
0.000000
20
0.000000
30
0.000000
0
VERTEX
8
0
6
CONTINUOUS
62
252
70
192
10
53.750000
20
-4.600000
30
4.350000
0
VERTEX
8
0
6
CONTINUOUS
62
252
70
192
10
53.750000
20
-4.600000
30
4.850000
0
VERTEX
8
0
6
CONTINUOUS
62
252
70
192
10
53.250000
20
-4.600000
30
4.850000
0
VERTEX
8
0
6
CONTINUOUS
62
252
70
192
10
53.250000
20
-4.600000
30
4.350000
0
VERTEX
8
0
6
CONTINUOUS
62
252
70
128
10
0.000000
20
0.000000
30
0.000000
71
2
72
3
73
1
0
VERTEX
8
0
6
CONTINUOUS
62
252
70
128
10
0.000000
20
0.000000
30
0.000000
71
1
72
3
73
4
0
SEQEND
0
POLYLINE
66
1
8
0
6
CONTINUOUS
62
252
70
64
75
0
10
0.000000
20
0.000000
30
0.000000
0
VERTEX
8
0
6
CONTINUOUS
62
252
70
192
10
53.750000
20
-0.600000
30
4.850000
0
VERTEX
8
0
6
CONTINUOUS
62
252
70
192
10
53.250000
20
-0.600000
30
4.850000
0
VERTEX
8
0
6
CONTINUOUS
62
252
70
192
10
53.250000
20
-4.600000
30
4.850000
0
VERTEX
8
0
6
CONTINUOUS
62
252
70
192
10
53.750000
20
-4.600000
30
4.850000
0
VERTEX
8
0
6
CONTINUOUS
62
252
70
128
10
0.000000
20
0.000000
30
0.000000
71
2
72
3
73
1
0
VERTEX
8
0
6
CONTINUOUS
62
252
70
128
10
0.000000
20
0.000000
30
0.000000
71
1
72
3
73
4
0
SEQEND
0
POLYLINE
66
1
8
0
6
CONTINUOUS
62
252
70
64
75
0
10
0.000000
20
0.000000
30
0.000000
0
VERTEX
8
0
6
CONTINUOUS
62
252
70
192
10
53.750000
20
-0.600000
30
4.350000
0
VERTEX
8
0
6
CONTINUOUS
62
252
70
192
10
53.750000
20
-0.600000
30
4.850000
0
VERTEX
8
0
6
CONTINUOUS
62
252
70
192
10
53.750000
20
-4.600000
30
4.850000
0
VERTEX
8
0
6
CONTINUOUS
62
252
70
192
10
53.750000
20
-4.600000
30
4.350000
0
VERTEX
8
0
6
CONTINUOUS
62
252
70
128
10
0.000000
20
0.000000
30
0.000000
71
1
72
2
73
4
0
VERTEX
8
0
6
CONTINUOUS
62
252
70
128
10
0.000000
20
0.000000
30
0.000000
71
4
72
2
73
3
0
SEQEND
0
POLYLINE
66
1
8
0
6
CONTINUOUS
62
252
70
64
75
0
10
0.000000
20
0.000000
30
0.000000
0
VERTEX
8
0
6
CONTINUOUS
62
252
70
192
10
51.250000
20
-0.600000
30
4.850000
0
VERTEX
8
0
6
CONTINUOUS
62
252
70
192
10
51.250000
20
-0.600000
30
4.350000
0
VERTEX
8
0
6
CONTINUOUS
62
252
70
192
10
51.250000
20
-4.600000
30
4.350000
0
VERTEX
8
0
6
CONTINUOUS
62
252
70
192
10
51.250000
20
-4.600000
30
4.850000
0
VERTEX
8
0
6
CONTINUOUS
62
252
70
128
10
0.000000
20
0.000000
30
0.000000
71
2
72
3
73
1
0
VERTEX
8
0
6
CONTINUOUS
62
252
70
128
10
0.000000
20
0.000000
30
0.000000
71
1
72
3
73
4
0
SEQEND
0
POLYLINE
66
1
8
0
6
CONTINUOUS
62
252
70
64
75
0
10
0.000000
20
0.000000
30
0.000000
0
VERTEX
8
0
6
CONTINUOUS
62
252
70
192
10
51.250000
20
-0.600000
30
4.350000
0
VERTEX
8
0
6
CONTINUOUS
62
252
70
192
10
51.750000
20
-0.600000
30
4.350000
0
VERTEX
8
0
6
CONTINUOUS
62
252
70
192
10
51.750000
20
-4.600000
30
4.350000
0
VERTEX
8
0
6
CONTINUOUS
62
252
70
192
10
51.250000
20
-4.600000
30
4.350000
0
VERTEX
8
0
6
CONTINUOUS
62
252
70
128
10
0.000000
20
0.000000
30
0.000000
71
2
72
3
73
1
0
VERTEX
8
0
6
CONTINUOUS
62
252
70
128
10
0.000000
20
0.000000
30
0.000000
71
1
72
3
73
4
0
SEQEND
0
POLYLINE
66
1
8
0
6
CONTINUOUS
62
252
70
64
75
0
10
0.000000
20
0.000000
30
0.000000
0
VERTEX
8
0
6
CONTINUOUS
62
252
70
192
10
51.750000
20
-4.600000
30
4.350000
0
VERTEX
8
0
6
CONTINUOUS
62
252
70
192
10
51.750000
20
-4.600000
30
4.850000
0
VERTEX
8
0
6
CONTINUOUS
62
252
70
192
10
51.250000
20
-4.600000
30
4.850000
0
VERTEX
8
0
6
CONTINUOUS
62
252
70
192
10
51.250000
20
-4.600000
30
4.350000
0
VERTEX
8
0
6
CONTINUOUS
62
252
70
128
10
0.000000
20
0.000000
30
0.000000
71
2
72
3
73
1
0
VERTEX
8
0
6
CONTINUOUS
62
252
70
128
10
0.000000
20
0.000000
30
0.000000
71
1
72
3
73
4
0
SEQEND
0
POLYLINE
66
1
8
0
6
CONTINUOUS
62
252
70
64
75
0
10
0.000000
20
0.000000
30
0.000000
0
VERTEX
8
0
6
CONTINUOUS
62
252
70
192
10
51.750000
20
-0.600000
30
4.850000
0
VERTEX
8
0
6
CONTINUOUS
62
252
70
192
10
51.250000
20
-0.600000
30
4.850000
0
VERTEX
8
0
6
CONTINUOUS
62
252
70
192
10
51.250000
20
-4.600000
30
4.850000
0
VERTEX
8
0
6
CONTINUOUS
62
252
70
192
10
51.750000
20
-4.600000
30
4.850000
0
VERTEX
8
0
6
CONTINUOUS
62
252
70
128
10
0.000000
20
0.000000
30
0.000000
71
2
72
3
73
1
0
VERTEX
8
0
6
CONTINUOUS
62
252
70
128
10
0.000000
20
0.000000
30
0.000000
71
1
72
3
73
4
0
SEQEND
0
POLYLINE
66
1
8
0
6
CONTINUOUS
62
252
70
64
75
0
10
0.000000
20
0.000000
30
0.000000
0
VERTEX
8
0
6
CONTINUOUS
62
252
70
192
10
51.750000
20
-0.600000
30
4.350000
0
VERTEX
8
0
6
CONTINUOUS
62
252
70
192
10
51.750000
20
-0.600000
30
4.850000
0
VERTEX
8
0
6
CONTINUOUS
62
252
70
192
10
51.750000
20
-4.600000
30
4.850000
0
VERTEX
8
0
6
CONTINUOUS
62
252
70
192
10
51.750000
20
-4.600000
30
4.350000
0
VERTEX
8
0
6
CONTINUOUS
62
252
70
128
10
0.000000
20
0.000000
30
0.000000
71
1
72
2
73
4
0
VERTEX
8
0
6
CONTINUOUS
62
252
70
128
10
0.000000
20
0.000000
30
0.000000
71
4
72
2
73
3
0
SEQEND
0
POLYLINE
66
1
8
0
6
CONTINUOUS
62
252
70
64
75
0
10
0.000000
20
0.000000
30
0.000000
0
VERTEX
8
0
6
CONTINUOUS
62
252
70
192
10
53.250000
20
-1.800000
30
5.600000
0
VERTEX
8
0
6
CONTINUOUS
62
252
70
192
10
67.750000
20
-1.800000
30
5.600000
0
VERTEX
8
0
6
CONTINUOUS
62
252
70
192
10
67.750000
20
-1.800000
30
6.100000
0
VERTEX
8
0
6
CONTINUOUS
62
252
70
192
10
53.250000
20
-1.800000
30
6.100000
0
VERTEX
8
0
6
CONTINUOUS
62
252
70
128
10
0.000000
20
0.000000
30
0.000000
71
2
72
3
73
1
0
VERTEX
8
0
6
CONTINUOUS
62
252
70
128
10
0.000000
20
0.000000
30
0.000000
71
1
72
3
73
4
0
SEQEND
0
POLYLINE
66
1
8
0
6
CONTINUOUS
62
252
70
64
75
0
10
0.000000
20
0.000000
30
0.000000
0
VERTEX
8
0
6
CONTINUOUS
62
252
70
192
10
53.250000
20
-5.600000
30
5.600000
0
VERTEX
8
0
6
CONTINUOUS
62
252
70
192
10
53.250000
20
-1.800000
30
5.600000
0
VERTEX
8
0
6
CONTINUOUS
62
252
70
192
10
53.250000
20
-1.800000
30
6.100000
0
VERTEX
8
0
6
CONTINUOUS
62
252
70
192
10
53.250000
20
-5.600000
30
6.100000
0
VERTEX
8
0
6
CONTINUOUS
62
252
70
128
10
0.000000
20
0.000000
30
0.000000
71
2
72
3
73
1
0
VERTEX
8
0
6
CONTINUOUS
62
252
70
128
10
0.000000
20
0.000000
30
0.000000
71
1
72
3
73
4
0
SEQEND
0
POLYLINE
66
1
8
0
6
CONTINUOUS
62
252
70
64
75
0
10
0.000000
20
0.000000
30
0.000000
0
VERTEX
8
0
6
CONTINUOUS
62
252
70
192
10
67.750000
20
-1.800000
30
5.600000
0
VERTEX
8
0
6
CONTINUOUS
62
252
70
192
10
67.750000
20
-5.600000
30
5.600000
0
VERTEX
8
0
6
CONTINUOUS
62
252
70
192
10
67.750000
20
-5.600000
30
6.100000
0
VERTEX
8
0
6
CONTINUOUS
62
252
70
192
10
67.750000
20
-1.800000
30
6.100000
0
VERTEX
8
0
6
CONTINUOUS
62
252
70
128
10
0.000000
20
0.000000
30
0.000000
71
1
72
2
73
4
0
VERTEX
8
0
6
CONTINUOUS
62
252
70
128
10
0.000000
20
0.000000
30
0.000000
71
4
72
2
73
3
0
SEQEND
0
POLYLINE
66
1
8
0
6
CONTINUOUS
62
252
70
64
75
0
10
0.000000
20
0.000000
30
0.000000
0
VERTEX
8
0
6
CONTINUOUS
62
252
70
192
10
67.750000
20
-5.600000
30
5.600000
0
VERTEX
8
0
6
CONTINUOUS
62
252
70
192
10
67.750000
20
-1.800000
30
5.600000
0
VERTEX
8
0
6
CONTINUOUS
62
252
70
192
10
53.250000
20
-1.800000
30
5.600000
0
VERTEX
8
0
6
CONTINUOUS
62
252
70
192
10
53.250000
20
-5.600000
30
5.600000
0
VERTEX
8
0
6
CONTINUOUS
62
252
70
192
10
50.200000
20
-5.600000
30
5.600000
0
VERTEX
8
0
6
CONTINUOUS
62
252
70
192
10
50.200000
20
-0.600000
30
5.600000
0
VERTEX
8
0
6
CONTINUOUS
62
252
70
192
10
70.800000
20
-0.600000
30
5.600000
0
VERTEX
8
0
6
CONTINUOUS
62
252
70
192
10
70.800000
20
-5.600000
30
5.600000
0
VERTEX
8
0
6
CONTINUOUS
62
252
70
128
10
0.000000
20
0.000000
30
0.000000
71
1
72
2
73
8
0
VERTEX
8
0
6
CONTINUOUS
62
252
70
128
10
0.000000
20
0.000000
30
0.000000
71
8
72
2
73
7
0
VERTEX
8
0
6
CONTINUOUS
62
252
70
128
10
0.000000
20
0.000000
30
0.000000
71
7
72
2
73
6
0
VERTEX
8
0
6
CONTINUOUS
62
252
70
128
10
0.000000
20
0.000000
30
0.000000
71
6
72
2
73
3
0
VERTEX
8
0
6
CONTINUOUS
62
252
70
128
10
0.000000
20
0.000000
30
0.000000
71
6
72
3
73
5
0
VERTEX
8
0
6
CONTINUOUS
62
252
70
128
10
0.000000
20
0.000000
30
0.000000
71
5
72
3
73
4
0
SEQEND
0
POLYLINE
66
1
8
0
6
CONTINUOUS
62
252
70
64
75
0
10
0.000000
20
0.000000
30
0.000000
0
VERTEX
8
0
6
CONTINUOUS
62
252
70
192
10
53.250000
20
-5.600000
30
6.100000
0
VERTEX
8
0
6
CONTINUOUS
62
252
70
192
10
53.250000
20
-1.800000
30
6.100000
0
VERTEX
8
0
6
CONTINUOUS
62
252
70
192
10
67.750000
20
-1.800000
30
6.100000
0
VERTEX
8
0
6
CONTINUOUS
62
252
70
192
10
67.750000
20
-5.600000
30
6.100000
0
VERTEX
8
0
6
CONTINUOUS
62
252
70
192
10
71.300000
20
-5.600000
30
6.100000
0
VERTEX
8
0
6
CONTINUOUS
62
252
70
192
10
71.300000
20
1.600000
30
6.100000
0
VERTEX
8
0
6
CONTINUOUS
62
252
70
192
10
49.700000
20
1.600000
30
6.100000
0
VERTEX
8
0
6
CONTINUOUS
62
252
70
192
10
49.700000
20
-5.600000
30
6.100000
0
VERTEX
8
0
6
CONTINUOUS
62
252
70
128
10
0.000000
20
0.000000
30
0.000000
71
1
72
2
73
8
0
VERTEX
8
0
6
CONTINUOUS
62
252
70
128
10
0.000000
20
0.000000
30
0.000000
71
8
72
2
73
7
0
VERTEX
8
0
6
CONTINUOUS
62
252
70
128
10
0.000000
20
0.000000
30
0.000000
71
7
72
2
73
3
0
VERTEX
8
0
6
CONTINUOUS
62
252
70
128
10
0.000000
20
0.000000
30
0.000000
71
7
72
3
73
6
0
VERTEX
8
0
6
CONTINUOUS
62
252
70
128
10
0.000000
20
0.000000
30
0.000000
71
6
72
3
73
5
0
VERTEX
8
0
6
CONTINUOUS
62
252
70
128
10
0.000000
20
0.000000
30
0.000000
71
5
72
3
73
4
0
SEQEND
0
POLYLINE
66
1
8
0
6
CONTINUOUS
62
252
70
64
75
0
10
0.000000
20
0.000000
30
0.000000
0
VERTEX
8
0
6
CONTINUOUS
62
252
70
192
10
70.800000
20
-5.600000
30
2.100000
0
VERTEX
8
0
6
CONTINUOUS
62
252
70
192
10
70.800000
20
-0.600000
30
2.100000
0
VERTEX
8
0
6
CONTINUOUS
62
252
70
192
10
50.200000
20
-0.600000
30
2.100000
0
VERTEX
8
0
6
CONTINUOUS
62
252
70
192
10
50.200000
20
-5.600000
30
2.100000
0
VERTEX
8
0
6
CONTINUOUS
62
252
70
128
10
0.000000
20
0.000000
30
0.000000
71
2
72
3
73
1
0
VERTEX
8
0
6
CONTINUOUS
62
252
70
128
10
0.000000
20
0.000000
30
0.000000
71
1
72
3
73
4
0
SEQEND
0
POLYLINE
66
1
8
0
6
CONTINUOUS
62
252
70
64
75
0
10
0.000000
20
0.000000
30
0.000000
0
VERTEX
8
0
6
CONTINUOUS
62
252
70
192
10
50.200000
20
-0.600000
30
2.100000
0
VERTEX
8
0
6
CONTINUOUS
62
252
70
192
10
50.200000
20
-0.600000
30
5.600000
0
VERTEX
8
0
6
CONTINUOUS
62
252
70
192
10
50.200000
20
-5.600000
30
5.600000
0
VERTEX
8
0
6
CONTINUOUS
62
252
70
192
10
50.200000
20
-5.600000
30
2.100000
0
VERTEX
8
0
6
CONTINUOUS
62
252
70
128
10
0.000000
20
0.000000
30
0.000000
71
1
72
2
73
4
0
VERTEX
8
0
6
CONTINUOUS
62
252
70
128
10
0.000000
20
0.000000
30
0.000000
71
4
72
2
73
3
0
SEQEND
0
POLYLINE
66
1
8
0
6
CONTINUOUS
62
252
70
64
75
0
10
0.000000
20
0.000000
30
0.000000
0
VERTEX
8
0
6
CONTINUOUS
62
252
70
192
10
69.750000
20
-0.600000
30
4.350000
0
VERTEX
8
0
6
CONTINUOUS
62
252
70
192
10
69.250000
20
-0.600000
30
4.350000
0
VERTEX
8
0
6
CONTINUOUS
62
252
70
192
10
69.250000
20
-0.600000
30
4.850000
0
VERTEX
8
0
6
CONTINUOUS
62
252
70
192
10
69.750000
20
-0.600000
30
4.850000
0
VERTEX
8
0
6
CONTINUOUS
62
252
70
192
10
67.750000
20
-0.600000
30
4.350000
0
VERTEX
8
0
6
CONTINUOUS
62
252
70
192
10
67.250000
20
-0.600000
30
4.350000
0
VERTEX
8
0
6
CONTINUOUS
62
252
70
192
10
67.250000
20
-0.600000
30
4.850000
0
VERTEX
8
0
6
CONTINUOUS
62
252
70
192
10
67.750000
20
-0.600000
30
4.850000
0
VERTEX
8
0
6
CONTINUOUS
62
252
70
192
10
65.750000
20
-0.600000
30
4.350000
0
VERTEX
8
0
6
CONTINUOUS
62
252
70
192
10
65.250000
20
-0.600000
30
4.350000
0
VERTEX
8
0
6
CONTINUOUS
62
252
70
192
10
65.250000
20
-0.600000
30
4.850000
0
VERTEX
8
0
6
CONTINUOUS
62
252
70
192
10
65.750000
20
-0.600000
30
4.850000
0
VERTEX
8
0
6
CONTINUOUS
62
252
70
192
10
63.750000
20
-0.600000
30
4.350000
0
VERTEX
8
0
6
CONTINUOUS
62
252
70
192
10
63.250000
20
-0.600000
30
4.350000
0
VERTEX
8
0
6
CONTINUOUS
62
252
70
192
10
63.250000
20
-0.600000
30
4.850000
0
VERTEX
8
0
6
CONTINUOUS
62
252
70
192
10
63.750000
20
-0.600000
30
4.850000
0
VERTEX
8
0
6
CONTINUOUS
62
252
70
192
10
61.750000
20
-0.600000
30
4.350000
0
VERTEX
8
0
6
CONTINUOUS
62
252
70
192
10
61.250000
20
-0.600000
30
4.350000
0
VERTEX
8
0
6
CONTINUOUS
62
252
70
192
10
61.250000
20
-0.600000
30
4.850000
0
VERTEX
8
0
6
CONTINUOUS
62
252
70
192
10
61.750000
20
-0.600000
30
4.850000
0
VERTEX
8
0
6
CONTINUOUS
62
252
70
192
10
59.750000
20
-0.600000
30
4.350000
0
VERTEX
8
0
6
CONTINUOUS
62
252
70
192
10
59.250000
20
-0.600000
30
4.350000
0
VERTEX
8
0
6
CONTINUOUS
62
252
70
192
10
59.250000
20
-0.600000
30
4.850000
0
VERTEX
8
0
6
CONTINUOUS
62
252
70
192
10
59.750000
20
-0.600000
30
4.850000
0
VERTEX
8
0
6
CONTINUOUS
62
252
70
192
10
57.750000
20
-0.600000
30
4.350000
0
VERTEX
8
0
6
CONTINUOUS
62
252
70
192
10
57.250000
20
-0.600000
30
4.350000
0
VERTEX
8
0
6
CONTINUOUS
62
252
70
192
10
57.250000
20
-0.600000
30
4.850000
0
VERTEX
8
0
6
CONTINUOUS
62
252
70
192
10
57.750000
20
-0.600000
30
4.850000
0
VERTEX
8
0
6
CONTINUOUS
62
252
70
192
10
55.750000
20
-0.600000
30
4.350000
0
VERTEX
8
0
6
CONTINUOUS
62
252
70
192
10
55.250000
20
-0.600000
30
4.350000
0
VERTEX
8
0
6
CONTINUOUS
62
252
70
192
10
55.250000
20
-0.600000
30
4.850000
0
VERTEX
8
0
6
CONTINUOUS
62
252
70
192
10
55.750000
20
-0.600000
30
4.850000
0
VERTEX
8
0
6
CONTINUOUS
62
252
70
192
10
53.750000
20
-0.600000
30
4.350000
0
VERTEX
8
0
6
CONTINUOUS
62
252
70
192
10
53.250000
20
-0.600000
30
4.350000
0
VERTEX
8
0
6
CONTINUOUS
62
252
70
192
10
53.250000
20
-0.600000
30
4.850000
0
VERTEX
8
0
6
CONTINUOUS
62
252
70
192
10
53.750000
20
-0.600000
30
4.850000
0
VERTEX
8
0
6
CONTINUOUS
62
252
70
192
10
51.750000
20
-0.600000
30
4.350000
0
VERTEX
8
0
6
CONTINUOUS
62
252
70
192
10
51.250000
20
-0.600000
30
4.350000
0
VERTEX
8
0
6
CONTINUOUS
62
252
70
192
10
51.250000
20
-0.600000
30
4.850000
0
VERTEX
8
0
6
CONTINUOUS
62
252
70
192
10
51.750000
20
-0.600000
30
4.850000
0
VERTEX
8
0
6
CONTINUOUS
62
252
70
192
10
70.800000
20
-0.600000
30
2.100000
0
VERTEX
8
0
6
CONTINUOUS
62
252
70
192
10
70.800000
20
-0.600000
30
5.600000
0
VERTEX
8
0
6
CONTINUOUS
62
252
70
192
10
50.200000
20
-0.600000
30
5.600000
0
VERTEX
8
0
6
CONTINUOUS
62
252
70
192
10
50.200000
20
-0.600000
30
2.100000
0
VERTEX
8
0
6
CONTINUOUS
62
252
70
128
10
0.000000
20
0.000000
30
0.000000
71
2
72
41
73
1
0
VERTEX
8
0
6
CONTINUOUS
62
252
70
128
10
0.000000
20
0.000000
30
0.000000
71
1
72
41
73
42
0
VERTEX
8
0
6
CONTINUOUS
62
252
70
128
10
0.000000
20
0.000000
30
0.000000
71
1
72
42
73
4
0
VERTEX
8
0
6
CONTINUOUS
62
252
70
128
10
0.000000
20
0.000000
30
0.000000
71
4
72
42
73
3
0
VERTEX
8
0
6
CONTINUOUS
62
252
70
128
10
0.000000
20
0.000000
30
0.000000
71
3
72
42
73
8
0
VERTEX
8
0
6
CONTINUOUS
62
252
70
128
10
0.000000
20
0.000000
30
0.000000
71
3
72
8
73
5
0
VERTEX
8
0
6
CONTINUOUS
62
252
70
128
10
0.000000
20
0.000000
30
0.000000
71
41
72
2
73
5
0
VERTEX
8
0
6
CONTINUOUS
62
252
70
128
10
0.000000
20
0.000000
30
0.000000
71
5
72
2
73
3
0
VERTEX
8
0
6
CONTINUOUS
62
252
70
128
10
0.000000
20
0.000000
30
0.000000
71
5
72
6
73
41
0
VERTEX
8
0
6
CONTINUOUS
62
252
70
128
10
0.000000
20
0.000000
30
0.000000
71
41
72
6
73
9
0
VERTEX
8
0
6
CONTINUOUS
62
252
70
128
10
0.000000
20
0.000000
30
0.000000
71
41
72
9
73
10
0
VERTEX
8
0
6
CONTINUOUS
62
252
70
128
10
0.000000
20
0.000000
30
0.000000
71
6
72
7
73
9
0
VERTEX
8
0
6
CONTINUOUS
62
252
70
128
10
0.000000
20
0.000000
30
0.000000
71
9
72
7
73
12
0
VERTEX
8
0
6
CONTINUOUS
62
252
70
128
10
0.000000
20
0.000000
30
0.000000
71
12
72
7
73
42
0
VERTEX
8
0
6
CONTINUOUS
62
252
70
128
10
0.000000
20
0.000000
30
0.000000
71
12
72
42
73
11
0
VERTEX
8
0
6
CONTINUOUS
62
252
70
128
10
0.000000
20
0.000000
30
0.000000
71
11
72
42
73
16
0
VERTEX
8
0
6
CONTINUOUS
62
252
70
128
10
0.000000
20
0.000000
30
0.000000
71
11
72
16
73
13
0
VERTEX
8
0
6
CONTINUOUS
62
252
70
128
10
0.000000
20
0.000000
30
0.000000
71
7
72
8
73
42
0
VERTEX
8
0
6
CONTINUOUS
62
252
70
128
10
0.000000
20
0.000000
30
0.000000
71
41
72
10
73
13
0
VERTEX
8
0
6
CONTINUOUS
62
252
70
128
10
0.000000
20
0.000000
30
0.000000
71
13
72
10
73
11
0
VERTEX
8
0
6
CONTINUOUS
62
252
70
128
10
0.000000
20
0.000000
30
0.000000
71
13
72
14
73
41
0
VERTEX
8
0
6
CONTINUOUS
62
252
70
128
10
0.000000
20
0.000000
30
0.000000
71
41
72
14
73
17
0
VERTEX
8
0
6
CONTINUOUS
62
252
70
128
10
0.000000
20
0.000000
30
0.000000
71
41
72
17
73
18
0
VERTEX
8
0
6
CONTINUOUS
62
252
70
128
10
0.000000
20
0.000000
30
0.000000
71
14
72
15
73
17
0
VERTEX
8
0
6
CONTINUOUS
62
252
70
128
10
0.000000
20
0.000000
30
0.000000
71
17
72
15
73
20
0
VERTEX
8
0
6
CONTINUOUS
62
252
70
128
10
0.000000
20
0.000000
30
0.000000
71
20
72
15
73
42
0
VERTEX
8
0
6
CONTINUOUS
62
252
70
128
10
0.000000
20
0.000000
30
0.000000
71
20
72
42
73
19
0
VERTEX
8
0
6
CONTINUOUS
62
252
70
128
10
0.000000
20
0.000000
30
0.000000
71
19
72
42
73
24
0
VERTEX
8
0
6
CONTINUOUS
62
252
70
128
10
0.000000
20
0.000000
30
0.000000
71
19
72
24
73
21
0
VERTEX
8
0
6
CONTINUOUS
62
252
70
128
10
0.000000
20
0.000000
30
0.000000
71
15
72
16
73
42
0
VERTEX
8
0
6
CONTINUOUS
62
252
70
128
10
0.000000
20
0.000000
30
0.000000
71
19
72
21
73
18
0
VERTEX
8
0
6
CONTINUOUS
62
252
70
128
10
0.000000
20
0.000000
30
0.000000
71
18
72
21
73
44
0
VERTEX
8
0
6
CONTINUOUS
62
252
70
128
10
0.000000
20
0.000000
30
0.000000
71
18
72
44
73
41
0
VERTEX
8
0
6
CONTINUOUS
62
252
70
128
10
0.000000
20
0.000000
30
0.000000
71
21
72
22
73
44
0
VERTEX
8
0
6
CONTINUOUS
62
252
70
128
10
0.000000
20
0.000000
30
0.000000
71
44
72
22
73
25
0
VERTEX
8
0
6
CONTINUOUS
62
252
70
128
10
0.000000
20
0.000000
30
0.000000
71
44
72
25
73
26
0
VERTEX
8
0
6
CONTINUOUS
62
252
70
128
10
0.000000
20
0.000000
30
0.000000
71
22
72
23
73
25
0
VERTEX
8
0
6
CONTINUOUS
62
252
70
128
10
0.000000
20
0.000000
30
0.000000
71
25
72
23
73
28
0
VERTEX
8
0
6
CONTINUOUS
62
252
70
128
10
0.000000
20
0.000000
30
0.000000
71
28
72
23
73
43
0
VERTEX
8
0
6
CONTINUOUS
62
252
70
128
10
0.000000
20
0.000000
30
0.000000
71
28
72
43
73
27
0
VERTEX
8
0
6
CONTINUOUS
62
252
70
128
10
0.000000
20
0.000000
30
0.000000
71
27
72
43
73
32
0
VERTEX
8
0
6
CONTINUOUS
62
252
70
128
10
0.000000
20
0.000000
30
0.000000
71
27
72
32
73
29
0
VERTEX
8
0
6
CONTINUOUS
62
252
70
128
10
0.000000
20
0.000000
30
0.000000
71
23
72
24
73
43
0
VERTEX
8
0
6
CONTINUOUS
62
252
70
128
10
0.000000
20
0.000000
30
0.000000
71
43
72
24
73
42
0
VERTEX
8
0
6
CONTINUOUS
62
252
70
128
10
0.000000
20
0.000000
30
0.000000
71
44
72
26
73
29
0
VERTEX
8
0
6
CONTINUOUS
62
252
70
128
10
0.000000
20
0.000000
30
0.000000
71
29
72
26
73
27
0
VERTEX
8
0
6
CONTINUOUS
62
252
70
128
10
0.000000
20
0.000000
30
0.000000
71
29
72
30
73
44
0
VERTEX
8
0
6
CONTINUOUS
62
252
70
128
10
0.000000
20
0.000000
30
0.000000
71
44
72
30
73
33
0
VERTEX
8
0
6
CONTINUOUS
62
252
70
128
10
0.000000
20
0.000000
30
0.000000
71
44
72
33
73
34
0
VERTEX
8
0
6
CONTINUOUS
62
252
70
128
10
0.000000
20
0.000000
30
0.000000
71
30
72
31
73
33
0
VERTEX
8
0
6
CONTINUOUS
62
252
70
128
10
0.000000
20
0.000000
30
0.000000
71
33
72
31
73
36
0
VERTEX
8
0
6
CONTINUOUS
62
252
70
128
10
0.000000
20
0.000000
30
0.000000
71
36
72
31
73
43
0
VERTEX
8
0
6
CONTINUOUS
62
252
70
128
10
0.000000
20
0.000000
30
0.000000
71
36
72
43
73
35
0
VERTEX
8
0
6
CONTINUOUS
62
252
70
128
10
0.000000
20
0.000000
30
0.000000
71
35
72
43
73
40
0
VERTEX
8
0
6
CONTINUOUS
62
252
70
128
10
0.000000
20
0.000000
30
0.000000
71
35
72
40
73
37
0
VERTEX
8
0
6
CONTINUOUS
62
252
70
128
10
0.000000
20
0.000000
30
0.000000
71
31
72
32
73
43
0
VERTEX
8
0
6
CONTINUOUS
62
252
70
128
10
0.000000
20
0.000000
30
0.000000
71
44
72
34
73
37
0
VERTEX
8
0
6
CONTINUOUS
62
252
70
128
10
0.000000
20
0.000000
30
0.000000
71
37
72
34
73
35
0
VERTEX
8
0
6
CONTINUOUS
62
252
70
128
10
0.000000
20
0.000000
30
0.000000
71
37
72
38
73
44
0
VERTEX
8
0
6
CONTINUOUS
62
252
70
128
10
0.000000
20
0.000000
30
0.000000
71
44
72
38
73
43
0
VERTEX
8
0
6
CONTINUOUS
62
252
70
128
10
0.000000
20
0.000000
30
0.000000
71
43
72
38
73
39
0
VERTEX
8
0
6
CONTINUOUS
62
252
70
128
10
0.000000
20
0.000000
30
0.000000
71
43
72
39
73
40
0
SEQEND
0
POLYLINE
66
1
8
0
6
CONTINUOUS
62
252
70
64
75
0
10
0.000000
20
0.000000
30
0.000000
0
VERTEX
8
0
6
CONTINUOUS
62
252
70
192
10
70.800000
20
-5.600000
30
2.100000
0
VERTEX
8
0
6
CONTINUOUS
62
252
70
192
10
70.800000
20
-5.600000
30
5.600000
0
VERTEX
8
0
6
CONTINUOUS
62
252
70
192
10
70.800000
20
-0.600000
30
5.600000
0
VERTEX
8
0
6
CONTINUOUS
62
252
70
192
10
70.800000
20
-0.600000
30
2.100000
0
VERTEX
8
0
6
CONTINUOUS
62
252
70
128
10
0.000000
20
0.000000
30
0.000000
71
1
72
2
73
4
0
VERTEX
8
0
6
CONTINUOUS
62
252
70
128
10
0.000000
20
0.000000
30
0.000000
71
4
72
2
73
3
0
SEQEND
0
POLYLINE
66
1
8
0
6
CONTINUOUS
62
252
70
64
75
0
10
0.000000
20
0.000000
30
0.000000
0
VERTEX
8
0
6
CONTINUOUS
62
252
70
192
10
67.750000
20
-5.600000
30
6.100000
0
VERTEX
8
0
6
CONTINUOUS
62
252
70
192
10
67.750000
20
-5.600000
30
5.600000
0
VERTEX
8
0
6
CONTINUOUS
62
252
70
192
10
70.800000
20
-5.600000
30
5.600000
0
VERTEX
8
0
6
CONTINUOUS
62
252
70
192
10
70.800000
20
-5.600000
30
2.100000
0
VERTEX
8
0
6
CONTINUOUS
62
252
70
192
10
50.200000
20
-5.600000
30
2.100000
0
VERTEX
8
0
6
CONTINUOUS
62
252
70
192
10
50.200000
20
-5.600000
30
5.600000
0
VERTEX
8
0
6
CONTINUOUS
62
252
70
192
10
53.250000
20
-5.600000
30
5.600000
0
VERTEX
8
0
6
CONTINUOUS
62
252
70
192
10
53.250000
20
-5.600000
30
6.100000
0
VERTEX
8
0
6
CONTINUOUS
62
252
70
192
10
49.700000
20
-5.600000
30
6.100000
0
VERTEX
8
0
6
CONTINUOUS
62
252
70
192
10
49.700000
20
-5.600000
30
1.600000
0
VERTEX
8
0
6
CONTINUOUS
62
252
70
192
10
71.300000
20
-5.600000
30
1.600000
0
VERTEX
8
0
6
CONTINUOUS
62
252
70
192
10
71.300000
20
-5.600000
30
6.100000
0
VERTEX
8
0
6
CONTINUOUS
62
252
70
128
10
0.000000
20
0.000000
30
0.000000
71
2
72
3
73
1
0
VERTEX
8
0
6
CONTINUOUS
62
252
70
128
10
0.000000
20
0.000000
30
0.000000
71
1
72
3
73
12
0
VERTEX
8
0
6
CONTINUOUS
62
252
70
128
10
0.000000
20
0.000000
30
0.000000
71
12
72
3
73
4
0
VERTEX
8
0
6
CONTINUOUS
62
252
70
128
10
0.000000
20
0.000000
30
0.000000
71
12
72
4
73
11
0
VERTEX
8
0
6
CONTINUOUS
62
252
70
128
10
0.000000
20
0.000000
30
0.000000
71
11
72
4
73
5
0
VERTEX
8
0
6
CONTINUOUS
62
252
70
128
10
0.000000
20
0.000000
30
0.000000
71
11
72
5
73
10
0
VERTEX
8
0
6
CONTINUOUS
62
252
70
128
10
0.000000
20
0.000000
30
0.000000
71
10
72
5
73
6
0
VERTEX
8
0
6
CONTINUOUS
62
252
70
128
10
0.000000
20
0.000000
30
0.000000
71
10
72
6
73
9
0
VERTEX
8
0
6
CONTINUOUS
62
252
70
128
10
0.000000
20
0.000000
30
0.000000
71
9
72
6
73
8
0
VERTEX
8
0
6
CONTINUOUS
62
252
70
128
10
0.000000
20
0.000000
30
0.000000
71
8
72
6
73
7
0
SEQEND
0
POLYLINE
66
1
8
0
6
CONTINUOUS
62
252
70
64
75
0
10
0.000000
20
0.000000
30
0.000000
0
VERTEX
8
0
6
CONTINUOUS
62
252
70
192
10
49.700000
20
1.600000
30
6.100000
0
VERTEX
8
0
6
CONTINUOUS
62
252
70
192
10
49.700000
20
1.600000
30
1.600000
0
VERTEX
8
0
6
CONTINUOUS
62
252
70
192
10
49.700000
20
-3.500000
30
1.600000
0
VERTEX
8
0
6
CONTINUOUS
62
252
70
192
10
49.700000
20
-5.600000
30
1.600000
0
VERTEX
8
0
6
CONTINUOUS
62
252
70
192
10
49.700000
20
-5.600000
30
6.100000
0
VERTEX
8
0
6
CONTINUOUS
62
252
70
128
10
0.000000
20
0.000000
30
0.000000
71
2
72
3
73
1
0
VERTEX
8
0
6
CONTINUOUS
62
252
70
128
10
0.000000
20
0.000000
30
0.000000
71
1
72
3
73
5
0
VERTEX
8
0
6
CONTINUOUS
62
252
70
128
10
0.000000
20
0.000000
30
0.000000
71
5
72
3
73
4
0
SEQEND
0
POLYLINE
66
1
8
0
6
CONTINUOUS
62
252
70
64
75
0
10
0.000000
20
0.000000
30
0.000000
0
VERTEX
8
0
6
CONTINUOUS
62
252
70
192
10
71.300000
20
1.600000
30
6.100000
0
VERTEX
8
0
6
CONTINUOUS
62
252
70
192
10
71.300000
20
1.600000
30
1.600000
0
VERTEX
8
0
6
CONTINUOUS
62
252
70
192
10
49.700000
20
1.600000
30
1.600000
0
VERTEX
8
0
6
CONTINUOUS
62
252
70
192
10
49.700000
20
1.600000
30
6.100000
0
VERTEX
8
0
6
CONTINUOUS
62
252
70
128
10
0.000000
20
0.000000
30
0.000000
71
1
72
2
73
4
0
VERTEX
8
0
6
CONTINUOUS
62
252
70
128
10
0.000000
20
0.000000
30
0.000000
71
4
72
2
73
3
0
SEQEND
0
POLYLINE
66
1
8
0
6
CONTINUOUS
62
252
70
64
75
0
10
0.000000
20
0.000000
30
0.000000
0
VERTEX
8
0
6
CONTINUOUS
62
252
70
192
10
71.300000
20
-5.600000
30
6.100000
0
VERTEX
8
0
6
CONTINUOUS
62
252
70
192
10
71.300000
20
-5.600000
30
1.600000
0
VERTEX
8
0
6
CONTINUOUS
62
252
70
192
10
71.300000
20
-3.500000
30
1.600000
0
VERTEX
8
0
6
CONTINUOUS
62
252
70
192
10
71.300000
20
1.600000
30
1.600000
0
VERTEX
8
0
6
CONTINUOUS
62
252
70
192
10
71.300000
20
1.600000
30
6.100000
0
VERTEX
8
0
6
CONTINUOUS
62
252
70
128
10
0.000000
20
0.000000
30
0.000000
71
2
72
3
73
1
0
VERTEX
8
0
6
CONTINUOUS
62
252
70
128
10
0.000000
20
0.000000
30
0.000000
71
1
72
3
73
5
0
VERTEX
8
0
6
CONTINUOUS
62
252
70
128
10
0.000000
20
0.000000
30
0.000000
71
5
72
3
73
4
0
SEQEND
0
POLYLINE
66
1
8
0
6
CONTINUOUS
62
252
70
64
75
0
10
0.000000
20
0.000000
30
0.000000
0
VERTEX
8
0
6
CONTINUOUS
62
252
70
192
10
92.700000
20
-1.900000
30
1.600000
0
VERTEX
8
0
6
CONTINUOUS
62
252
70
192
10
77.300000
20
-1.900000
30
1.600000
0
VERTEX
8
0
6
CONTINUOUS
62
252
70
192
10
77.300000
20
4.300000
30
1.600000
0
VERTEX
8
0
6
CONTINUOUS
62
252
70
192
10
92.700000
20
4.300000
30
1.600000
0
VERTEX
8
0
6
CONTINUOUS
62
252
70
192
10
5.000000
20
2.300000
30
1.600000
0
VERTEX
8
0
6
CONTINUOUS
62
252
70
192
10
28.000000
20
2.300000
30
1.600000
0
VERTEX
8
0
6
CONTINUOUS
62
252
70
192
10
28.000000
20
-0.200000
30
1.600000
0
VERTEX
8
0
6
CONTINUOUS
62
252
70
192
10
5.000000
20
-0.200000
30
1.600000
0
VERTEX
8
0
6
CONTINUOUS
62
252
70
192
10
49.700000
20
-3.500000
30
1.600000
0
VERTEX
8
0
6
CONTINUOUS
62
252
70
192
10
49.700000
20
1.600000
30
1.600000
0
VERTEX
8
0
6
CONTINUOUS
62
252
70
192
10
71.300000
20
1.600000
30
1.600000
0
VERTEX
8
0
6
CONTINUOUS
62
252
70
192
10
71.300000
20
-3.500000
30
1.600000
0
VERTEX
8
0
6
CONTINUOUS
62
252
70
192
10
101.500000
20
-3.500000
30
1.600000
0
VERTEX
8
0
6
CONTINUOUS
62
252
70
192
10
101.500000
20
61.500000
30
1.600000
0
VERTEX
8
0
6
CONTINUOUS
62
252
70
192
10
-3.500000
20
61.500000
30
1.600000
0
VERTEX
8
0
6
CONTINUOUS
62
252
70
192
10
-3.500000
20
-3.500000
30
1.600000
0
VERTEX
8
0
6
CONTINUOUS
62
252
70
192
10
98.000000
20
1.750000
30
1.600000
0
VERTEX
8
0
6
CONTINUOUS
62
252
70
192
10
98.303884
20
1.723414
30
1.600000
0
VERTEX
8
0
6
CONTINUOUS
62
252
70
192
10
98.598535
20
1.644462
30
1.600000
0
VERTEX
8
0
6
CONTINUOUS
62
252
70
192
10
98.875000
20
1.515544
30
1.600000
0
VERTEX
8
0
6
CONTINUOUS
62
252
70
192
10
99.124878
20
1.340578
30
1.600000
0
VERTEX
8
0
6
CONTINUOUS
62
252
70
192
10
99.340578
20
1.124878
30
1.600000
0
VERTEX
8
0
6
CONTINUOUS
62
252
70
192
10
99.515544
20
0.875000
30
1.600000
0
VERTEX
8
0
6
CONTINUOUS
62
252
70
192
10
99.644462
20
0.598535
30
1.600000
0
VERTEX
8
0
6
CONTINUOUS
62
252
70
192
10
99.723414
20
0.303884
30
1.600000
0
VERTEX
8
0
6
CONTINUOUS
62
252
70
192
10
99.750000
20
-0.000000
30
1.600000
0
VERTEX
8
0
6
CONTINUOUS
62
252
70
192
10
99.723414
20
-0.303884
30
1.600000
0
VERTEX
8
0
6
CONTINUOUS
62
252
70
192
10
99.644462
20
-0.598535
30
1.600000
0
VERTEX
8
0
6
CONTINUOUS
62
252
70
192
10
99.515544
20
-0.875000
30
1.600000
0
VERTEX
8
0
6
CONTINUOUS
62
252
70
192
10
99.340578
20
-1.124878
30
1.600000
0
VERTEX
8
0
6
CONTINUOUS
62
252
70
192
10
99.124878
20
-1.340578
30
1.600000
0
VERTEX
8
0
6
CONTINUOUS
62
252
70
192
10
98.875000
20
-1.515544
30
1.600000
0
VERTEX
8
0
6
CONTINUOUS
62
252
70
192
10
98.598535
20
-1.644462
30
1.600000
0
VERTEX
8
0
6
CONTINUOUS
62
252
70
192
10
98.303884
20
-1.723414
30
1.600000
0
VERTEX
8
0
6
CONTINUOUS
62
252
70
192
10
98.000000
20
-1.750000
30
1.600000
0
VERTEX
8
0
6
CONTINUOUS
62
252
70
192
10
97.696116
20
-1.723414
30
1.600000
0
VERTEX
8
0
6
CONTINUOUS
62
252
70
192
10
97.401465
20
-1.644462
30
1.600000
0
VERTEX
8
0
6
CONTINUOUS
62
252
70
192
10
97.125000
20
-1.515544
30
1.600000
0
VERTEX
8
0
6
CONTINUOUS
62
252
70
192
10
96.875122
20
-1.340578
30
1.600000
0
VERTEX
8
0
6
CONTINUOUS
62
252
70
192
10
96.659422
20
-1.124878
30
1.600000
0
VERTEX
8
0
6
CONTINUOUS
62
252
70
192
10
96.484456
20
-0.875000
30
1.600000
0
VERTEX
8
0
6
CONTINUOUS
62
252
70
192
10
96.355538
20
-0.598535
30
1.600000
0
VERTEX
8
0
6
CONTINUOUS
62
252
70
192
10
96.276586
20
-0.303884
30
1.600000
0
VERTEX
8
0
6
CONTINUOUS
62
252
70
192
10
96.250000
20
-0.000000
30
1.600000
0
VERTEX
8
0
6
CONTINUOUS
62
252
70
192
10
96.276586
20
0.303884
30
1.600000
0
VERTEX
8
0
6
CONTINUOUS
62
252
70
192
10
96.355538
20
0.598535
30
1.600000
0
VERTEX
8
0
6
CONTINUOUS
62
252
70
192
10
96.484456
20
0.875000
30
1.600000
0
VERTEX
8
0
6
CONTINUOUS
62
252
70
192
10
96.659422
20
1.124878
30
1.600000
0
VERTEX
8
0
6
CONTINUOUS
62
252
70
192
10
96.875122
20
1.340578
30
1.600000
0
VERTEX
8
0
6
CONTINUOUS
62
252
70
192
10
97.125000
20
1.515544
30
1.600000
0
VERTEX
8
0
6
CONTINUOUS
62
252
70
192
10
97.401465
20
1.644462
30
1.600000
0
VERTEX
8
0
6
CONTINUOUS
62
252
70
192
10
97.696116
20
1.723414
30
1.600000
0
VERTEX
8
0
6
CONTINUOUS
62
252
70
192
10
-0.000000
20
1.750000
30
1.600000
0
VERTEX
8
0
6
CONTINUOUS
62
252
70
192
10
0.303884
20
1.723414
30
1.600000
0
VERTEX
8
0
6
CONTINUOUS
62
252
70
192
10
0.598535
20
1.644462
30
1.600000
0
VERTEX
8
0
6
CONTINUOUS
62
252
70
192
10
0.875000
20
1.515544
30
1.600000
0
VERTEX
8
0
6
CONTINUOUS
62
252
70
192
10
1.124878
20
1.340578
30
1.600000
0
VERTEX
8
0
6
CONTINUOUS
62
252
70
192
10
1.340578
20
1.124878
30
1.600000
0
VERTEX
8
0
6
CONTINUOUS
62
252
70
192
10
1.515544
20
0.875000
30
1.600000
0
VERTEX
8
0
6
CONTINUOUS
62
252
70
192
10
1.644462
20
0.598535
30
1.600000
0
VERTEX
8
0
6
CONTINUOUS
62
252
70
192
10
1.723414
20
0.303884
30
1.600000
0
VERTEX
8
0
6
CONTINUOUS
62
252
70
192
10
1.750000
20
-0.000000
30
1.600000
0
VERTEX
8
0
6
CONTINUOUS
62
252
70
192
10
1.723414
20
-0.303884
30
1.600000
0
VERTEX
8
0
6
CONTINUOUS
62
252
70
192
10
1.644462
20
-0.598535
30
1.600000
0
VERTEX
8
0
6
CONTINUOUS
62
252
70
192
10
1.515544
20
-0.875000
30
1.600000
0
VERTEX
8
0
6
CONTINUOUS
62
252
70
192
10
1.340578
20
-1.124878
30
1.600000
0
VERTEX
8
0
6
CONTINUOUS
62
252
70
192
10
1.124878
20
-1.340578
30
1.600000
0
VERTEX
8
0
6
CONTINUOUS
62
252
70
192
10
0.875000
20
-1.515544
30
1.600000
0
VERTEX
8
0
6
CONTINUOUS
62
252
70
192
10
0.598535
20
-1.644462
30
1.600000
0
VERTEX
8
0
6
CONTINUOUS
62
252
70
192
10
0.303884
20
-1.723414
30
1.600000
0
VERTEX
8
0
6
CONTINUOUS
62
252
70
192
10
0.000000
20
-1.750000
30
1.600000
0
VERTEX
8
0
6
CONTINUOUS
62
252
70
192
10
-0.303884
20
-1.723414
30
1.600000
0
VERTEX
8
0
6
CONTINUOUS
62
252
70
192
10
-0.598535
20
-1.644462
30
1.600000
0
VERTEX
8
0
6
CONTINUOUS
62
252
70
192
10
-0.875000
20
-1.515544
30
1.600000
0
VERTEX
8
0
6
CONTINUOUS
62
252
70
192
10
-1.124878
20
-1.340578
30
1.600000
0
VERTEX
8
0
6
CONTINUOUS
62
252
70
192
10
-1.340578
20
-1.124878
30
1.600000
0
VERTEX
8
0
6
CONTINUOUS
62
252
70
192
10
-1.515544
20
-0.875000
30
1.600000
0
VERTEX
8
0
6
CONTINUOUS
62
252
70
192
10
-1.644462
20
-0.598535
30
1.600000
0
VERTEX
8
0
6
CONTINUOUS
62
252
70
192
10
-1.723414
20
-0.303884
30
1.600000
0
VERTEX
8
0
6
CONTINUOUS
62
252
70
192
10
-1.750000
20
-0.000000
30
1.600000
0
VERTEX
8
0
6
CONTINUOUS
62
252
70
192
10
-1.723414
20
0.303884
30
1.600000
0
VERTEX
8
0
6
CONTINUOUS
62
252
70
192
10
-1.644462
20
0.598535
30
1.600000
0
VERTEX
8
0
6
CONTINUOUS
62
252
70
192
10
-1.515544
20
0.875000
30
1.600000
0
VERTEX
8
0
6
CONTINUOUS
62
252
70
192
10
-1.340578
20
1.124878
30
1.600000
0
VERTEX
8
0
6
CONTINUOUS
62
252
70
192
10
-1.124878
20
1.340578
30
1.600000
0
VERTEX
8
0
6
CONTINUOUS
62
252
70
192
10
-0.875000
20
1.515544
30
1.600000
0
VERTEX
8
0
6
CONTINUOUS
62
252
70
192
10
-0.598535
20
1.644462
30
1.600000
0
VERTEX
8
0
6
CONTINUOUS
62
252
70
192
10
-0.303884
20
1.723414
30
1.600000
0
VERTEX
8
0
6
CONTINUOUS
62
252
70
192
10
98.000000
20
59.750000
30
1.600000
0
VERTEX
8
0
6
CONTINUOUS
62
252
70
192
10
98.303884
20
59.723414
30
1.600000
0
VERTEX
8
0
6
CONTINUOUS
62
252
70
192
10
98.598535
20
59.644462
30
1.600000
0
VERTEX
8
0
6
CONTINUOUS
62
252
70
192
10
98.875000
20
59.515544
30
1.600000
0
VERTEX
8
0
6
CONTINUOUS
62
252
70
192
10
99.124878
20
59.340578
30
1.600000
0
VERTEX
8
0
6
CONTINUOUS
62
252
70
192
10
99.340578
20
59.124878
30
1.600000
0
VERTEX
8
0
6
CONTINUOUS
62
252
70
192
10
99.515544
20
58.875000
30
1.600000
0
VERTEX
8
0
6
CONTINUOUS
62
252
70
192
10
99.644462
20
58.598535
30
1.600000
0
VERTEX
8
0
6
CONTINUOUS
62
252
70
192
10
99.723414
20
58.303884
30
1.600000
0
VERTEX
8
0
6
CONTINUOUS
62
252
70
192
10
99.750000
20
58.000000
30
1.600000
0
VERTEX
8
0
6
CONTINUOUS
62
252
70
192
10
99.723414
20
57.696116
30
1.600000
0
VERTEX
8
0
6
CONTINUOUS
62
252
70
192
10
99.644462
20
57.401465
30
1.600000
0
VERTEX
8
0
6
CONTINUOUS
62
252
70
192
10
99.515544
20
57.125000
30
1.600000
0
VERTEX
8
0
6
CONTINUOUS
62
252
70
192
10
99.340578
20
56.875122
30
1.600000
0
VERTEX
8
0
6
CONTINUOUS
62
252
70
192
10
99.124878
20
56.659422
30
1.600000
0
VERTEX
8
0
6
CONTINUOUS
62
252
70
192
10
98.875000
20
56.484456
30
1.600000
0
VERTEX
8
0
6
CONTINUOUS
62
252
70
192
10
98.598535
20
56.355538
30
1.600000
0
VERTEX
8
0
6
CONTINUOUS
62
252
70
192
10
98.303884
20
56.276586
30
1.600000
0
VERTEX
8
0
6
CONTINUOUS
62
252
70
192
10
98.000000
20
56.250000
30
1.600000
0
VERTEX
8
0
6
CONTINUOUS
62
252
70
192
10
97.696116
20
56.276586
30
1.600000
0
VERTEX
8
0
6
CONTINUOUS
62
252
70
192
10
97.401465
20
56.355538
30
1.600000
0
VERTEX
8
0
6
CONTINUOUS
62
252
70
192
10
97.125000
20
56.484456
30
1.600000
0
VERTEX
8
0
6
CONTINUOUS
62
252
70
192
10
96.875122
20
56.659422
30
1.600000
0
VERTEX
8
0
6
CONTINUOUS
62
252
70
192
10
96.659422
20
56.875122
30
1.600000
0
VERTEX
8
0
6
CONTINUOUS
62
252
70
192
10
96.484456
20
57.125000
30
1.600000
0
VERTEX
8
0
6
CONTINUOUS
62
252
70
192
10
96.355538
20
57.401465
30
1.600000
0
VERTEX
8
0
6
CONTINUOUS
62
252
70
192
10
96.276586
20
57.696116
30
1.600000
0
VERTEX
8
0
6
CONTINUOUS
62
252
70
192
10
96.250000
20
58.000000
30
1.600000
0
VERTEX
8
0
6
CONTINUOUS
62
252
70
192
10
96.276586
20
58.303884
30
1.600000
0
VERTEX
8
0
6
CONTINUOUS
62
252
70
192
10
96.355538
20
58.598535
30
1.600000
0
VERTEX
8
0
6
CONTINUOUS
62
252
70
192
10
96.484456
20
58.875000
30
1.600000
0
VERTEX
8
0
6
CONTINUOUS
62
252
70
192
10
96.659422
20
59.124878
30
1.600000
0
VERTEX
8
0
6
CONTINUOUS
62
252
70
192
10
96.875122
20
59.340578
30
1.600000
0
VERTEX
8
0
6
CONTINUOUS
62
252
70
192
10
97.125000
20
59.515544
30
1.600000
0
VERTEX
8
0
6
CONTINUOUS
62
252
70
192
10
97.401465
20
59.644462
30
1.600000
0
VERTEX
8
0
6
CONTINUOUS
62
252
70
192
10
97.696116
20
59.723414
30
1.600000
0
VERTEX
8
0
6
CONTINUOUS
62
252
70
192
10
-0.000000
20
59.750000
30
1.600000
0
VERTEX
8
0
6
CONTINUOUS
62
252
70
192
10
0.303884
20
59.723414
30
1.600000
0
VERTEX
8
0
6
CONTINUOUS
62
252
70
192
10
0.598535
20
59.644462
30
1.600000
0
VERTEX
8
0
6
CONTINUOUS
62
252
70
192
10
0.875000
20
59.515544
30
1.600000
0
VERTEX
8
0
6
CONTINUOUS
62
252
70
192
10
1.124878
20
59.340578
30
1.600000
0
VERTEX
8
0
6
CONTINUOUS
62
252
70
192
10
1.340578
20
59.124878
30
1.600000
0
VERTEX
8
0
6
CONTINUOUS
62
252
70
192
10
1.515544
20
58.875000
30
1.600000
0
VERTEX
8
0
6
CONTINUOUS
62
252
70
192
10
1.644462
20
58.598535
30
1.600000
0
VERTEX
8
0
6
CONTINUOUS
62
252
70
192
10
1.723414
20
58.303884
30
1.600000
0
VERTEX
8
0
6
CONTINUOUS
62
252
70
192
10
1.750000
20
58.000000
30
1.600000
0
VERTEX
8
0
6
CONTINUOUS
62
252
70
192
10
1.723414
20
57.696116
30
1.600000
0
VERTEX
8
0
6
CONTINUOUS
62
252
70
192
10
1.644462
20
57.401465
30
1.600000
0
VERTEX
8
0
6
CONTINUOUS
62
252
70
192
10
1.515544
20
57.125000
30
1.600000
0
VERTEX
8
0
6
CONTINUOUS
62
252
70
192
10
1.340578
20
56.875122
30
1.600000
0
VERTEX
8
0
6
CONTINUOUS
62
252
70
192
10
1.124878
20
56.659422
30
1.600000
0
VERTEX
8
0
6
CONTINUOUS
62
252
70
192
10
0.875000
20
56.484456
30
1.600000
0
VERTEX
8
0
6
CONTINUOUS
62
252
70
192
10
0.598535
20
56.355538
30
1.600000
0
VERTEX
8
0
6
CONTINUOUS
62
252
70
192
10
0.303884
20
56.276586
30
1.600000
0
VERTEX
8
0
6
CONTINUOUS
62
252
70
192
10
-0.000000
20
56.250000
30
1.600000
0
VERTEX
8
0
6
CONTINUOUS
62
252
70
192
10
-0.303884
20
56.276586
30
1.600000
0
VERTEX
8
0
6
CONTINUOUS
62
252
70
192
10
-0.598535
20
56.355538
30
1.600000
0
VERTEX
8
0
6
CONTINUOUS
62
252
70
192
10
-0.875000
20
56.484456
30
1.600000
0
VERTEX
8
0
6
CONTINUOUS
62
252
70
192
10
-1.124878
20
56.659422
30
1.600000
0
VERTEX
8
0
6
CONTINUOUS
62
252
70
192
10
-1.340578
20
56.875122
30
1.600000
0
VERTEX
8
0
6
CONTINUOUS
62
252
70
192
10
-1.515544
20
57.125000
30
1.600000
0
VERTEX
8
0
6
CONTINUOUS
62
252
70
192
10
-1.644462
20
57.401465
30
1.600000
0
VERTEX
8
0
6
CONTINUOUS
62
252
70
192
10
-1.723414
20
57.696116
30
1.600000
0
VERTEX
8
0
6
CONTINUOUS
62
252
70
192
10
-1.750000
20
58.000000
30
1.600000
0
VERTEX
8
0
6
CONTINUOUS
62
252
70
192
10
-1.723414
20
58.303884
30
1.600000
0
VERTEX
8
0
6
CONTINUOUS
62
252
70
192
10
-1.644462
20
58.598535
30
1.600000
0
VERTEX
8
0
6
CONTINUOUS
62
252
70
192
10
-1.515544
20
58.875000
30
1.600000
0
VERTEX
8
0
6
CONTINUOUS
62
252
70
192
10
-1.340578
20
59.124878
30
1.600000
0
VERTEX
8
0
6
CONTINUOUS
62
252
70
192
10
-1.124878
20
59.340578
30
1.600000
0
VERTEX
8
0
6
CONTINUOUS
62
252
70
192
10
-0.875000
20
59.515544
30
1.600000
0
VERTEX
8
0
6
CONTINUOUS
62
252
70
192
10
-0.598535
20
59.644462
30
1.600000
0
VERTEX
8
0
6
CONTINUOUS
62
252
70
192
10
-0.303884
20
59.723414
30
1.600000
0
VERTEX
8
0
6
CONTINUOUS
62
252
70
192
10
38.400000
20
2.250000
30
1.600000
0
VERTEX
8
0
6
CONTINUOUS
62
252
70
192
10
38.703884
20
2.223414
30
1.600000
0
VERTEX
8
0
6
CONTINUOUS
62
252
70
192
10
38.998535
20
2.144462
30
1.600000
0
VERTEX
8
0
6
CONTINUOUS
62
252
70
192
10
39.275000
20
2.015544
30
1.600000
0
VERTEX
8
0
6
CONTINUOUS
62
252
70
192
10
39.524878
20
1.840578
30
1.600000
0
VERTEX
8
0
6
CONTINUOUS
62
252
70
192
10
39.740578
20
1.624878
30
1.600000
0
VERTEX
8
0
6
CONTINUOUS
62
252
70
192
10
39.915544
20
1.375000
30
1.600000
0
VERTEX
8
0
6
CONTINUOUS
62
252
70
192
10
40.044462
20
1.098535
30
1.600000
0
VERTEX
8
0
6
CONTINUOUS
62
252
70
192
10
40.123414
20
0.803884
30
1.600000
0
VERTEX
8
0
6
CONTINUOUS
62
252
70
192
10
40.150000
20
0.500000
30
1.600000
0
VERTEX
8
0
6
CONTINUOUS
62
252
70
192
10
40.123414
20
0.196116
30
1.600000
0
VERTEX
8
0
6
CONTINUOUS
62
252
70
192
10
40.044462
20
-0.098535
30
1.600000
0
VERTEX
8
0
6
CONTINUOUS
62
252
70
192
10
39.915544
20
-0.375000
30
1.600000
0
VERTEX
8
0
6
CONTINUOUS
62
252
70
192
10
39.740578
20
-0.624878
30
1.600000
0
VERTEX
8
0
6
CONTINUOUS
62
252
70
192
10
39.524878
20
-0.840578
30
1.600000
0
VERTEX
8
0
6
CONTINUOUS
62
252
70
192
10
39.275000
20
-1.015544
30
1.600000
0
VERTEX
8
0
6
CONTINUOUS
62
252
70
192
10
38.998535
20
-1.144462
30
1.600000
0
VERTEX
8
0
6
CONTINUOUS
62
252
70
192
10
38.703884
20
-1.223414
30
1.600000
0
VERTEX
8
0
6
CONTINUOUS
62
252
70
192
10
38.400000
20
-1.250000
30
1.600000
0
VERTEX
8
0
6
CONTINUOUS
62
252
70
192
10
38.096116
20
-1.223414
30
1.600000
0
VERTEX
8
0
6
CONTINUOUS
62
252
70
192
10
37.801465
20
-1.144462
30
1.600000
0
VERTEX
8
0
6
CONTINUOUS
62
252
70
192
10
37.525000
20
-1.015544
30
1.600000
0
VERTEX
8
0
6
CONTINUOUS
62
252
70
192
10
37.275122
20
-0.840578
30
1.600000
0
VERTEX
8
0
6
CONTINUOUS
62
252
70
192
10
37.059422
20
-0.624878
30
1.600000
0
VERTEX
8
0
6
CONTINUOUS
62
252
70
192
10
36.884456
20
-0.375000
30
1.600000
0
VERTEX
8
0
6
CONTINUOUS
62
252
70
192
10
36.755538
20
-0.098535
30
1.600000
0
VERTEX
8
0
6
CONTINUOUS
62
252
70
192
10
36.676586
20
0.196116
30
1.600000
0
VERTEX
8
0
6
CONTINUOUS
62
252
70
192
10
36.650000
20
0.500000
30
1.600000
0
VERTEX
8
0
6
CONTINUOUS
62
252
70
192
10
36.676586
20
0.803884
30
1.600000
0
VERTEX
8
0
6
CONTINUOUS
62
252
70
192
10
36.755538
20
1.098535
30
1.600000
0
VERTEX
8
0
6
CONTINUOUS
62
252
70
192
10
36.884456
20
1.375000
30
1.600000
0
VERTEX
8
0
6
CONTINUOUS
62
252
70
192
10
37.059422
20
1.624878
30
1.600000
0
VERTEX
8
0
6
CONTINUOUS
62
252
70
192
10
37.275122
20
1.840578
30
1.600000
0
VERTEX
8
0
6
CONTINUOUS
62
252
70
192
10
37.525000
20
2.015544
30
1.600000
0
VERTEX
8
0
6
CONTINUOUS
62
252
70
192
10
37.801465
20
2.144462
30
1.600000
0
VERTEX
8
0
6
CONTINUOUS
62
252
70
192
10
38.096116
20
2.223414
30
1.600000
0
VERTEX
8
0
6
CONTINUOUS
62
252
70
128
10
0.000000
20
0.000000
30
0.000000
71
2
72
12
73
1
0
VERTEX
8
0
6
CONTINUOUS
62
252
70
128
10
0.000000
20
0.000000
30
0.000000
71
1
72
12
73
13
0
VERTEX
8
0
6
CONTINUOUS
62
252
70
128
10
0.000000
20
0.000000
30
0.000000
71
1
72
13
73
36
0
VERTEX
8
0
6
CONTINUOUS
62
252
70
128
10
0.000000
20
0.000000
30
0.000000
71
36
72
13
73
35
0
VERTEX
8
0
6
CONTINUOUS
62
252
70
128
10
0.000000
20
0.000000
30
0.000000
71
35
72
13
73
34
0
VERTEX
8
0
6
CONTINUOUS
62
252
70
128
10
0.000000
20
0.000000
30
0.000000
71
34
72
13
73
33
0
VERTEX
8
0
6
CONTINUOUS
62
252
70
128
10
0.000000
20
0.000000
30
0.000000
71
33
72
13
73
32
0
VERTEX
8
0
6
CONTINUOUS
62
252
70
128
10
0.000000
20
0.000000
30
0.000000
71
32
72
13
73
31
0
VERTEX
8
0
6
CONTINUOUS
62
252
70
128
10
0.000000
20
0.000000
30
0.000000
71
31
72
13
73
30
0
VERTEX
8
0
6
CONTINUOUS
62
252
70
128
10
0.000000
20
0.000000
30
0.000000
71
30
72
13
73
29
0
VERTEX
8
0
6
CONTINUOUS
62
252
70
128
10
0.000000
20
0.000000
30
0.000000
71
29
72
13
73
28
0
VERTEX
8
0
6
CONTINUOUS
62
252
70
128
10
0.000000
20
0.000000
30
0.000000
71
28
72
13
73
27
0
VERTEX
8
0
6
CONTINUOUS
62
252
70
128
10
0.000000
20
0.000000
30
0.000000
71
27
72
13
73
26
0
VERTEX
8
0
6
CONTINUOUS
62
252
70
128
10
0.000000
20
0.000000
30
0.000000
71
26
72
13
73
25
0
VERTEX
8
0
6
CONTINUOUS
62
252
70
128
10
0.000000
20
0.000000
30
0.000000
71
25
72
13
73
24
0
VERTEX
8
0
6
CONTINUOUS
62
252
70
128
10
0.000000
20
0.000000
30
0.000000
71
24
72
13
73
14
0
VERTEX
8
0
6
CONTINUOUS
62
252
70
128
10
0.000000
20
0.000000
30
0.000000
71
24
72
14
73
100
0
VERTEX
8
0
6
CONTINUOUS
62
252
70
128
10
0.000000
20
0.000000
30
0.000000
71
100
72
14
73
99
0
VERTEX
8
0
6
CONTINUOUS
62
252
70
128
10
0.000000
20
0.000000
30
0.000000
71
99
72
14
73
98
0
VERTEX
8
0
6
CONTINUOUS
62
252
70
128
10
0.000000
20
0.000000
30
0.000000
71
98
72
14
73
97
0
VERTEX
8
0
6
CONTINUOUS
62
252
70
128
10
0.000000
20
0.000000
30
0.000000
71
97
72
14
73
96
0
VERTEX
8
0
6
CONTINUOUS
62
252
70
128
10
0.000000
20
0.000000
30
0.000000
71
96
72
14
73
95
0
VERTEX
8
0
6
CONTINUOUS
62
252
70
128
10
0.000000
20
0.000000
30
0.000000
71
95
72
14
73
94
0
VERTEX
8
0
6
CONTINUOUS
62
252
70
128
10
0.000000
20
0.000000
30
0.000000
71
94
72
14
73
93
0
VERTEX
8
0
6
CONTINUOUS
62
252
70
128
10
0.000000
20
0.000000
30
0.000000
71
93
72
14
73
92
0
VERTEX
8
0
6
CONTINUOUS
62
252
70
128
10
0.000000
20
0.000000
30
0.000000
71
92
72
14
73
91
0
VERTEX
8
0
6
CONTINUOUS
62
252
70
128
10
0.000000
20
0.000000
30
0.000000
71
91
72
14
73
90
0
VERTEX
8
0
6
CONTINUOUS
62
252
70
128
10
0.000000
20
0.000000
30
0.000000
71
90
72
14
73
89
0
VERTEX
8
0
6
CONTINUOUS
62
252
70
128
10
0.000000
20
0.000000
30
0.000000
71
89
72
14
73
124
0
VERTEX
8
0
6
CONTINUOUS
62
252
70
128
10
0.000000
20
0.000000
30
0.000000
71
124
72
14
73
123
0
VERTEX
8
0
6
CONTINUOUS
62
252
70
128
10
0.000000
20
0.000000
30
0.000000
71
123
72
14
73
15
0
VERTEX
8
0
6
CONTINUOUS
62
252
70
128
10
0.000000
20
0.000000
30
0.000000
71
123
72
15
73
127
0
VERTEX
8
0
6
CONTINUOUS
62
252
70
128
10
0.000000
20
0.000000
30
0.000000
71
127
72
15
73
126
0
VERTEX
8
0
6
CONTINUOUS
62
252
70
128
10
0.000000
20
0.000000
30
0.000000
71
126
72
15
73
125
0
VERTEX
8
0
6
CONTINUOUS
62
252
70
128
10
0.000000
20
0.000000
30
0.000000
71
125
72
15
73
160
0
VERTEX
8
0
6
CONTINUOUS
62
252
70
128
10
0.000000
20
0.000000
30
0.000000
71
160
72
15
73
159
0
VERTEX
8
0
6
CONTINUOUS
62
252
70
128
10
0.000000
20
0.000000
30
0.000000
71
159
72
15
73
158
0
VERTEX
8
0
6
CONTINUOUS
62
252
70
128
10
0.000000
20
0.000000
30
0.000000
71
158
72
15
73
157
0
VERTEX
8
0
6
CONTINUOUS
62
252
70
128
10
0.000000
20
0.000000
30
0.000000
71
157
72
15
73
156
0
VERTEX
8
0
6
CONTINUOUS
62
252
70
128
10
0.000000
20
0.000000
30
0.000000
71
156
72
15
73
155
0
VERTEX
8
0
6
CONTINUOUS
62
252
70
128
10
0.000000
20
0.000000
30
0.000000
71
155
72
15
73
154
0
VERTEX
8
0
6
CONTINUOUS
62
252
70
128
10
0.000000
20
0.000000
30
0.000000
71
154
72
15
73
153
0
VERTEX
8
0
6
CONTINUOUS
62
252
70
128
10
0.000000
20
0.000000
30
0.000000
71
153
72
15
73
152
0
VERTEX
8
0
6
CONTINUOUS
62
252
70
128
10
0.000000
20
0.000000
30
0.000000
71
152
72
15
73
151
0
VERTEX
8
0
6
CONTINUOUS
62
252
70
128
10
0.000000
20
0.000000
30
0.000000
71
151
72
15
73
150
0
VERTEX
8
0
6
CONTINUOUS
62
252
70
128
10
0.000000
20
0.000000
30
0.000000
71
150
72
15
73
16
0
VERTEX
8
0
6
CONTINUOUS
62
252
70
128
10
0.000000
20
0.000000
30
0.000000
71
150
72
16
73
82
0
VERTEX
8
0
6
CONTINUOUS
62
252
70
128
10
0.000000
20
0.000000
30
0.000000
71
82
72
16
73
81
0
VERTEX
8
0
6
CONTINUOUS
62
252
70
128
10
0.000000
20
0.000000
30
0.000000
71
81
72
16
73
80
0
VERTEX
8
0
6
CONTINUOUS
62
252
70
128
10
0.000000
20
0.000000
30
0.000000
71
80
72
16
73
79
0
VERTEX
8
0
6
CONTINUOUS
62
252
70
128
10
0.000000
20
0.000000
30
0.000000
71
79
72
16
73
78
0
VERTEX
8
0
6
CONTINUOUS
62
252
70
128
10
0.000000
20
0.000000
30
0.000000
71
78
72
16
73
77
0
VERTEX
8
0
6
CONTINUOUS
62
252
70
128
10
0.000000
20
0.000000
30
0.000000
71
77
72
16
73
76
0
VERTEX
8
0
6
CONTINUOUS
62
252
70
128
10
0.000000
20
0.000000
30
0.000000
71
76
72
16
73
75
0
VERTEX
8
0
6
CONTINUOUS
62
252
70
128
10
0.000000
20
0.000000
30
0.000000
71
75
72
16
73
74
0
VERTEX
8
0
6
CONTINUOUS
62
252
70
128
10
0.000000
20
0.000000
30
0.000000
71
74
72
16
73
73
0
VERTEX
8
0
6
CONTINUOUS
62
252
70
128
10
0.000000
20
0.000000
30
0.000000
71
73
72
16
73
72
0
VERTEX
8
0
6
CONTINUOUS
62
252
70
128
10
0.000000
20
0.000000
30
0.000000
71
72
72
16
73
71
0
VERTEX
8
0
6
CONTINUOUS
62
252
70
128
10
0.000000
20
0.000000
30
0.000000
71
71
72
16
73
70
0
VERTEX
8
0
6
CONTINUOUS
62
252
70
128
10
0.000000
20
0.000000
30
0.000000
71
70
72
16
73
69
0
VERTEX
8
0
6
CONTINUOUS
62
252
70
128
10
0.000000
20
0.000000
30
0.000000
71
69
72
16
73
7
0
VERTEX
8
0
6
CONTINUOUS
62
252
70
128
10
0.000000
20
0.000000
30
0.000000
71
69
72
7
73
8
0
VERTEX
8
0
6
CONTINUOUS
62
252
70
128
10
0.000000
20
0.000000
30
0.000000
71
12
72
2
73
11
0
VERTEX
8
0
6
CONTINUOUS
62
252
70
128
10
0.000000
20
0.000000
30
0.000000
71
11
72
2
73
3
0
VERTEX
8
0
6
CONTINUOUS
62
252
70
128
10
0.000000
20
0.000000
30
0.000000
71
11
72
3
73
10
0
VERTEX
8
0
6
CONTINUOUS
62
252
70
128
10
0.000000
20
0.000000
30
0.000000
71
10
72
3
73
111
0
VERTEX
8
0
6
CONTINUOUS
62
252
70
128
10
0.000000
20
0.000000
30
0.000000
71
10
72
111
73
162
0
VERTEX
8
0
6
CONTINUOUS
62
252
70
128
10
0.000000
20
0.000000
30
0.000000
71
162
72
111
73
139
0
VERTEX
8
0
6
CONTINUOUS
62
252
70
128
10
0.000000
20
0.000000
30
0.000000
71
162
72
139
73
161
0
VERTEX
8
0
6
CONTINUOUS
62
252
70
128
10
0.000000
20
0.000000
30
0.000000
71
161
72
139
73
140
0
VERTEX
8
0
6
CONTINUOUS
62
252
70
128
10
0.000000
20
0.000000
30
0.000000
71
161
72
140
73
6
0
VERTEX
8
0
6
CONTINUOUS
62
252
70
128
10
0.000000
20
0.000000
30
0.000000
71
6
72
140
73
141
0
VERTEX
8
0
6
CONTINUOUS
62
252
70
128
10
0.000000
20
0.000000
30
0.000000
71
6
72
141
73
142
0
VERTEX
8
0
6
CONTINUOUS
62
252
70
128
10
0.000000
20
0.000000
30
0.000000
71
4
72
108
73
3
0
VERTEX
8
0
6
CONTINUOUS
62
252
70
128
10
0.000000
20
0.000000
30
0.000000
71
3
72
108
73
109
0
VERTEX
8
0
6
CONTINUOUS
62
252
70
128
10
0.000000
20
0.000000
30
0.000000
71
3
72
109
73
110
0
VERTEX
8
0
6
CONTINUOUS
62
252
70
128
10
0.000000
20
0.000000
30
0.000000
71
1
72
46
73
4
0
VERTEX
8
0
6
CONTINUOUS
62
252
70
128
10
0.000000
20
0.000000
30
0.000000
71
4
72
46
73
47
0
VERTEX
8
0
6
CONTINUOUS
62
252
70
128
10
0.000000
20
0.000000
30
0.000000
71
4
72
47
73
48
0
VERTEX
8
0
6
CONTINUOUS
62
252
70
128
10
0.000000
20
0.000000
30
0.000000
71
6
72
142
73
5
0
VERTEX
8
0
6
CONTINUOUS
62
252
70
128
10
0.000000
20
0.000000
30
0.000000
71
5
72
142
73
143
0
VERTEX
8
0
6
CONTINUOUS
62
252
70
128
10
0.000000
20
0.000000
30
0.000000
71
5
72
143
73
53
0
VERTEX
8
0
6
CONTINUOUS
62
252
70
128
10
0.000000
20
0.000000
30
0.000000
71
53
72
143
73
88
0
VERTEX
8
0
6
CONTINUOUS
62
252
70
128
10
0.000000
20
0.000000
30
0.000000
71
88
72
143
73
144
0
VERTEX
8
0
6
CONTINUOUS
62
252
70
128
10
0.000000
20
0.000000
30
0.000000
71
88
72
144
73
87
0
VERTEX
8
0
6
CONTINUOUS
62
252
70
128
10
0.000000
20
0.000000
30
0.000000
71
87
72
144
73
145
0
VERTEX
8
0
6
CONTINUOUS
62
252
70
128
10
0.000000
20
0.000000
30
0.000000
71
87
72
145
73
86
0
VERTEX
8
0
6
CONTINUOUS
62
252
70
128
10
0.000000
20
0.000000
30
0.000000
71
86
72
145
73
146
0
VERTEX
8
0
6
CONTINUOUS
62
252
70
128
10
0.000000
20
0.000000
30
0.000000
71
86
72
146
73
85
0
VERTEX
8
0
6
CONTINUOUS
62
252
70
128
10
0.000000
20
0.000000
30
0.000000
71
85
72
146
73
147
0
VERTEX
8
0
6
CONTINUOUS
62
252
70
128
10
0.000000
20
0.000000
30
0.000000
71
85
72
147
73
148
0
VERTEX
8
0
6
CONTINUOUS
62
252
70
128
10
0.000000
20
0.000000
30
0.000000
71
7
72
189
73
6
0
VERTEX
8
0
6
CONTINUOUS
62
252
70
128
10
0.000000
20
0.000000
30
0.000000
71
6
72
189
73
190
0
VERTEX
8
0
6
CONTINUOUS
62
252
70
128
10
0.000000
20
0.000000
30
0.000000
71
6
72
190
73
191
0
VERTEX
8
0
6
CONTINUOUS
62
252
70
128
10
0.000000
20
0.000000
30
0.000000
71
5
72
60
73
8
0
VERTEX
8
0
6
CONTINUOUS
62
252
70
128
10
0.000000
20
0.000000
30
0.000000
71
8
72
60
73
61
0
VERTEX
8
0
6
CONTINUOUS
62
252
70
128
10
0.000000
20
0.000000
30
0.000000
71
8
72
61
73
62
0
VERTEX
8
0
6
CONTINUOUS
62
252
70
128
10
0.000000
20
0.000000
30
0.000000
71
10
72
172
73
9
0
VERTEX
8
0
6
CONTINUOUS
62
252
70
128
10
0.000000
20
0.000000
30
0.000000
71
9
72
172
73
173
0
VERTEX
8
0
6
CONTINUOUS
62
252
70
128
10
0.000000
20
0.000000
30
0.000000
71
9
72
173
73
174
0
VERTEX
8
0
6
CONTINUOUS
62
252
70
128
10
0.000000
20
0.000000
30
0.000000
71
7
72
16
73
180
0
VERTEX
8
0
6
CONTINUOUS
62
252
70
128
10
0.000000
20
0.000000
30
0.000000
71
180
72
16
73
9
0
VERTEX
8
0
6
CONTINUOUS
62
252
70
128
10
0.000000
20
0.000000
30
0.000000
71
180
72
9
73
179
0
VERTEX
8
0
6
CONTINUOUS
62
252
70
128
10
0.000000
20
0.000000
30
0.000000
71
179
72
9
73
178
0
VERTEX
8
0
6
CONTINUOUS
62
252
70
128
10
0.000000
20
0.000000
30
0.000000
71
178
72
9
73
177
0
VERTEX
8
0
6
CONTINUOUS
62
252
70
128
10
0.000000
20
0.000000
30
0.000000
71
177
72
9
73
176
0
VERTEX
8
0
6
CONTINUOUS
62
252
70
128
10
0.000000
20
0.000000
30
0.000000
71
176
72
9
73
175
0
VERTEX
8
0
6
CONTINUOUS
62
252
70
128
10
0.000000
20
0.000000
30
0.000000
71
175
72
9
73
174
0
VERTEX
8
0
6
CONTINUOUS
62
252
70
128
10
0.000000
20
0.000000
30
0.000000
71
52
72
17
73
4
0
VERTEX
8
0
6
CONTINUOUS
62
252
70
128
10
0.000000
20
0.000000
30
0.000000
71
4
72
17
73
18
0
VERTEX
8
0
6
CONTINUOUS
62
252
70
128
10
0.000000
20
0.000000
30
0.000000
71
4
72
18
73
19
0
VERTEX
8
0
6
CONTINUOUS
62
252
70
128
10
0.000000
20
0.000000
30
0.000000
71
4
72
19
73
105
0
VERTEX
8
0
6
CONTINUOUS
62
252
70
128
10
0.000000
20
0.000000
30
0.000000
71
105
72
19
73
20
0
VERTEX
8
0
6
CONTINUOUS
62
252
70
128
10
0.000000
20
0.000000
30
0.000000
71
105
72
20
73
104
0
VERTEX
8
0
6
CONTINUOUS
62
252
70
128
10
0.000000
20
0.000000
30
0.000000
71
104
72
20
73
103
0
VERTEX
8
0
6
CONTINUOUS
62
252
70
128
10
0.000000
20
0.000000
30
0.000000
71
103
72
20
73
21
0
VERTEX
8
0
6
CONTINUOUS
62
252
70
128
10
0.000000
20
0.000000
30
0.000000
71
103
72
21
73
102
0
VERTEX
8
0
6
CONTINUOUS
62
252
70
128
10
0.000000
20
0.000000
30
0.000000
71
102
72
21
73
22
0
VERTEX
8
0
6
CONTINUOUS
62
252
70
128
10
0.000000
20
0.000000
30
0.000000
71
102
72
22
73
23
0
VERTEX
8
0
6
CONTINUOUS
62
252
70
128
10
0.000000
20
0.000000
30
0.000000
71
24
72
100
73
23
0
VERTEX
8
0
6
CONTINUOUS
62
252
70
128
10
0.000000
20
0.000000
30
0.000000
71
23
72
100
73
101
0
VERTEX
8
0
6
CONTINUOUS
62
252
70
128
10
0.000000
20
0.000000
30
0.000000
71
23
72
101
73
102
0
VERTEX
8
0
6
CONTINUOUS
62
252
70
128
10
0.000000
20
0.000000
30
0.000000
71
36
72
37
73
1
0
VERTEX
8
0
6
CONTINUOUS
62
252
70
128
10
0.000000
20
0.000000
30
0.000000
71
1
72
37
73
38
0
VERTEX
8
0
6
CONTINUOUS
62
252
70
128
10
0.000000
20
0.000000
30
0.000000
71
1
72
38
73
39
0
VERTEX
8
0
6
CONTINUOUS
62
252
70
128
10
0.000000
20
0.000000
30
0.000000
71
39
72
40
73
1
0
VERTEX
8
0
6
CONTINUOUS
62
252
70
128
10
0.000000
20
0.000000
30
0.000000
71
1
72
40
73
41
0
VERTEX
8
0
6
CONTINUOUS
62
252
70
128
10
0.000000
20
0.000000
30
0.000000
71
1
72
41
73
42
0
VERTEX
8
0
6
CONTINUOUS
62
252
70
128
10
0.000000
20
0.000000
30
0.000000
71
42
72
43
73
1
0
VERTEX
8
0
6
CONTINUOUS
62
252
70
128
10
0.000000
20
0.000000
30
0.000000
71
1
72
43
73
44
0
VERTEX
8
0
6
CONTINUOUS
62
252
70
128
10
0.000000
20
0.000000
30
0.000000
71
1
72
44
73
45
0
VERTEX
8
0
6
CONTINUOUS
62
252
70
128
10
0.000000
20
0.000000
30
0.000000
71
45
72
46
73
1
0
VERTEX
8
0
6
CONTINUOUS
62
252
70
128
10
0.000000
20
0.000000
30
0.000000
71
48
72
49
73
4
0
VERTEX
8
0
6
CONTINUOUS
62
252
70
128
10
0.000000
20
0.000000
30
0.000000
71
4
72
49
73
50
0
VERTEX
8
0
6
CONTINUOUS
62
252
70
128
10
0.000000
20
0.000000
30
0.000000
71
4
72
50
73
51
0
VERTEX
8
0
6
CONTINUOUS
62
252
70
128
10
0.000000
20
0.000000
30
0.000000
71
51
72
52
73
4
0
VERTEX
8
0
6
CONTINUOUS
62
252
70
128
10
0.000000
20
0.000000
30
0.000000
71
53
72
54
73
5
0
VERTEX
8
0
6
CONTINUOUS
62
252
70
128
10
0.000000
20
0.000000
30
0.000000
71
5
72
54
73
55
0
VERTEX
8
0
6
CONTINUOUS
62
252
70
128
10
0.000000
20
0.000000
30
0.000000
71
5
72
55
73
56
0
VERTEX
8
0
6
CONTINUOUS
62
252
70
128
10
0.000000
20
0.000000
30
0.000000
71
56
72
57
73
5
0
VERTEX
8
0
6
CONTINUOUS
62
252
70
128
10
0.000000
20
0.000000
30
0.000000
71
5
72
57
73
58
0
VERTEX
8
0
6
CONTINUOUS
62
252
70
128
10
0.000000
20
0.000000
30
0.000000
71
5
72
58
73
59
0
VERTEX
8
0
6
CONTINUOUS
62
252
70
128
10
0.000000
20
0.000000
30
0.000000
71
59
72
60
73
5
0
VERTEX
8
0
6
CONTINUOUS
62
252
70
128
10
0.000000
20
0.000000
30
0.000000
71
62
72
63
73
8
0
VERTEX
8
0
6
CONTINUOUS
62
252
70
128
10
0.000000
20
0.000000
30
0.000000
71
8
72
63
73
64
0
VERTEX
8
0
6
CONTINUOUS
62
252
70
128
10
0.000000
20
0.000000
30
0.000000
71
8
72
64
73
65
0
VERTEX
8
0
6
CONTINUOUS
62
252
70
128
10
0.000000
20
0.000000
30
0.000000
71
65
72
66
73
8
0
VERTEX
8
0
6
CONTINUOUS
62
252
70
128
10
0.000000
20
0.000000
30
0.000000
71
8
72
66
73
67
0
VERTEX
8
0
6
CONTINUOUS
62
252
70
128
10
0.000000
20
0.000000
30
0.000000
71
8
72
67
73
68
0
VERTEX
8
0
6
CONTINUOUS
62
252
70
128
10
0.000000
20
0.000000
30
0.000000
71
68
72
69
73
8
0
VERTEX
8
0
6
CONTINUOUS
62
252
70
128
10
0.000000
20
0.000000
30
0.000000
71
82
72
83
73
150
0
VERTEX
8
0
6
CONTINUOUS
62
252
70
128
10
0.000000
20
0.000000
30
0.000000
71
150
72
83
73
149
0
VERTEX
8
0
6
CONTINUOUS
62
252
70
128
10
0.000000
20
0.000000
30
0.000000
71
149
72
83
73
148
0
VERTEX
8
0
6
CONTINUOUS
62
252
70
128
10
0.000000
20
0.000000
30
0.000000
71
148
72
83
73
84
0
VERTEX
8
0
6
CONTINUOUS
62
252
70
128
10
0.000000
20
0.000000
30
0.000000
71
148
72
84
73
85
0
VERTEX
8
0
6
CONTINUOUS
62
252
70
128
10
0.000000
20
0.000000
30
0.000000
71
105
72
106
73
4
0
VERTEX
8
0
6
CONTINUOUS
62
252
70
128
10
0.000000
20
0.000000
30
0.000000
71
4
72
106
73
107
0
VERTEX
8
0
6
CONTINUOUS
62
252
70
128
10
0.000000
20
0.000000
30
0.000000
71
4
72
107
73
108
0
VERTEX
8
0
6
CONTINUOUS
62
252
70
128
10
0.000000
20
0.000000
30
0.000000
71
110
72
111
73
3
0
VERTEX
8
0
6
CONTINUOUS
62
252
70
128
10
0.000000
20
0.000000
30
0.000000
71
139
72
111
73
138
0
VERTEX
8
0
6
CONTINUOUS
62
252
70
128
10
0.000000
20
0.000000
30
0.000000
71
138
72
111
73
112
0
VERTEX
8
0
6
CONTINUOUS
62
252
70
128
10
0.000000
20
0.000000
30
0.000000
71
138
72
112
73
137
0
VERTEX
8
0
6
CONTINUOUS
62
252
70
128
10
0.000000
20
0.000000
30
0.000000
71
137
72
112
73
113
0
VERTEX
8
0
6
CONTINUOUS
62
252
70
128
10
0.000000
20
0.000000
30
0.000000
71
137
72
113
73
136
0
VERTEX
8
0
6
CONTINUOUS
62
252
70
128
10
0.000000
20
0.000000
30
0.000000
71
136
72
113
73
114
0
VERTEX
8
0
6
CONTINUOUS
62
252
70
128
10
0.000000
20
0.000000
30
0.000000
71
136
72
114
73
135
0
VERTEX
8
0
6
CONTINUOUS
62
252
70
128
10
0.000000
20
0.000000
30
0.000000
71
135
72
114
73
115
0
VERTEX
8
0
6
CONTINUOUS
62
252
70
128
10
0.000000
20
0.000000
30
0.000000
71
135
72
115
73
134
0
VERTEX
8
0
6
CONTINUOUS
62
252
70
128
10
0.000000
20
0.000000
30
0.000000
71
134
72
115
73
116
0
VERTEX
8
0
6
CONTINUOUS
62
252
70
128
10
0.000000
20
0.000000
30
0.000000
71
134
72
116
73
133
0
VERTEX
8
0
6
CONTINUOUS
62
252
70
128
10
0.000000
20
0.000000
30
0.000000
71
133
72
116
73
117
0
VERTEX
8
0
6
CONTINUOUS
62
252
70
128
10
0.000000
20
0.000000
30
0.000000
71
133
72
117
73
132
0
VERTEX
8
0
6
CONTINUOUS
62
252
70
128
10
0.000000
20
0.000000
30
0.000000
71
132
72
117
73
118
0
VERTEX
8
0
6
CONTINUOUS
62
252
70
128
10
0.000000
20
0.000000
30
0.000000
71
132
72
118
73
131
0
VERTEX
8
0
6
CONTINUOUS
62
252
70
128
10
0.000000
20
0.000000
30
0.000000
71
131
72
118
73
119
0
VERTEX
8
0
6
CONTINUOUS
62
252
70
128
10
0.000000
20
0.000000
30
0.000000
71
131
72
119
73
130
0
VERTEX
8
0
6
CONTINUOUS
62
252
70
128
10
0.000000
20
0.000000
30
0.000000
71
130
72
119
73
120
0
VERTEX
8
0
6
CONTINUOUS
62
252
70
128
10
0.000000
20
0.000000
30
0.000000
71
130
72
120
73
129
0
VERTEX
8
0
6
CONTINUOUS
62
252
70
128
10
0.000000
20
0.000000
30
0.000000
71
129
72
120
73
121
0
VERTEX
8
0
6
CONTINUOUS
62
252
70
128
10
0.000000
20
0.000000
30
0.000000
71
129
72
121
73
128
0
VERTEX
8
0
6
CONTINUOUS
62
252
70
128
10
0.000000
20
0.000000
30
0.000000
71
128
72
121
73
122
0
VERTEX
8
0
6
CONTINUOUS
62
252
70
128
10
0.000000
20
0.000000
30
0.000000
71
128
72
122
73
127
0
VERTEX
8
0
6
CONTINUOUS
62
252
70
128
10
0.000000
20
0.000000
30
0.000000
71
127
72
122
73
123
0
VERTEX
8
0
6
CONTINUOUS
62
252
70
128
10
0.000000
20
0.000000
30
0.000000
71
162
72
163
73
10
0
VERTEX
8
0
6
CONTINUOUS
62
252
70
128
10
0.000000
20
0.000000
30
0.000000
71
10
72
163
73
164
0
VERTEX
8
0
6
CONTINUOUS
62
252
70
128
10
0.000000
20
0.000000
30
0.000000
71
10
72
164
73
165
0
VERTEX
8
0
6
CONTINUOUS
62
252
70
128
10
0.000000
20
0.000000
30
0.000000
71
165
72
166
73
10
0
VERTEX
8
0
6
CONTINUOUS
62
252
70
128
10
0.000000
20
0.000000
30
0.000000
71
10
72
166
73
167
0
VERTEX
8
0
6
CONTINUOUS
62
252
70
128
10
0.000000
20
0.000000
30
0.000000
71
10
72
167
73
168
0
VERTEX
8
0
6
CONTINUOUS
62
252
70
128
10
0.000000
20
0.000000
30
0.000000
71
168
72
169
73
10
0
VERTEX
8
0
6
CONTINUOUS
62
252
70
128
10
0.000000
20
0.000000
30
0.000000
71
10
72
169
73
170
0
VERTEX
8
0
6
CONTINUOUS
62
252
70
128
10
0.000000
20
0.000000
30
0.000000
71
10
72
170
73
171
0
VERTEX
8
0
6
CONTINUOUS
62
252
70
128
10
0.000000
20
0.000000
30
0.000000
71
171
72
172
73
10
0
VERTEX
8
0
6
CONTINUOUS
62
252
70
128
10
0.000000
20
0.000000
30
0.000000
71
180
72
181
73
7
0
VERTEX
8
0
6
CONTINUOUS
62
252
70
128
10
0.000000
20
0.000000
30
0.000000
71
7
72
181
73
182
0
VERTEX
8
0
6
CONTINUOUS
62
252
70
128
10
0.000000
20
0.000000
30
0.000000
71
7
72
182
73
183
0
VERTEX
8
0
6
CONTINUOUS
62
252
70
128
10
0.000000
20
0.000000
30
0.000000
71
183
72
184
73
7
0
VERTEX
8
0
6
CONTINUOUS
62
252
70
128
10
0.000000
20
0.000000
30
0.000000
71
7
72
184
73
185
0
VERTEX
8
0
6
CONTINUOUS
62
252
70
128
10
0.000000
20
0.000000
30
0.000000
71
7
72
185
73
186
0
VERTEX
8
0
6
CONTINUOUS
62
252
70
128
10
0.000000
20
0.000000
30
0.000000
71
186
72
187
73
7
0
VERTEX
8
0
6
CONTINUOUS
62
252
70
128
10
0.000000
20
0.000000
30
0.000000
71
7
72
187
73
188
0
VERTEX
8
0
6
CONTINUOUS
62
252
70
128
10
0.000000
20
0.000000
30
0.000000
71
7
72
188
73
189
0
VERTEX
8
0
6
CONTINUOUS
62
252
70
128
10
0.000000
20
0.000000
30
0.000000
71
191
72
192
73
6
0
VERTEX
8
0
6
CONTINUOUS
62
252
70
128
10
0.000000
20
0.000000
30
0.000000
71
6
72
192
73
193
0
VERTEX
8
0
6
CONTINUOUS
62
252
70
128
10
0.000000
20
0.000000
30
0.000000
71
6
72
193
73
194
0
VERTEX
8
0
6
CONTINUOUS
62
252
70
128
10
0.000000
20
0.000000
30
0.000000
71
194
72
195
73
6
0
VERTEX
8
0
6
CONTINUOUS
62
252
70
128
10
0.000000
20
0.000000
30
0.000000
71
6
72
195
73
196
0
VERTEX
8
0
6
CONTINUOUS
62
252
70
128
10
0.000000
20
0.000000
30
0.000000
71
6
72
196
73
161
0
SEQEND
0
POLYLINE
66
1
8
0
6
CONTINUOUS
62
252
70
64
75
0
10
0.000000
20
0.000000
30
0.000000
0
VERTEX
8
0
6
CONTINUOUS
62
252
70
192
10
38.400000
20
2.250000
30
-0.000000
0
VERTEX
8
0
6
CONTINUOUS
62
252
70
192
10
38.703884
20
2.223414
30
-0.000000
0
VERTEX
8
0
6
CONTINUOUS
62
252
70
192
10
38.998535
20
2.144462
30
-0.000000
0
VERTEX
8
0
6
CONTINUOUS
62
252
70
192
10
39.275000
20
2.015544
30
-0.000000
0
VERTEX
8
0
6
CONTINUOUS
62
252
70
192
10
39.524878
20
1.840578
30
-0.000000
0
VERTEX
8
0
6
CONTINUOUS
62
252
70
192
10
39.740578
20
1.624878
30
-0.000000
0
VERTEX
8
0
6
CONTINUOUS
62
252
70
192
10
39.915544
20
1.375000
30
-0.000000
0
VERTEX
8
0
6
CONTINUOUS
62
252
70
192
10
40.044462
20
1.098535
30
-0.000000
0
VERTEX
8
0
6
CONTINUOUS
62
252
70
192
10
40.123414
20
0.803884
30
-0.000000
0
VERTEX
8
0
6
CONTINUOUS
62
252
70
192
10
40.150000
20
0.500000
30
-0.000000
0
VERTEX
8
0
6
CONTINUOUS
62
252
70
192
10
40.123414
20
0.196116
30
-0.000000
0
VERTEX
8
0
6
CONTINUOUS
62
252
70
192
10
40.044462
20
-0.098535
30
-0.000000
0
VERTEX
8
0
6
CONTINUOUS
62
252
70
192
10
39.915544
20
-0.375000
30
-0.000000
0
VERTEX
8
0
6
CONTINUOUS
62
252
70
192
10
39.740578
20
-0.624878
30
-0.000000
0
VERTEX
8
0
6
CONTINUOUS
62
252
70
192
10
39.524878
20
-0.840578
30
-0.000000
0
VERTEX
8
0
6
CONTINUOUS
62
252
70
192
10
39.275000
20
-1.015544
30
-0.000000
0
VERTEX
8
0
6
CONTINUOUS
62
252
70
192
10
38.998535
20
-1.144462
30
-0.000000
0
VERTEX
8
0
6
CONTINUOUS
62
252
70
192
10
38.703884
20
-1.223414
30
-0.000000
0
VERTEX
8
0
6
CONTINUOUS
62
252
70
192
10
38.400000
20
-1.250000
30
-0.000000
0
VERTEX
8
0
6
CONTINUOUS
62
252
70
192
10
38.096116
20
-1.223414
30
-0.000000
0
VERTEX
8
0
6
CONTINUOUS
62
252
70
192
10
37.801465
20
-1.144462
30
-0.000000
0
VERTEX
8
0
6
CONTINUOUS
62
252
70
192
10
37.525000
20
-1.015544
30
-0.000000
0
VERTEX
8
0
6
CONTINUOUS
62
252
70
192
10
37.275122
20
-0.840578
30
-0.000000
0
VERTEX
8
0
6
CONTINUOUS
62
252
70
192
10
37.059422
20
-0.624878
30
-0.000000
0
VERTEX
8
0
6
CONTINUOUS
62
252
70
192
10
36.884456
20
-0.375000
30
-0.000000
0
VERTEX
8
0
6
CONTINUOUS
62
252
70
192
10
36.755538
20
-0.098535
30
-0.000000
0
VERTEX
8
0
6
CONTINUOUS
62
252
70
192
10
36.676586
20
0.196116
30
-0.000000
0
VERTEX
8
0
6
CONTINUOUS
62
252
70
192
10
36.650000
20
0.500000
30
-0.000000
0
VERTEX
8
0
6
CONTINUOUS
62
252
70
192
10
36.676586
20
0.803884
30
-0.000000
0
VERTEX
8
0
6
CONTINUOUS
62
252
70
192
10
36.755538
20
1.098535
30
-0.000000
0
VERTEX
8
0
6
CONTINUOUS
62
252
70
192
10
36.884456
20
1.375000
30
-0.000000
0
VERTEX
8
0
6
CONTINUOUS
62
252
70
192
10
37.059422
20
1.624878
30
-0.000000
0
VERTEX
8
0
6
CONTINUOUS
62
252
70
192
10
37.275122
20
1.840578
30
-0.000000
0
VERTEX
8
0
6
CONTINUOUS
62
252
70
192
10
37.525000
20
2.015544
30
-0.000000
0
VERTEX
8
0
6
CONTINUOUS
62
252
70
192
10
37.801465
20
2.144462
30
-0.000000
0
VERTEX
8
0
6
CONTINUOUS
62
252
70
192
10
38.096116
20
2.223414
30
-0.000000
0
VERTEX
8
0
6
CONTINUOUS
62
252
70
192
10
38.400000
20
2.250000
30
1.600000
0
VERTEX
8
0
6
CONTINUOUS
62
252
70
192
10
38.096116
20
2.223414
30
1.600000
0
VERTEX
8
0
6
CONTINUOUS
62
252
70
192
10
37.801465
20
2.144462
30
1.600000
0
VERTEX
8
0
6
CONTINUOUS
62
252
70
192
10
37.525000
20
2.015544
30
1.600000
0
VERTEX
8
0
6
CONTINUOUS
62
252
70
192
10
37.275122
20
1.840578
30
1.600000
0
VERTEX
8
0
6
CONTINUOUS
62
252
70
192
10
37.059422
20
1.624878
30
1.600000
0
VERTEX
8
0
6
CONTINUOUS
62
252
70
192
10
36.884456
20
1.375000
30
1.600000
0
VERTEX
8
0
6
CONTINUOUS
62
252
70
192
10
36.755538
20
1.098535
30
1.600000
0
VERTEX
8
0
6
CONTINUOUS
62
252
70
192
10
36.676586
20
0.803884
30
1.600000
0
VERTEX
8
0
6
CONTINUOUS
62
252
70
192
10
36.650000
20
0.500000
30
1.600000
0
VERTEX
8
0
6
CONTINUOUS
62
252
70
192
10
36.676586
20
0.196116
30
1.600000
0
VERTEX
8
0
6
CONTINUOUS
62
252
70
192
10
36.755538
20
-0.098535
30
1.600000
0
VERTEX
8
0
6
CONTINUOUS
62
252
70
192
10
36.884456
20
-0.375000
30
1.600000
0
VERTEX
8
0
6
CONTINUOUS
62
252
70
192
10
37.059422
20
-0.624878
30
1.600000
0
VERTEX
8
0
6
CONTINUOUS
62
252
70
192
10
37.275122
20
-0.840578
30
1.600000
0
VERTEX
8
0
6
CONTINUOUS
62
252
70
192
10
37.525000
20
-1.015544
30
1.600000
0
VERTEX
8
0
6
CONTINUOUS
62
252
70
192
10
37.801465
20
-1.144462
30
1.600000
0
VERTEX
8
0
6
CONTINUOUS
62
252
70
192
10
38.096116
20
-1.223414
30
1.600000
0
VERTEX
8
0
6
CONTINUOUS
62
252
70
192
10
38.400000
20
-1.250000
30
1.600000
0
VERTEX
8
0
6
CONTINUOUS
62
252
70
192
10
38.703884
20
-1.223414
30
1.600000
0
VERTEX
8
0
6
CONTINUOUS
62
252
70
192
10
38.998535
20
-1.144462
30
1.600000
0
VERTEX
8
0
6
CONTINUOUS
62
252
70
192
10
39.275000
20
-1.015544
30
1.600000
0
VERTEX
8
0
6
CONTINUOUS
62
252
70
192
10
39.524878
20
-0.840578
30
1.600000
0
VERTEX
8
0
6
CONTINUOUS
62
252
70
192
10
39.740578
20
-0.624878
30
1.600000
0
VERTEX
8
0
6
CONTINUOUS
62
252
70
192
10
39.915544
20
-0.375000
30
1.600000
0
VERTEX
8
0
6
CONTINUOUS
62
252
70
192
10
40.044462
20
-0.098535
30
1.600000
0
VERTEX
8
0
6
CONTINUOUS
62
252
70
192
10
40.123414
20
0.196116
30
1.600000
0
VERTEX
8
0
6
CONTINUOUS
62
252
70
192
10
40.150000
20
0.500000
30
1.600000
0
VERTEX
8
0
6
CONTINUOUS
62
252
70
192
10
40.123414
20
0.803884
30
1.600000
0
VERTEX
8
0
6
CONTINUOUS
62
252
70
192
10
40.044462
20
1.098535
30
1.600000
0
VERTEX
8
0
6
CONTINUOUS
62
252
70
192
10
39.915544
20
1.375000
30
1.600000
0
VERTEX
8
0
6
CONTINUOUS
62
252
70
192
10
39.740578
20
1.624878
30
1.600000
0
VERTEX
8
0
6
CONTINUOUS
62
252
70
192
10
39.524878
20
1.840578
30
1.600000
0
VERTEX
8
0
6
CONTINUOUS
62
252
70
192
10
39.275000
20
2.015544
30
1.600000
0
VERTEX
8
0
6
CONTINUOUS
62
252
70
192
10
38.998535
20
2.144462
30
1.600000
0
VERTEX
8
0
6
CONTINUOUS
62
252
70
192
10
38.703884
20
2.223414
30
1.600000
0
VERTEX
8
0
6
CONTINUOUS
62
252
70
128
10
0.000000
20
0.000000
30
0.000000
71
2
72
37
73
1
0
VERTEX
8
0
6
CONTINUOUS
62
252
70
128
10
0.000000
20
0.000000
30
0.000000
71
1
72
37
73
38
0
VERTEX
8
0
6
CONTINUOUS
62
252
70
128
10
0.000000
20
0.000000
30
0.000000
71
1
72
38
73
36
0
VERTEX
8
0
6
CONTINUOUS
62
252
70
128
10
0.000000
20
0.000000
30
0.000000
71
36
72
38
73
39
0
VERTEX
8
0
6
CONTINUOUS
62
252
70
128
10
0.000000
20
0.000000
30
0.000000
71
36
72
39
73
35
0
VERTEX
8
0
6
CONTINUOUS
62
252
70
128
10
0.000000
20
0.000000
30
0.000000
71
35
72
39
73
34
0
VERTEX
8
0
6
CONTINUOUS
62
252
70
128
10
0.000000
20
0.000000
30
0.000000
71
34
72
39
73
40
0
VERTEX
8
0
6
CONTINUOUS
62
252
70
128
10
0.000000
20
0.000000
30
0.000000
71
34
72
40
73
33
0
VERTEX
8
0
6
CONTINUOUS
62
252
70
128
10
0.000000
20
0.000000
30
0.000000
71
33
72
40
73
41
0
VERTEX
8
0
6
CONTINUOUS
62
252
70
128
10
0.000000
20
0.000000
30
0.000000
71
33
72
41
73
32
0
VERTEX
8
0
6
CONTINUOUS
62
252
70
128
10
0.000000
20
0.000000
30
0.000000
71
32
72
41
73
42
0
VERTEX
8
0
6
CONTINUOUS
62
252
70
128
10
0.000000
20
0.000000
30
0.000000
71
32
72
42
73
31
0
VERTEX
8
0
6
CONTINUOUS
62
252
70
128
10
0.000000
20
0.000000
30
0.000000
71
31
72
42
73
43
0
VERTEX
8
0
6
CONTINUOUS
62
252
70
128
10
0.000000
20
0.000000
30
0.000000
71
31
72
43
73
30
0
VERTEX
8
0
6
CONTINUOUS
62
252
70
128
10
0.000000
20
0.000000
30
0.000000
71
30
72
43
73
44
0
VERTEX
8
0
6
CONTINUOUS
62
252
70
128
10
0.000000
20
0.000000
30
0.000000
71
30
72
44
73
29
0
VERTEX
8
0
6
CONTINUOUS
62
252
70
128
10
0.000000
20
0.000000
30
0.000000
71
29
72
44
73
45
0
VERTEX
8
0
6
CONTINUOUS
62
252
70
128
10
0.000000
20
0.000000
30
0.000000
71
29
72
45
73
28
0
VERTEX
8
0
6
CONTINUOUS
62
252
70
128
10
0.000000
20
0.000000
30
0.000000
71
28
72
45
73
46
0
VERTEX
8
0
6
CONTINUOUS
62
252
70
128
10
0.000000
20
0.000000
30
0.000000
71
28
72
46
73
27
0
VERTEX
8
0
6
CONTINUOUS
62
252
70
128
10
0.000000
20
0.000000
30
0.000000
71
27
72
46
73
47
0
VERTEX
8
0
6
CONTINUOUS
62
252
70
128
10
0.000000
20
0.000000
30
0.000000
71
27
72
47
73
26
0
VERTEX
8
0
6
CONTINUOUS
62
252
70
128
10
0.000000
20
0.000000
30
0.000000
71
26
72
47
73
48
0
VERTEX
8
0
6
CONTINUOUS
62
252
70
128
10
0.000000
20
0.000000
30
0.000000
71
26
72
48
73
25
0
VERTEX
8
0
6
CONTINUOUS
62
252
70
128
10
0.000000
20
0.000000
30
0.000000
71
25
72
48
73
49
0
VERTEX
8
0
6
CONTINUOUS
62
252
70
128
10
0.000000
20
0.000000
30
0.000000
71
25
72
49
73
24
0
VERTEX
8
0
6
CONTINUOUS
62
252
70
128
10
0.000000
20
0.000000
30
0.000000
71
24
72
49
73
50
0
VERTEX
8
0
6
CONTINUOUS
62
252
70
128
10
0.000000
20
0.000000
30
0.000000
71
24
72
50
73
23
0
VERTEX
8
0
6
CONTINUOUS
62
252
70
128
10
0.000000
20
0.000000
30
0.000000
71
23
72
50
73
51
0
VERTEX
8
0
6
CONTINUOUS
62
252
70
128
10
0.000000
20
0.000000
30
0.000000
71
23
72
51
73
22
0
VERTEX
8
0
6
CONTINUOUS
62
252
70
128
10
0.000000
20
0.000000
30
0.000000
71
22
72
51
73
52
0
VERTEX
8
0
6
CONTINUOUS
62
252
70
128
10
0.000000
20
0.000000
30
0.000000
71
22
72
52
73
21
0
VERTEX
8
0
6
CONTINUOUS
62
252
70
128
10
0.000000
20
0.000000
30
0.000000
71
21
72
52
73
53
0
VERTEX
8
0
6
CONTINUOUS
62
252
70
128
10
0.000000
20
0.000000
30
0.000000
71
21
72
53
73
54
0
VERTEX
8
0
6
CONTINUOUS
62
252
70
128
10
0.000000
20
0.000000
30
0.000000
71
37
72
2
73
72
0
VERTEX
8
0
6
CONTINUOUS
62
252
70
128
10
0.000000
20
0.000000
30
0.000000
71
72
72
2
73
3
0
VERTEX
8
0
6
CONTINUOUS
62
252
70
128
10
0.000000
20
0.000000
30
0.000000
71
72
72
3
73
71
0
VERTEX
8
0
6
CONTINUOUS
62
252
70
128
10
0.000000
20
0.000000
30
0.000000
71
71
72
3
73
70
0
VERTEX
8
0
6
CONTINUOUS
62
252
70
128
10
0.000000
20
0.000000
30
0.000000
71
70
72
3
73
4
0
VERTEX
8
0
6
CONTINUOUS
62
252
70
128
10
0.000000
20
0.000000
30
0.000000
71
70
72
4
73
69
0
VERTEX
8
0
6
CONTINUOUS
62
252
70
128
10
0.000000
20
0.000000
30
0.000000
71
69
72
4
73
5
0
VERTEX
8
0
6
CONTINUOUS
62
252
70
128
10
0.000000
20
0.000000
30
0.000000
71
69
72
5
73
68
0
VERTEX
8
0
6
CONTINUOUS
62
252
70
128
10
0.000000
20
0.000000
30
0.000000
71
68
72
5
73
6
0
VERTEX
8
0
6
CONTINUOUS
62
252
70
128
10
0.000000
20
0.000000
30
0.000000
71
68
72
6
73
7
0
VERTEX
8
0
6
CONTINUOUS
62
252
70
128
10
0.000000
20
0.000000
30
0.000000
71
8
72
66
73
7
0
VERTEX
8
0
6
CONTINUOUS
62
252
70
128
10
0.000000
20
0.000000
30
0.000000
71
7
72
66
73
67
0
VERTEX
8
0
6
CONTINUOUS
62
252
70
128
10
0.000000
20
0.000000
30
0.000000
71
7
72
67
73
68
0
VERTEX
8
0
6
CONTINUOUS
62
252
70
128
10
0.000000
20
0.000000
30
0.000000
71
66
72
8
73
65
0
VERTEX
8
0
6
CONTINUOUS
62
252
70
128
10
0.000000
20
0.000000
30
0.000000
71
65
72
8
73
9
0
VERTEX
8
0
6
CONTINUOUS
62
252
70
128
10
0.000000
20
0.000000
30
0.000000
71
65
72
9
73
64
0
VERTEX
8
0
6
CONTINUOUS
62
252
70
128
10
0.000000
20
0.000000
30
0.000000
71
64
72
9
73
10
0
VERTEX
8
0
6
CONTINUOUS
62
252
70
128
10
0.000000
20
0.000000
30
0.000000
71
64
72
10
73
63
0
VERTEX
8
0
6
CONTINUOUS
62
252
70
128
10
0.000000
20
0.000000
30
0.000000
71
63
72
10
73
11
0
VERTEX
8
0
6
CONTINUOUS
62
252
70
128
10
0.000000
20
0.000000
30
0.000000
71
63
72
11
73
62
0
VERTEX
8
0
6
CONTINUOUS
62
252
70
128
10
0.000000
20
0.000000
30
0.000000
71
62
72
11
73
12
0
VERTEX
8
0
6
CONTINUOUS
62
252
70
128
10
0.000000
20
0.000000
30
0.000000
71
62
72
12
73
61
0
VERTEX
8
0
6
CONTINUOUS
62
252
70
128
10
0.000000
20
0.000000
30
0.000000
71
61
72
12
73
13
0
VERTEX
8
0
6
CONTINUOUS
62
252
70
128
10
0.000000
20
0.000000
30
0.000000
71
61
72
13
73
60
0
VERTEX
8
0
6
CONTINUOUS
62
252
70
128
10
0.000000
20
0.000000
30
0.000000
71
60
72
13
73
14
0
VERTEX
8
0
6
CONTINUOUS
62
252
70
128
10
0.000000
20
0.000000
30
0.000000
71
60
72
14
73
59
0
VERTEX
8
0
6
CONTINUOUS
62
252
70
128
10
0.000000
20
0.000000
30
0.000000
71
59
72
14
73
15
0
VERTEX
8
0
6
CONTINUOUS
62
252
70
128
10
0.000000
20
0.000000
30
0.000000
71
59
72
15
73
58
0
VERTEX
8
0
6
CONTINUOUS
62
252
70
128
10
0.000000
20
0.000000
30
0.000000
71
58
72
15
73
16
0
VERTEX
8
0
6
CONTINUOUS
62
252
70
128
10
0.000000
20
0.000000
30
0.000000
71
58
72
16
73
57
0
VERTEX
8
0
6
CONTINUOUS
62
252
70
128
10
0.000000
20
0.000000
30
0.000000
71
57
72
16
73
17
0
VERTEX
8
0
6
CONTINUOUS
62
252
70
128
10
0.000000
20
0.000000
30
0.000000
71
57
72
17
73
56
0
VERTEX
8
0
6
CONTINUOUS
62
252
70
128
10
0.000000
20
0.000000
30
0.000000
71
56
72
17
73
18
0
VERTEX
8
0
6
CONTINUOUS
62
252
70
128
10
0.000000
20
0.000000
30
0.000000
71
56
72
18
73
55
0
VERTEX
8
0
6
CONTINUOUS
62
252
70
128
10
0.000000
20
0.000000
30
0.000000
71
55
72
18
73
19
0
VERTEX
8
0
6
CONTINUOUS
62
252
70
128
10
0.000000
20
0.000000
30
0.000000
71
55
72
19
73
54
0
VERTEX
8
0
6
CONTINUOUS
62
252
70
128
10
0.000000
20
0.000000
30
0.000000
71
54
72
19
73
20
0
VERTEX
8
0
6
CONTINUOUS
62
252
70
128
10
0.000000
20
0.000000
30
0.000000
71
54
72
20
73
21
0
SEQEND
0
POLYLINE
66
1
8
0
6
CONTINUOUS
62
252
70
64
75
0
10
0.000000
20
0.000000
30
0.000000
0
VERTEX
8
0
6
CONTINUOUS
62
252
70
192
10
-0.000000
20
59.750000
30
-0.000000
0
VERTEX
8
0
6
CONTINUOUS
62
252
70
192
10
0.303884
20
59.723414
30
-0.000000
0
VERTEX
8
0
6
CONTINUOUS
62
252
70
192
10
0.598535
20
59.644462
30
-0.000000
0
VERTEX
8
0
6
CONTINUOUS
62
252
70
192
10
0.875000
20
59.515544
30
-0.000000
0
VERTEX
8
0
6
CONTINUOUS
62
252
70
192
10
1.124878
20
59.340578
30
-0.000000
0
VERTEX
8
0
6
CONTINUOUS
62
252
70
192
10
1.340578
20
59.124878
30
-0.000000
0
VERTEX
8
0
6
CONTINUOUS
62
252
70
192
10
1.515544
20
58.875000
30
-0.000000
0
VERTEX
8
0
6
CONTINUOUS
62
252
70
192
10
1.644462
20
58.598535
30
-0.000000
0
VERTEX
8
0
6
CONTINUOUS
62
252
70
192
10
1.723414
20
58.303884
30
-0.000000
0
VERTEX
8
0
6
CONTINUOUS
62
252
70
192
10
1.750000
20
58.000000
30
-0.000000
0
VERTEX
8
0
6
CONTINUOUS
62
252
70
192
10
1.723414
20
57.696116
30
-0.000000
0
VERTEX
8
0
6
CONTINUOUS
62
252
70
192
10
1.644462
20
57.401465
30
-0.000000
0
VERTEX
8
0
6
CONTINUOUS
62
252
70
192
10
1.515544
20
57.125000
30
-0.000000
0
VERTEX
8
0
6
CONTINUOUS
62
252
70
192
10
1.340578
20
56.875122
30
-0.000000
0
VERTEX
8
0
6
CONTINUOUS
62
252
70
192
10
1.124878
20
56.659422
30
-0.000000
0
VERTEX
8
0
6
CONTINUOUS
62
252
70
192
10
0.875000
20
56.484456
30
-0.000000
0
VERTEX
8
0
6
CONTINUOUS
62
252
70
192
10
0.598535
20
56.355538
30
-0.000000
0
VERTEX
8
0
6
CONTINUOUS
62
252
70
192
10
0.303884
20
56.276586
30
-0.000000
0
VERTEX
8
0
6
CONTINUOUS
62
252
70
192
10
-0.000000
20
56.250000
30
-0.000000
0
VERTEX
8
0
6
CONTINUOUS
62
252
70
192
10
-0.303884
20
56.276586
30
-0.000000
0
VERTEX
8
0
6
CONTINUOUS
62
252
70
192
10
-0.598535
20
56.355538
30
-0.000000
0
VERTEX
8
0
6
CONTINUOUS
62
252
70
192
10
-0.875000
20
56.484456
30
-0.000000
0
VERTEX
8
0
6
CONTINUOUS
62
252
70
192
10
-1.124878
20
56.659422
30
-0.000000
0
VERTEX
8
0
6
CONTINUOUS
62
252
70
192
10
-1.340578
20
56.875122
30
-0.000000
0
VERTEX
8
0
6
CONTINUOUS
62
252
70
192
10
-1.515544
20
57.125000
30
-0.000000
0
VERTEX
8
0
6
CONTINUOUS
62
252
70
192
10
-1.644462
20
57.401465
30
-0.000000
0
VERTEX
8
0
6
CONTINUOUS
62
252
70
192
10
-1.723414
20
57.696116
30
-0.000000
0
VERTEX
8
0
6
CONTINUOUS
62
252
70
192
10
-1.750000
20
58.000000
30
-0.000000
0
VERTEX
8
0
6
CONTINUOUS
62
252
70
192
10
-1.723414
20
58.303884
30
-0.000000
0
VERTEX
8
0
6
CONTINUOUS
62
252
70
192
10
-1.644462
20
58.598535
30
-0.000000
0
VERTEX
8
0
6
CONTINUOUS
62
252
70
192
10
-1.515544
20
58.875000
30
-0.000000
0
VERTEX
8
0
6
CONTINUOUS
62
252
70
192
10
-1.340578
20
59.124878
30
-0.000000
0
VERTEX
8
0
6
CONTINUOUS
62
252
70
192
10
-1.124878
20
59.340578
30
-0.000000
0
VERTEX
8
0
6
CONTINUOUS
62
252
70
192
10
-0.875000
20
59.515544
30
-0.000000
0
VERTEX
8
0
6
CONTINUOUS
62
252
70
192
10
-0.598535
20
59.644462
30
-0.000000
0
VERTEX
8
0
6
CONTINUOUS
62
252
70
192
10
-0.303884
20
59.723414
30
-0.000000
0
VERTEX
8
0
6
CONTINUOUS
62
252
70
192
10
-0.000000
20
59.750000
30
1.600000
0
VERTEX
8
0
6
CONTINUOUS
62
252
70
192
10
-0.303884
20
59.723414
30
1.600000
0
VERTEX
8
0
6
CONTINUOUS
62
252
70
192
10
-0.598535
20
59.644462
30
1.600000
0
VERTEX
8
0
6
CONTINUOUS
62
252
70
192
10
-0.875000
20
59.515544
30
1.600000
0
VERTEX
8
0
6
CONTINUOUS
62
252
70
192
10
-1.124878
20
59.340578
30
1.600000
0
VERTEX
8
0
6
CONTINUOUS
62
252
70
192
10
-1.340578
20
59.124878
30
1.600000
0
VERTEX
8
0
6
CONTINUOUS
62
252
70
192
10
-1.515544
20
58.875000
30
1.600000
0
VERTEX
8
0
6
CONTINUOUS
62
252
70
192
10
-1.644462
20
58.598535
30
1.600000
0
VERTEX
8
0
6
CONTINUOUS
62
252
70
192
10
-1.723414
20
58.303884
30
1.600000
0
VERTEX
8
0
6
CONTINUOUS
62
252
70
192
10
-1.750000
20
58.000000
30
1.600000
0
VERTEX
8
0
6
CONTINUOUS
62
252
70
192
10
-1.723414
20
57.696116
30
1.600000
0
VERTEX
8
0
6
CONTINUOUS
62
252
70
192
10
-1.644462
20
57.401465
30
1.600000
0
VERTEX
8
0
6
CONTINUOUS
62
252
70
192
10
-1.515544
20
57.125000
30
1.600000
0
VERTEX
8
0
6
CONTINUOUS
62
252
70
192
10
-1.340578
20
56.875122
30
1.600000
0
VERTEX
8
0
6
CONTINUOUS
62
252
70
192
10
-1.124878
20
56.659422
30
1.600000
0
VERTEX
8
0
6
CONTINUOUS
62
252
70
192
10
-0.875000
20
56.484456
30
1.600000
0
VERTEX
8
0
6
CONTINUOUS
62
252
70
192
10
-0.598535
20
56.355538
30
1.600000
0
VERTEX
8
0
6
CONTINUOUS
62
252
70
192
10
-0.303884
20
56.276586
30
1.600000
0
VERTEX
8
0
6
CONTINUOUS
62
252
70
192
10
-0.000000
20
56.250000
30
1.600000
0
VERTEX
8
0
6
CONTINUOUS
62
252
70
192
10
0.303884
20
56.276586
30
1.600000
0
VERTEX
8
0
6
CONTINUOUS
62
252
70
192
10
0.598535
20
56.355538
30
1.600000
0
VERTEX
8
0
6
CONTINUOUS
62
252
70
192
10
0.875000
20
56.484456
30
1.600000
0
VERTEX
8
0
6
CONTINUOUS
62
252
70
192
10
1.124878
20
56.659422
30
1.600000
0
VERTEX
8
0
6
CONTINUOUS
62
252
70
192
10
1.340578
20
56.875122
30
1.600000
0
VERTEX
8
0
6
CONTINUOUS
62
252
70
192
10
1.515544
20
57.125000
30
1.600000
0
VERTEX
8
0
6
CONTINUOUS
62
252
70
192
10
1.644462
20
57.401465
30
1.600000
0
VERTEX
8
0
6
CONTINUOUS
62
252
70
192
10
1.723414
20
57.696116
30
1.600000
0
VERTEX
8
0
6
CONTINUOUS
62
252
70
192
10
1.750000
20
58.000000
30
1.600000
0
VERTEX
8
0
6
CONTINUOUS
62
252
70
192
10
1.723414
20
58.303884
30
1.600000
0
VERTEX
8
0
6
CONTINUOUS
62
252
70
192
10
1.644462
20
58.598535
30
1.600000
0
VERTEX
8
0
6
CONTINUOUS
62
252
70
192
10
1.515544
20
58.875000
30
1.600000
0
VERTEX
8
0
6
CONTINUOUS
62
252
70
192
10
1.340578
20
59.124878
30
1.600000
0
VERTEX
8
0
6
CONTINUOUS
62
252
70
192
10
1.124878
20
59.340578
30
1.600000
0
VERTEX
8
0
6
CONTINUOUS
62
252
70
192
10
0.875000
20
59.515544
30
1.600000
0
VERTEX
8
0
6
CONTINUOUS
62
252
70
192
10
0.598535
20
59.644462
30
1.600000
0
VERTEX
8
0
6
CONTINUOUS
62
252
70
192
10
0.303884
20
59.723414
30
1.600000
0
VERTEX
8
0
6
CONTINUOUS
62
252
70
128
10
0.000000
20
0.000000
30
0.000000
71
36
72
1
73
37
0
VERTEX
8
0
6
CONTINUOUS
62
252
70
128
10
0.000000
20
0.000000
30
0.000000
71
37
72
1
73
2
0
VERTEX
8
0
6
CONTINUOUS
62
252
70
128
10
0.000000
20
0.000000
30
0.000000
71
37
72
2
73
72
0
VERTEX
8
0
6
CONTINUOUS
62
252
70
128
10
0.000000
20
0.000000
30
0.000000
71
72
72
2
73
71
0
VERTEX
8
0
6
CONTINUOUS
62
252
70
128
10
0.000000
20
0.000000
30
0.000000
71
71
72
2
73
3
0
VERTEX
8
0
6
CONTINUOUS
62
252
70
128
10
0.000000
20
0.000000
30
0.000000
71
71
72
3
73
70
0
VERTEX
8
0
6
CONTINUOUS
62
252
70
128
10
0.000000
20
0.000000
30
0.000000
71
70
72
3
73
4
0
VERTEX
8
0
6
CONTINUOUS
62
252
70
128
10
0.000000
20
0.000000
30
0.000000
71
70
72
4
73
69
0
VERTEX
8
0
6
CONTINUOUS
62
252
70
128
10
0.000000
20
0.000000
30
0.000000
71
69
72
4
73
5
0
VERTEX
8
0
6
CONTINUOUS
62
252
70
128
10
0.000000
20
0.000000
30
0.000000
71
69
72
5
73
68
0
VERTEX
8
0
6
CONTINUOUS
62
252
70
128
10
0.000000
20
0.000000
30
0.000000
71
68
72
5
73
6
0
VERTEX
8
0
6
CONTINUOUS
62
252
70
128
10
0.000000
20
0.000000
30
0.000000
71
68
72
6
73
7
0
VERTEX
8
0
6
CONTINUOUS
62
252
70
128
10
0.000000
20
0.000000
30
0.000000
71
68
72
7
73
67
0
VERTEX
8
0
6
CONTINUOUS
62
252
70
128
10
0.000000
20
0.000000
30
0.000000
71
67
72
7
73
8
0
VERTEX
8
0
6
CONTINUOUS
62
252
70
128
10
0.000000
20
0.000000
30
0.000000
71
67
72
8
73
66
0
VERTEX
8
0
6
CONTINUOUS
62
252
70
128
10
0.000000
20
0.000000
30
0.000000
71
66
72
8
73
9
0
VERTEX
8
0
6
CONTINUOUS
62
252
70
128
10
0.000000
20
0.000000
30
0.000000
71
66
72
9
73
65
0
VERTEX
8
0
6
CONTINUOUS
62
252
70
128
10
0.000000
20
0.000000
30
0.000000
71
65
72
9
73
10
0
VERTEX
8
0
6
CONTINUOUS
62
252
70
128
10
0.000000
20
0.000000
30
0.000000
71
65
72
10
73
64
0
VERTEX
8
0
6
CONTINUOUS
62
252
70
128
10
0.000000
20
0.000000
30
0.000000
71
64
72
10
73
11
0
VERTEX
8
0
6
CONTINUOUS
62
252
70
128
10
0.000000
20
0.000000
30
0.000000
71
64
72
11
73
63
0
VERTEX
8
0
6
CONTINUOUS
62
252
70
128
10
0.000000
20
0.000000
30
0.000000
71
63
72
11
73
12
0
VERTEX
8
0
6
CONTINUOUS
62
252
70
128
10
0.000000
20
0.000000
30
0.000000
71
63
72
12
73
62
0
VERTEX
8
0
6
CONTINUOUS
62
252
70
128
10
0.000000
20
0.000000
30
0.000000
71
62
72
12
73
13
0
VERTEX
8
0
6
CONTINUOUS
62
252
70
128
10
0.000000
20
0.000000
30
0.000000
71
62
72
13
73
61
0
VERTEX
8
0
6
CONTINUOUS
62
252
70
128
10
0.000000
20
0.000000
30
0.000000
71
61
72
13
73
14
0
VERTEX
8
0
6
CONTINUOUS
62
252
70
128
10
0.000000
20
0.000000
30
0.000000
71
61
72
14
73
60
0
VERTEX
8
0
6
CONTINUOUS
62
252
70
128
10
0.000000
20
0.000000
30
0.000000
71
60
72
14
73
15
0
VERTEX
8
0
6
CONTINUOUS
62
252
70
128
10
0.000000
20
0.000000
30
0.000000
71
60
72
15
73
59
0
VERTEX
8
0
6
CONTINUOUS
62
252
70
128
10
0.000000
20
0.000000
30
0.000000
71
59
72
15
73
58
0
VERTEX
8
0
6
CONTINUOUS
62
252
70
128
10
0.000000
20
0.000000
30
0.000000
71
58
72
15
73
16
0
VERTEX
8
0
6
CONTINUOUS
62
252
70
128
10
0.000000
20
0.000000
30
0.000000
71
58
72
16
73
57
0
VERTEX
8
0
6
CONTINUOUS
62
252
70
128
10
0.000000
20
0.000000
30
0.000000
71
57
72
16
73
17
0
VERTEX
8
0
6
CONTINUOUS
62
252
70
128
10
0.000000
20
0.000000
30
0.000000
71
57
72
17
73
56
0
VERTEX
8
0
6
CONTINUOUS
62
252
70
128
10
0.000000
20
0.000000
30
0.000000
71
56
72
17
73
18
0
VERTEX
8
0
6
CONTINUOUS
62
252
70
128
10
0.000000
20
0.000000
30
0.000000
71
56
72
18
73
55
0
VERTEX
8
0
6
CONTINUOUS
62
252
70
128
10
0.000000
20
0.000000
30
0.000000
71
55
72
18
73
19
0
VERTEX
8
0
6
CONTINUOUS
62
252
70
128
10
0.000000
20
0.000000
30
0.000000
71
55
72
19
73
54
0
VERTEX
8
0
6
CONTINUOUS
62
252
70
128
10
0.000000
20
0.000000
30
0.000000
71
54
72
19
73
20
0
VERTEX
8
0
6
CONTINUOUS
62
252
70
128
10
0.000000
20
0.000000
30
0.000000
71
54
72
20
73
53
0
VERTEX
8
0
6
CONTINUOUS
62
252
70
128
10
0.000000
20
0.000000
30
0.000000
71
53
72
20
73
21
0
VERTEX
8
0
6
CONTINUOUS
62
252
70
128
10
0.000000
20
0.000000
30
0.000000
71
53
72
21
73
52
0
VERTEX
8
0
6
CONTINUOUS
62
252
70
128
10
0.000000
20
0.000000
30
0.000000
71
52
72
21
73
22
0
VERTEX
8
0
6
CONTINUOUS
62
252
70
128
10
0.000000
20
0.000000
30
0.000000
71
52
72
22
73
51
0
VERTEX
8
0
6
CONTINUOUS
62
252
70
128
10
0.000000
20
0.000000
30
0.000000
71
51
72
22
73
23
0
VERTEX
8
0
6
CONTINUOUS
62
252
70
128
10
0.000000
20
0.000000
30
0.000000
71
51
72
23
73
50
0
VERTEX
8
0
6
CONTINUOUS
62
252
70
128
10
0.000000
20
0.000000
30
0.000000
71
50
72
23
73
24
0
VERTEX
8
0
6
CONTINUOUS
62
252
70
128
10
0.000000
20
0.000000
30
0.000000
71
50
72
24
73
49
0
VERTEX
8
0
6
CONTINUOUS
62
252
70
128
10
0.000000
20
0.000000
30
0.000000
71
49
72
24
73
25
0
VERTEX
8
0
6
CONTINUOUS
62
252
70
128
10
0.000000
20
0.000000
30
0.000000
71
49
72
25
73
48
0
VERTEX
8
0
6
CONTINUOUS
62
252
70
128
10
0.000000
20
0.000000
30
0.000000
71
48
72
25
73
26
0
VERTEX
8
0
6
CONTINUOUS
62
252
70
128
10
0.000000
20
0.000000
30
0.000000
71
48
72
26
73
47
0
VERTEX
8
0
6
CONTINUOUS
62
252
70
128
10
0.000000
20
0.000000
30
0.000000
71
47
72
26
73
27
0
VERTEX
8
0
6
CONTINUOUS
62
252
70
128
10
0.000000
20
0.000000
30
0.000000
71
47
72
27
73
46
0
VERTEX
8
0
6
CONTINUOUS
62
252
70
128
10
0.000000
20
0.000000
30
0.000000
71
46
72
27
73
28
0
VERTEX
8
0
6
CONTINUOUS
62
252
70
128
10
0.000000
20
0.000000
30
0.000000
71
46
72
28
73
45
0
VERTEX
8
0
6
CONTINUOUS
62
252
70
128
10
0.000000
20
0.000000
30
0.000000
71
45
72
28
73
29
0
VERTEX
8
0
6
CONTINUOUS
62
252
70
128
10
0.000000
20
0.000000
30
0.000000
71
45
72
29
73
44
0
VERTEX
8
0
6
CONTINUOUS
62
252
70
128
10
0.000000
20
0.000000
30
0.000000
71
44
72
29
73
30
0
VERTEX
8
0
6
CONTINUOUS
62
252
70
128
10
0.000000
20
0.000000
30
0.000000
71
44
72
30
73
43
0
VERTEX
8
0
6
CONTINUOUS
62
252
70
128
10
0.000000
20
0.000000
30
0.000000
71
43
72
30
73
31
0
VERTEX
8
0
6
CONTINUOUS
62
252
70
128
10
0.000000
20
0.000000
30
0.000000
71
43
72
31
73
42
0
VERTEX
8
0
6
CONTINUOUS
62
252
70
128
10
0.000000
20
0.000000
30
0.000000
71
42
72
31
73
32
0
VERTEX
8
0
6
CONTINUOUS
62
252
70
128
10
0.000000
20
0.000000
30
0.000000
71
42
72
32
73
41
0
VERTEX
8
0
6
CONTINUOUS
62
252
70
128
10
0.000000
20
0.000000
30
0.000000
71
41
72
32
73
33
0
VERTEX
8
0
6
CONTINUOUS
62
252
70
128
10
0.000000
20
0.000000
30
0.000000
71
41
72
33
73
40
0
VERTEX
8
0
6
CONTINUOUS
62
252
70
128
10
0.000000
20
0.000000
30
0.000000
71
40
72
33
73
34
0
VERTEX
8
0
6
CONTINUOUS
62
252
70
128
10
0.000000
20
0.000000
30
0.000000
71
40
72
34
73
39
0
VERTEX
8
0
6
CONTINUOUS
62
252
70
128
10
0.000000
20
0.000000
30
0.000000
71
39
72
34
73
35
0
VERTEX
8
0
6
CONTINUOUS
62
252
70
128
10
0.000000
20
0.000000
30
0.000000
71
39
72
35
73
38
0
VERTEX
8
0
6
CONTINUOUS
62
252
70
128
10
0.000000
20
0.000000
30
0.000000
71
38
72
35
73
36
0
VERTEX
8
0
6
CONTINUOUS
62
252
70
128
10
0.000000
20
0.000000
30
0.000000
71
38
72
36
73
37
0
SEQEND
0
POLYLINE
66
1
8
0
6
CONTINUOUS
62
252
70
64
75
0
10
0.000000
20
0.000000
30
0.000000
0
VERTEX
8
0
6
CONTINUOUS
62
252
70
192
10
98.000000
20
59.750000
30
-0.000000
0
VERTEX
8
0
6
CONTINUOUS
62
252
70
192
10
98.303884
20
59.723414
30
-0.000000
0
VERTEX
8
0
6
CONTINUOUS
62
252
70
192
10
98.598535
20
59.644462
30
-0.000000
0
VERTEX
8
0
6
CONTINUOUS
62
252
70
192
10
98.875000
20
59.515544
30
-0.000000
0
VERTEX
8
0
6
CONTINUOUS
62
252
70
192
10
99.124878
20
59.340578
30
-0.000000
0
VERTEX
8
0
6
CONTINUOUS
62
252
70
192
10
99.340578
20
59.124878
30
-0.000000
0
VERTEX
8
0
6
CONTINUOUS
62
252
70
192
10
99.515544
20
58.875000
30
-0.000000
0
VERTEX
8
0
6
CONTINUOUS
62
252
70
192
10
99.644462
20
58.598535
30
-0.000000
0
VERTEX
8
0
6
CONTINUOUS
62
252
70
192
10
99.723414
20
58.303884
30
-0.000000
0
VERTEX
8
0
6
CONTINUOUS
62
252
70
192
10
99.750000
20
58.000000
30
-0.000000
0
VERTEX
8
0
6
CONTINUOUS
62
252
70
192
10
99.723414
20
57.696116
30
-0.000000
0
VERTEX
8
0
6
CONTINUOUS
62
252
70
192
10
99.644462
20
57.401465
30
-0.000000
0
VERTEX
8
0
6
CONTINUOUS
62
252
70
192
10
99.515544
20
57.125000
30
-0.000000
0
VERTEX
8
0
6
CONTINUOUS
62
252
70
192
10
99.340578
20
56.875122
30
-0.000000
0
VERTEX
8
0
6
CONTINUOUS
62
252
70
192
10
99.124878
20
56.659422
30
-0.000000
0
VERTEX
8
0
6
CONTINUOUS
62
252
70
192
10
98.875000
20
56.484456
30
-0.000000
0
VERTEX
8
0
6
CONTINUOUS
62
252
70
192
10
98.598535
20
56.355538
30
-0.000000
0
VERTEX
8
0
6
CONTINUOUS
62
252
70
192
10
98.303884
20
56.276586
30
-0.000000
0
VERTEX
8
0
6
CONTINUOUS
62
252
70
192
10
98.000000
20
56.250000
30
-0.000000
0
VERTEX
8
0
6
CONTINUOUS
62
252
70
192
10
97.696116
20
56.276586
30
-0.000000
0
VERTEX
8
0
6
CONTINUOUS
62
252
70
192
10
97.401465
20
56.355538
30
-0.000000
0
VERTEX
8
0
6
CONTINUOUS
62
252
70
192
10
97.125000
20
56.484456
30
-0.000000
0
VERTEX
8
0
6
CONTINUOUS
62
252
70
192
10
96.875122
20
56.659422
30
-0.000000
0
VERTEX
8
0
6
CONTINUOUS
62
252
70
192
10
96.659422
20
56.875122
30
-0.000000
0
VERTEX
8
0
6
CONTINUOUS
62
252
70
192
10
96.484456
20
57.125000
30
-0.000000
0
VERTEX
8
0
6
CONTINUOUS
62
252
70
192
10
96.355538
20
57.401465
30
-0.000000
0
VERTEX
8
0
6
CONTINUOUS
62
252
70
192
10
96.276586
20
57.696116
30
-0.000000
0
VERTEX
8
0
6
CONTINUOUS
62
252
70
192
10
96.250000
20
58.000000
30
-0.000000
0
VERTEX
8
0
6
CONTINUOUS
62
252
70
192
10
96.276586
20
58.303884
30
-0.000000
0
VERTEX
8
0
6
CONTINUOUS
62
252
70
192
10
96.355538
20
58.598535
30
-0.000000
0
VERTEX
8
0
6
CONTINUOUS
62
252
70
192
10
96.484456
20
58.875000
30
-0.000000
0
VERTEX
8
0
6
CONTINUOUS
62
252
70
192
10
96.659422
20
59.124878
30
-0.000000
0
VERTEX
8
0
6
CONTINUOUS
62
252
70
192
10
96.875122
20
59.340578
30
-0.000000
0
VERTEX
8
0
6
CONTINUOUS
62
252
70
192
10
97.125000
20
59.515544
30
-0.000000
0
VERTEX
8
0
6
CONTINUOUS
62
252
70
192
10
97.401465
20
59.644462
30
-0.000000
0
VERTEX
8
0
6
CONTINUOUS
62
252
70
192
10
97.696116
20
59.723414
30
-0.000000
0
VERTEX
8
0
6
CONTINUOUS
62
252
70
192
10
98.000000
20
59.750000
30
1.600000
0
VERTEX
8
0
6
CONTINUOUS
62
252
70
192
10
97.696116
20
59.723414
30
1.600000
0
VERTEX
8
0
6
CONTINUOUS
62
252
70
192
10
97.401465
20
59.644462
30
1.600000
0
VERTEX
8
0
6
CONTINUOUS
62
252
70
192
10
97.125000
20
59.515544
30
1.600000
0
VERTEX
8
0
6
CONTINUOUS
62
252
70
192
10
96.875122
20
59.340578
30
1.600000
0
VERTEX
8
0
6
CONTINUOUS
62
252
70
192
10
96.659422
20
59.124878
30
1.600000
0
VERTEX
8
0
6
CONTINUOUS
62
252
70
192
10
96.484456
20
58.875000
30
1.600000
0
VERTEX
8
0
6
CONTINUOUS
62
252
70
192
10
96.355538
20
58.598535
30
1.600000
0
VERTEX
8
0
6
CONTINUOUS
62
252
70
192
10
96.276586
20
58.303884
30
1.600000
0
VERTEX
8
0
6
CONTINUOUS
62
252
70
192
10
96.250000
20
58.000000
30
1.600000
0
VERTEX
8
0
6
CONTINUOUS
62
252
70
192
10
96.276586
20
57.696116
30
1.600000
0
VERTEX
8
0
6
CONTINUOUS
62
252
70
192
10
96.355538
20
57.401465
30
1.600000
0
VERTEX
8
0
6
CONTINUOUS
62
252
70
192
10
96.484456
20
57.125000
30
1.600000
0
VERTEX
8
0
6
CONTINUOUS
62
252
70
192
10
96.659422
20
56.875122
30
1.600000
0
VERTEX
8
0
6
CONTINUOUS
62
252
70
192
10
96.875122
20
56.659422
30
1.600000
0
VERTEX
8
0
6
CONTINUOUS
62
252
70
192
10
97.125000
20
56.484456
30
1.600000
0
VERTEX
8
0
6
CONTINUOUS
62
252
70
192
10
97.401465
20
56.355538
30
1.600000
0
VERTEX
8
0
6
CONTINUOUS
62
252
70
192
10
97.696116
20
56.276586
30
1.600000
0
VERTEX
8
0
6
CONTINUOUS
62
252
70
192
10
98.000000
20
56.250000
30
1.600000
0
VERTEX
8
0
6
CONTINUOUS
62
252
70
192
10
98.303884
20
56.276586
30
1.600000
0
VERTEX
8
0
6
CONTINUOUS
62
252
70
192
10
98.598535
20
56.355538
30
1.600000
0
VERTEX
8
0
6
CONTINUOUS
62
252
70
192
10
98.875000
20
56.484456
30
1.600000
0
VERTEX
8
0
6
CONTINUOUS
62
252
70
192
10
99.124878
20
56.659422
30
1.600000
0
VERTEX
8
0
6
CONTINUOUS
62
252
70
192
10
99.340578
20
56.875122
30
1.600000
0
VERTEX
8
0
6
CONTINUOUS
62
252
70
192
10
99.515544
20
57.125000
30
1.600000
0
VERTEX
8
0
6
CONTINUOUS
62
252
70
192
10
99.644462
20
57.401465
30
1.600000
0
VERTEX
8
0
6
CONTINUOUS
62
252
70
192
10
99.723414
20
57.696116
30
1.600000
0
VERTEX
8
0
6
CONTINUOUS
62
252
70
192
10
99.750000
20
58.000000
30
1.600000
0
VERTEX
8
0
6
CONTINUOUS
62
252
70
192
10
99.723414
20
58.303884
30
1.600000
0
VERTEX
8
0
6
CONTINUOUS
62
252
70
192
10
99.644462
20
58.598535
30
1.600000
0
VERTEX
8
0
6
CONTINUOUS
62
252
70
192
10
99.515544
20
58.875000
30
1.600000
0
VERTEX
8
0
6
CONTINUOUS
62
252
70
192
10
99.340578
20
59.124878
30
1.600000
0
VERTEX
8
0
6
CONTINUOUS
62
252
70
192
10
99.124878
20
59.340578
30
1.600000
0
VERTEX
8
0
6
CONTINUOUS
62
252
70
192
10
98.875000
20
59.515544
30
1.600000
0
VERTEX
8
0
6
CONTINUOUS
62
252
70
192
10
98.598535
20
59.644462
30
1.600000
0
VERTEX
8
0
6
CONTINUOUS
62
252
70
192
10
98.303884
20
59.723414
30
1.600000
0
VERTEX
8
0
6
CONTINUOUS
62
252
70
128
10
0.000000
20
0.000000
30
0.000000
71
36
72
1
73
37
0
VERTEX
8
0
6
CONTINUOUS
62
252
70
128
10
0.000000
20
0.000000
30
0.000000
71
37
72
1
73
2
0
VERTEX
8
0
6
CONTINUOUS
62
252
70
128
10
0.000000
20
0.000000
30
0.000000
71
37
72
2
73
72
0
VERTEX
8
0
6
CONTINUOUS
62
252
70
128
10
0.000000
20
0.000000
30
0.000000
71
72
72
2
73
3
0
VERTEX
8
0
6
CONTINUOUS
62
252
70
128
10
0.000000
20
0.000000
30
0.000000
71
72
72
3
73
71
0
VERTEX
8
0
6
CONTINUOUS
62
252
70
128
10
0.000000
20
0.000000
30
0.000000
71
71
72
3
73
4
0
VERTEX
8
0
6
CONTINUOUS
62
252
70
128
10
0.000000
20
0.000000
30
0.000000
71
71
72
4
73
70
0
VERTEX
8
0
6
CONTINUOUS
62
252
70
128
10
0.000000
20
0.000000
30
0.000000
71
70
72
4
73
5
0
VERTEX
8
0
6
CONTINUOUS
62
252
70
128
10
0.000000
20
0.000000
30
0.000000
71
70
72
5
73
69
0
VERTEX
8
0
6
CONTINUOUS
62
252
70
128
10
0.000000
20
0.000000
30
0.000000
71
69
72
5
73
6
0
VERTEX
8
0
6
CONTINUOUS
62
252
70
128
10
0.000000
20
0.000000
30
0.000000
71
69
72
6
73
68
0
VERTEX
8
0
6
CONTINUOUS
62
252
70
128
10
0.000000
20
0.000000
30
0.000000
71
68
72
6
73
7
0
VERTEX
8
0
6
CONTINUOUS
62
252
70
128
10
0.000000
20
0.000000
30
0.000000
71
68
72
7
73
67
0
VERTEX
8
0
6
CONTINUOUS
62
252
70
128
10
0.000000
20
0.000000
30
0.000000
71
67
72
7
73
8
0
VERTEX
8
0
6
CONTINUOUS
62
252
70
128
10
0.000000
20
0.000000
30
0.000000
71
67
72
8
73
66
0
VERTEX
8
0
6
CONTINUOUS
62
252
70
128
10
0.000000
20
0.000000
30
0.000000
71
66
72
8
73
9
0
VERTEX
8
0
6
CONTINUOUS
62
252
70
128
10
0.000000
20
0.000000
30
0.000000
71
66
72
9
73
65
0
VERTEX
8
0
6
CONTINUOUS
62
252
70
128
10
0.000000
20
0.000000
30
0.000000
71
65
72
9
73
10
0
VERTEX
8
0
6
CONTINUOUS
62
252
70
128
10
0.000000
20
0.000000
30
0.000000
71
65
72
10
73
64
0
VERTEX
8
0
6
CONTINUOUS
62
252
70
128
10
0.000000
20
0.000000
30
0.000000
71
64
72
10
73
11
0
VERTEX
8
0
6
CONTINUOUS
62
252
70
128
10
0.000000
20
0.000000
30
0.000000
71
64
72
11
73
63
0
VERTEX
8
0
6
CONTINUOUS
62
252
70
128
10
0.000000
20
0.000000
30
0.000000
71
63
72
11
73
62
0
VERTEX
8
0
6
CONTINUOUS
62
252
70
128
10
0.000000
20
0.000000
30
0.000000
71
62
72
11
73
12
0
VERTEX
8
0
6
CONTINUOUS
62
252
70
128
10
0.000000
20
0.000000
30
0.000000
71
62
72
12
73
13
0
VERTEX
8
0
6
CONTINUOUS
62
252
70
128
10
0.000000
20
0.000000
30
0.000000
71
62
72
13
73
61
0
VERTEX
8
0
6
CONTINUOUS
62
252
70
128
10
0.000000
20
0.000000
30
0.000000
71
61
72
13
73
14
0
VERTEX
8
0
6
CONTINUOUS
62
252
70
128
10
0.000000
20
0.000000
30
0.000000
71
61
72
14
73
60
0
VERTEX
8
0
6
CONTINUOUS
62
252
70
128
10
0.000000
20
0.000000
30
0.000000
71
60
72
14
73
59
0
VERTEX
8
0
6
CONTINUOUS
62
252
70
128
10
0.000000
20
0.000000
30
0.000000
71
59
72
14
73
15
0
VERTEX
8
0
6
CONTINUOUS
62
252
70
128
10
0.000000
20
0.000000
30
0.000000
71
59
72
15
73
16
0
VERTEX
8
0
6
CONTINUOUS
62
252
70
128
10
0.000000
20
0.000000
30
0.000000
71
59
72
16
73
58
0
VERTEX
8
0
6
CONTINUOUS
62
252
70
128
10
0.000000
20
0.000000
30
0.000000
71
58
72
16
73
17
0
VERTEX
8
0
6
CONTINUOUS
62
252
70
128
10
0.000000
20
0.000000
30
0.000000
71
58
72
17
73
57
0
VERTEX
8
0
6
CONTINUOUS
62
252
70
128
10
0.000000
20
0.000000
30
0.000000
71
57
72
17
73
56
0
VERTEX
8
0
6
CONTINUOUS
62
252
70
128
10
0.000000
20
0.000000
30
0.000000
71
56
72
17
73
18
0
VERTEX
8
0
6
CONTINUOUS
62
252
70
128
10
0.000000
20
0.000000
30
0.000000
71
56
72
18
73
55
0
VERTEX
8
0
6
CONTINUOUS
62
252
70
128
10
0.000000
20
0.000000
30
0.000000
71
55
72
18
73
19
0
VERTEX
8
0
6
CONTINUOUS
62
252
70
128
10
0.000000
20
0.000000
30
0.000000
71
55
72
19
73
54
0
VERTEX
8
0
6
CONTINUOUS
62
252
70
128
10
0.000000
20
0.000000
30
0.000000
71
54
72
19
73
20
0
VERTEX
8
0
6
CONTINUOUS
62
252
70
128
10
0.000000
20
0.000000
30
0.000000
71
54
72
20
73
21
0
VERTEX
8
0
6
CONTINUOUS
62
252
70
128
10
0.000000
20
0.000000
30
0.000000
71
22
72
52
73
21
0
VERTEX
8
0
6
CONTINUOUS
62
252
70
128
10
0.000000
20
0.000000
30
0.000000
71
21
72
52
73
53
0
VERTEX
8
0
6
CONTINUOUS
62
252
70
128
10
0.000000
20
0.000000
30
0.000000
71
21
72
53
73
54
0
VERTEX
8
0
6
CONTINUOUS
62
252
70
128
10
0.000000
20
0.000000
30
0.000000
71
52
72
22
73
51
0
VERTEX
8
0
6
CONTINUOUS
62
252
70
128
10
0.000000
20
0.000000
30
0.000000
71
51
72
22
73
23
0
VERTEX
8
0
6
CONTINUOUS
62
252
70
128
10
0.000000
20
0.000000
30
0.000000
71
51
72
23
73
24
0
VERTEX
8
0
6
CONTINUOUS
62
252
70
128
10
0.000000
20
0.000000
30
0.000000
71
25
72
49
73
24
0
VERTEX
8
0
6
CONTINUOUS
62
252
70
128
10
0.000000
20
0.000000
30
0.000000
71
24
72
49
73
50
0
VERTEX
8
0
6
CONTINUOUS
62
252
70
128
10
0.000000
20
0.000000
30
0.000000
71
24
72
50
73
51
0
VERTEX
8
0
6
CONTINUOUS
62
252
70
128
10
0.000000
20
0.000000
30
0.000000
71
49
72
25
73
48
0
VERTEX
8
0
6
CONTINUOUS
62
252
70
128
10
0.000000
20
0.000000
30
0.000000
71
48
72
25
73
26
0
VERTEX
8
0
6
CONTINUOUS
62
252
70
128
10
0.000000
20
0.000000
30
0.000000
71
48
72
26
73
47
0
VERTEX
8
0
6
CONTINUOUS
62
252
70
128
10
0.000000
20
0.000000
30
0.000000
71
47
72
26
73
27
0
VERTEX
8
0
6
CONTINUOUS
62
252
70
128
10
0.000000
20
0.000000
30
0.000000
71
47
72
27
73
46
0
VERTEX
8
0
6
CONTINUOUS
62
252
70
128
10
0.000000
20
0.000000
30
0.000000
71
46
72
27
73
28
0
VERTEX
8
0
6
CONTINUOUS
62
252
70
128
10
0.000000
20
0.000000
30
0.000000
71
46
72
28
73
45
0
VERTEX
8
0
6
CONTINUOUS
62
252
70
128
10
0.000000
20
0.000000
30
0.000000
71
45
72
28
73
29
0
VERTEX
8
0
6
CONTINUOUS
62
252
70
128
10
0.000000
20
0.000000
30
0.000000
71
45
72
29
73
44
0
VERTEX
8
0
6
CONTINUOUS
62
252
70
128
10
0.000000
20
0.000000
30
0.000000
71
44
72
29
73
30
0
VERTEX
8
0
6
CONTINUOUS
62
252
70
128
10
0.000000
20
0.000000
30
0.000000
71
44
72
30
73
43
0
VERTEX
8
0
6
CONTINUOUS
62
252
70
128
10
0.000000
20
0.000000
30
0.000000
71
43
72
30
73
31
0
VERTEX
8
0
6
CONTINUOUS
62
252
70
128
10
0.000000
20
0.000000
30
0.000000
71
43
72
31
73
42
0
VERTEX
8
0
6
CONTINUOUS
62
252
70
128
10
0.000000
20
0.000000
30
0.000000
71
42
72
31
73
32
0
VERTEX
8
0
6
CONTINUOUS
62
252
70
128
10
0.000000
20
0.000000
30
0.000000
71
42
72
32
73
41
0
VERTEX
8
0
6
CONTINUOUS
62
252
70
128
10
0.000000
20
0.000000
30
0.000000
71
41
72
32
73
33
0
VERTEX
8
0
6
CONTINUOUS
62
252
70
128
10
0.000000
20
0.000000
30
0.000000
71
41
72
33
73
40
0
VERTEX
8
0
6
CONTINUOUS
62
252
70
128
10
0.000000
20
0.000000
30
0.000000
71
40
72
33
73
34
0
VERTEX
8
0
6
CONTINUOUS
62
252
70
128
10
0.000000
20
0.000000
30
0.000000
71
40
72
34
73
39
0
VERTEX
8
0
6
CONTINUOUS
62
252
70
128
10
0.000000
20
0.000000
30
0.000000
71
39
72
34
73
35
0
VERTEX
8
0
6
CONTINUOUS
62
252
70
128
10
0.000000
20
0.000000
30
0.000000
71
39
72
35
73
38
0
VERTEX
8
0
6
CONTINUOUS
62
252
70
128
10
0.000000
20
0.000000
30
0.000000
71
38
72
35
73
36
0
VERTEX
8
0
6
CONTINUOUS
62
252
70
128
10
0.000000
20
0.000000
30
0.000000
71
38
72
36
73
37
0
SEQEND
0
POLYLINE
66
1
8
0
6
CONTINUOUS
62
252
70
64
75
0
10
0.000000
20
0.000000
30
0.000000
0
VERTEX
8
0
6
CONTINUOUS
62
252
70
192
10
-0.000000
20
1.750000
30
-0.000000
0
VERTEX
8
0
6
CONTINUOUS
62
252
70
192
10
0.303884
20
1.723414
30
-0.000000
0
VERTEX
8
0
6
CONTINUOUS
62
252
70
192
10
0.598535
20
1.644462
30
-0.000000
0
VERTEX
8
0
6
CONTINUOUS
62
252
70
192
10
0.875000
20
1.515544
30
-0.000000
0
VERTEX
8
0
6
CONTINUOUS
62
252
70
192
10
1.124878
20
1.340578
30
-0.000000
0
VERTEX
8
0
6
CONTINUOUS
62
252
70
192
10
1.340578
20
1.124878
30
-0.000000
0
VERTEX
8
0
6
CONTINUOUS
62
252
70
192
10
1.515544
20
0.875000
30
-0.000000
0
VERTEX
8
0
6
CONTINUOUS
62
252
70
192
10
1.644462
20
0.598535
30
-0.000000
0
VERTEX
8
0
6
CONTINUOUS
62
252
70
192
10
1.723414
20
0.303884
30
-0.000000
0
VERTEX
8
0
6
CONTINUOUS
62
252
70
192
10
1.750000
20
-0.000000
30
-0.000000
0
VERTEX
8
0
6
CONTINUOUS
62
252
70
192
10
1.723414
20
-0.303884
30
-0.000000
0
VERTEX
8
0
6
CONTINUOUS
62
252
70
192
10
1.644462
20
-0.598535
30
-0.000000
0
VERTEX
8
0
6
CONTINUOUS
62
252
70
192
10
1.515544
20
-0.875000
30
-0.000000
0
VERTEX
8
0
6
CONTINUOUS
62
252
70
192
10
1.340578
20
-1.124878
30
-0.000000
0
VERTEX
8
0
6
CONTINUOUS
62
252
70
192
10
1.124878
20
-1.340578
30
-0.000000
0
VERTEX
8
0
6
CONTINUOUS
62
252
70
192
10
0.875000
20
-1.515544
30
-0.000000
0
VERTEX
8
0
6
CONTINUOUS
62
252
70
192
10
0.598535
20
-1.644462
30
-0.000000
0
VERTEX
8
0
6
CONTINUOUS
62
252
70
192
10
0.303884
20
-1.723414
30
-0.000000
0
VERTEX
8
0
6
CONTINUOUS
62
252
70
192
10
0.000000
20
-1.750000
30
-0.000000
0
VERTEX
8
0
6
CONTINUOUS
62
252
70
192
10
-0.303884
20
-1.723414
30
-0.000000
0
VERTEX
8
0
6
CONTINUOUS
62
252
70
192
10
-0.598535
20
-1.644462
30
-0.000000
0
VERTEX
8
0
6
CONTINUOUS
62
252
70
192
10
-0.875000
20
-1.515544
30
-0.000000
0
VERTEX
8
0
6
CONTINUOUS
62
252
70
192
10
-1.124878
20
-1.340578
30
-0.000000
0
VERTEX
8
0
6
CONTINUOUS
62
252
70
192
10
-1.340578
20
-1.124878
30
-0.000000
0
VERTEX
8
0
6
CONTINUOUS
62
252
70
192
10
-1.515544
20
-0.875000
30
-0.000000
0
VERTEX
8
0
6
CONTINUOUS
62
252
70
192
10
-1.644462
20
-0.598535
30
-0.000000
0
VERTEX
8
0
6
CONTINUOUS
62
252
70
192
10
-1.723414
20
-0.303884
30
-0.000000
0
VERTEX
8
0
6
CONTINUOUS
62
252
70
192
10
-1.750000
20
-0.000000
30
-0.000000
0
VERTEX
8
0
6
CONTINUOUS
62
252
70
192
10
-1.723414
20
0.303884
30
-0.000000
0
VERTEX
8
0
6
CONTINUOUS
62
252
70
192
10
-1.644462
20
0.598535
30
-0.000000
0
VERTEX
8
0
6
CONTINUOUS
62
252
70
192
10
-1.515544
20
0.875000
30
-0.000000
0
VERTEX
8
0
6
CONTINUOUS
62
252
70
192
10
-1.340578
20
1.124878
30
-0.000000
0
VERTEX
8
0
6
CONTINUOUS
62
252
70
192
10
-1.124878
20
1.340578
30
-0.000000
0
VERTEX
8
0
6
CONTINUOUS
62
252
70
192
10
-0.875000
20
1.515544
30
-0.000000
0
VERTEX
8
0
6
CONTINUOUS
62
252
70
192
10
-0.598535
20
1.644462
30
-0.000000
0
VERTEX
8
0
6
CONTINUOUS
62
252
70
192
10
-0.303884
20
1.723414
30
-0.000000
0
VERTEX
8
0
6
CONTINUOUS
62
252
70
192
10
-0.000000
20
1.750000
30
1.600000
0
VERTEX
8
0
6
CONTINUOUS
62
252
70
192
10
-0.303884
20
1.723414
30
1.600000
0
VERTEX
8
0
6
CONTINUOUS
62
252
70
192
10
-0.598535
20
1.644462
30
1.600000
0
VERTEX
8
0
6
CONTINUOUS
62
252
70
192
10
-0.875000
20
1.515544
30
1.600000
0
VERTEX
8
0
6
CONTINUOUS
62
252
70
192
10
-1.124878
20
1.340578
30
1.600000
0
VERTEX
8
0
6
CONTINUOUS
62
252
70
192
10
-1.340578
20
1.124878
30
1.600000
0
VERTEX
8
0
6
CONTINUOUS
62
252
70
192
10
-1.515544
20
0.875000
30
1.600000
0
VERTEX
8
0
6
CONTINUOUS
62
252
70
192
10
-1.644462
20
0.598535
30
1.600000
0
VERTEX
8
0
6
CONTINUOUS
62
252
70
192
10
-1.723414
20
0.303884
30
1.600000
0
VERTEX
8
0
6
CONTINUOUS
62
252
70
192
10
-1.750000
20
-0.000000
30
1.600000
0
VERTEX
8
0
6
CONTINUOUS
62
252
70
192
10
-1.723414
20
-0.303884
30
1.600000
0
VERTEX
8
0
6
CONTINUOUS
62
252
70
192
10
-1.644462
20
-0.598535
30
1.600000
0
VERTEX
8
0
6
CONTINUOUS
62
252
70
192
10
-1.515544
20
-0.875000
30
1.600000
0
VERTEX
8
0
6
CONTINUOUS
62
252
70
192
10
-1.340578
20
-1.124878
30
1.600000
0
VERTEX
8
0
6
CONTINUOUS
62
252
70
192
10
-1.124878
20
-1.340578
30
1.600000
0
VERTEX
8
0
6
CONTINUOUS
62
252
70
192
10
-0.875000
20
-1.515544
30
1.600000
0
VERTEX
8
0
6
CONTINUOUS
62
252
70
192
10
-0.598535
20
-1.644462
30
1.600000
0
VERTEX
8
0
6
CONTINUOUS
62
252
70
192
10
-0.303884
20
-1.723414
30
1.600000
0
VERTEX
8
0
6
CONTINUOUS
62
252
70
192
10
0.000000
20
-1.750000
30
1.600000
0
VERTEX
8
0
6
CONTINUOUS
62
252
70
192
10
0.303884
20
-1.723414
30
1.600000
0
VERTEX
8
0
6
CONTINUOUS
62
252
70
192
10
0.598535
20
-1.644462
30
1.600000
0
VERTEX
8
0
6
CONTINUOUS
62
252
70
192
10
0.875000
20
-1.515544
30
1.600000
0
VERTEX
8
0
6
CONTINUOUS
62
252
70
192
10
1.124878
20
-1.340578
30
1.600000
0
VERTEX
8
0
6
CONTINUOUS
62
252
70
192
10
1.340578
20
-1.124878
30
1.600000
0
VERTEX
8
0
6
CONTINUOUS
62
252
70
192
10
1.515544
20
-0.875000
30
1.600000
0
VERTEX
8
0
6
CONTINUOUS
62
252
70
192
10
1.644462
20
-0.598535
30
1.600000
0
VERTEX
8
0
6
CONTINUOUS
62
252
70
192
10
1.723414
20
-0.303884
30
1.600000
0
VERTEX
8
0
6
CONTINUOUS
62
252
70
192
10
1.750000
20
-0.000000
30
1.600000
0
VERTEX
8
0
6
CONTINUOUS
62
252
70
192
10
1.723414
20
0.303884
30
1.600000
0
VERTEX
8
0
6
CONTINUOUS
62
252
70
192
10
1.644462
20
0.598535
30
1.600000
0
VERTEX
8
0
6
CONTINUOUS
62
252
70
192
10
1.515544
20
0.875000
30
1.600000
0
VERTEX
8
0
6
CONTINUOUS
62
252
70
192
10
1.340578
20
1.124878
30
1.600000
0
VERTEX
8
0
6
CONTINUOUS
62
252
70
192
10
1.124878
20
1.340578
30
1.600000
0
VERTEX
8
0
6
CONTINUOUS
62
252
70
192
10
0.875000
20
1.515544
30
1.600000
0
VERTEX
8
0
6
CONTINUOUS
62
252
70
192
10
0.598535
20
1.644462
30
1.600000
0
VERTEX
8
0
6
CONTINUOUS
62
252
70
192
10
0.303884
20
1.723414
30
1.600000
0
VERTEX
8
0
6
CONTINUOUS
62
252
70
128
10
0.000000
20
0.000000
30
0.000000
71
2
72
72
73
1
0
VERTEX
8
0
6
CONTINUOUS
62
252
70
128
10
0.000000
20
0.000000
30
0.000000
71
1
72
72
73
37
0
VERTEX
8
0
6
CONTINUOUS
62
252
70
128
10
0.000000
20
0.000000
30
0.000000
71
1
72
37
73
36
0
VERTEX
8
0
6
CONTINUOUS
62
252
70
128
10
0.000000
20
0.000000
30
0.000000
71
36
72
37
73
38
0
VERTEX
8
0
6
CONTINUOUS
62
252
70
128
10
0.000000
20
0.000000
30
0.000000
71
36
72
38
73
35
0
VERTEX
8
0
6
CONTINUOUS
62
252
70
128
10
0.000000
20
0.000000
30
0.000000
71
35
72
38
73
39
0
VERTEX
8
0
6
CONTINUOUS
62
252
70
128
10
0.000000
20
0.000000
30
0.000000
71
35
72
39
73
34
0
VERTEX
8
0
6
CONTINUOUS
62
252
70
128
10
0.000000
20
0.000000
30
0.000000
71
34
72
39
73
40
0
VERTEX
8
0
6
CONTINUOUS
62
252
70
128
10
0.000000
20
0.000000
30
0.000000
71
34
72
40
73
33
0
VERTEX
8
0
6
CONTINUOUS
62
252
70
128
10
0.000000
20
0.000000
30
0.000000
71
33
72
40
73
41
0
VERTEX
8
0
6
CONTINUOUS
62
252
70
128
10
0.000000
20
0.000000
30
0.000000
71
33
72
41
73
32
0
VERTEX
8
0
6
CONTINUOUS
62
252
70
128
10
0.000000
20
0.000000
30
0.000000
71
32
72
41
73
42
0
VERTEX
8
0
6
CONTINUOUS
62
252
70
128
10
0.000000
20
0.000000
30
0.000000
71
32
72
42
73
31
0
VERTEX
8
0
6
CONTINUOUS
62
252
70
128
10
0.000000
20
0.000000
30
0.000000
71
31
72
42
73
43
0
VERTEX
8
0
6
CONTINUOUS
62
252
70
128
10
0.000000
20
0.000000
30
0.000000
71
31
72
43
73
30
0
VERTEX
8
0
6
CONTINUOUS
62
252
70
128
10
0.000000
20
0.000000
30
0.000000
71
30
72
43
73
44
0
VERTEX
8
0
6
CONTINUOUS
62
252
70
128
10
0.000000
20
0.000000
30
0.000000
71
30
72
44
73
29
0
VERTEX
8
0
6
CONTINUOUS
62
252
70
128
10
0.000000
20
0.000000
30
0.000000
71
29
72
44
73
45
0
VERTEX
8
0
6
CONTINUOUS
62
252
70
128
10
0.000000
20
0.000000
30
0.000000
71
29
72
45
73
28
0
VERTEX
8
0
6
CONTINUOUS
62
252
70
128
10
0.000000
20
0.000000
30
0.000000
71
28
72
45
73
46
0
VERTEX
8
0
6
CONTINUOUS
62
252
70
128
10
0.000000
20
0.000000
30
0.000000
71
28
72
46
73
27
0
VERTEX
8
0
6
CONTINUOUS
62
252
70
128
10
0.000000
20
0.000000
30
0.000000
71
27
72
46
73
47
0
VERTEX
8
0
6
CONTINUOUS
62
252
70
128
10
0.000000
20
0.000000
30
0.000000
71
27
72
47
73
26
0
VERTEX
8
0
6
CONTINUOUS
62
252
70
128
10
0.000000
20
0.000000
30
0.000000
71
26
72
47
73
48
0
VERTEX
8
0
6
CONTINUOUS
62
252
70
128
10
0.000000
20
0.000000
30
0.000000
71
26
72
48
73
25
0
VERTEX
8
0
6
CONTINUOUS
62
252
70
128
10
0.000000
20
0.000000
30
0.000000
71
25
72
48
73
49
0
VERTEX
8
0
6
CONTINUOUS
62
252
70
128
10
0.000000
20
0.000000
30
0.000000
71
25
72
49
73
24
0
VERTEX
8
0
6
CONTINUOUS
62
252
70
128
10
0.000000
20
0.000000
30
0.000000
71
24
72
49
73
50
0
VERTEX
8
0
6
CONTINUOUS
62
252
70
128
10
0.000000
20
0.000000
30
0.000000
71
24
72
50
73
23
0
VERTEX
8
0
6
CONTINUOUS
62
252
70
128
10
0.000000
20
0.000000
30
0.000000
71
23
72
50
73
51
0
VERTEX
8
0
6
CONTINUOUS
62
252
70
128
10
0.000000
20
0.000000
30
0.000000
71
23
72
51
73
22
0
VERTEX
8
0
6
CONTINUOUS
62
252
70
128
10
0.000000
20
0.000000
30
0.000000
71
22
72
51
73
52
0
VERTEX
8
0
6
CONTINUOUS
62
252
70
128
10
0.000000
20
0.000000
30
0.000000
71
22
72
52
73
21
0
VERTEX
8
0
6
CONTINUOUS
62
252
70
128
10
0.000000
20
0.000000
30
0.000000
71
21
72
52
73
53
0
VERTEX
8
0
6
CONTINUOUS
62
252
70
128
10
0.000000
20
0.000000
30
0.000000
71
21
72
53
73
20
0
VERTEX
8
0
6
CONTINUOUS
62
252
70
128
10
0.000000
20
0.000000
30
0.000000
71
20
72
53
73
54
0
VERTEX
8
0
6
CONTINUOUS
62
252
70
128
10
0.000000
20
0.000000
30
0.000000
71
20
72
54
73
19
0
VERTEX
8
0
6
CONTINUOUS
62
252
70
128
10
0.000000
20
0.000000
30
0.000000
71
19
72
54
73
55
0
VERTEX
8
0
6
CONTINUOUS
62
252
70
128
10
0.000000
20
0.000000
30
0.000000
71
19
72
55
73
18
0
VERTEX
8
0
6
CONTINUOUS
62
252
70
128
10
0.000000
20
0.000000
30
0.000000
71
18
72
55
73
56
0
VERTEX
8
0
6
CONTINUOUS
62
252
70
128
10
0.000000
20
0.000000
30
0.000000
71
18
72
56
73
17
0
VERTEX
8
0
6
CONTINUOUS
62
252
70
128
10
0.000000
20
0.000000
30
0.000000
71
17
72
56
73
57
0
VERTEX
8
0
6
CONTINUOUS
62
252
70
128
10
0.000000
20
0.000000
30
0.000000
71
17
72
57
73
16
0
VERTEX
8
0
6
CONTINUOUS
62
252
70
128
10
0.000000
20
0.000000
30
0.000000
71
16
72
57
73
58
0
VERTEX
8
0
6
CONTINUOUS
62
252
70
128
10
0.000000
20
0.000000
30
0.000000
71
16
72
58
73
15
0
VERTEX
8
0
6
CONTINUOUS
62
252
70
128
10
0.000000
20
0.000000
30
0.000000
71
15
72
58
73
59
0
VERTEX
8
0
6
CONTINUOUS
62
252
70
128
10
0.000000
20
0.000000
30
0.000000
71
15
72
59
73
14
0
VERTEX
8
0
6
CONTINUOUS
62
252
70
128
10
0.000000
20
0.000000
30
0.000000
71
14
72
59
73
60
0
VERTEX
8
0
6
CONTINUOUS
62
252
70
128
10
0.000000
20
0.000000
30
0.000000
71
14
72
60
73
13
0
VERTEX
8
0
6
CONTINUOUS
62
252
70
128
10
0.000000
20
0.000000
30
0.000000
71
13
72
60
73
61
0
VERTEX
8
0
6
CONTINUOUS
62
252
70
128
10
0.000000
20
0.000000
30
0.000000
71
13
72
61
73
12
0
VERTEX
8
0
6
CONTINUOUS
62
252
70
128
10
0.000000
20
0.000000
30
0.000000
71
12
72
61
73
62
0
VERTEX
8
0
6
CONTINUOUS
62
252
70
128
10
0.000000
20
0.000000
30
0.000000
71
12
72
62
73
11
0
VERTEX
8
0
6
CONTINUOUS
62
252
70
128
10
0.000000
20
0.000000
30
0.000000
71
11
72
62
73
63
0
VERTEX
8
0
6
CONTINUOUS
62
252
70
128
10
0.000000
20
0.000000
30
0.000000
71
11
72
63
73
10
0
VERTEX
8
0
6
CONTINUOUS
62
252
70
128
10
0.000000
20
0.000000
30
0.000000
71
10
72
63
73
64
0
VERTEX
8
0
6
CONTINUOUS
62
252
70
128
10
0.000000
20
0.000000
30
0.000000
71
10
72
64
73
9
0
VERTEX
8
0
6
CONTINUOUS
62
252
70
128
10
0.000000
20
0.000000
30
0.000000
71
9
72
64
73
65
0
VERTEX
8
0
6
CONTINUOUS
62
252
70
128
10
0.000000
20
0.000000
30
0.000000
71
9
72
65
73
8
0
VERTEX
8
0
6
CONTINUOUS
62
252
70
128
10
0.000000
20
0.000000
30
0.000000
71
8
72
65
73
66
0
VERTEX
8
0
6
CONTINUOUS
62
252
70
128
10
0.000000
20
0.000000
30
0.000000
71
8
72
66
73
7
0
VERTEX
8
0
6
CONTINUOUS
62
252
70
128
10
0.000000
20
0.000000
30
0.000000
71
7
72
66
73
67
0
VERTEX
8
0
6
CONTINUOUS
62
252
70
128
10
0.000000
20
0.000000
30
0.000000
71
7
72
67
73
6
0
VERTEX
8
0
6
CONTINUOUS
62
252
70
128
10
0.000000
20
0.000000
30
0.000000
71
6
72
67
73
68
0
VERTEX
8
0
6
CONTINUOUS
62
252
70
128
10
0.000000
20
0.000000
30
0.000000
71
6
72
68
73
5
0
VERTEX
8
0
6
CONTINUOUS
62
252
70
128
10
0.000000
20
0.000000
30
0.000000
71
5
72
68
73
69
0
VERTEX
8
0
6
CONTINUOUS
62
252
70
128
10
0.000000
20
0.000000
30
0.000000
71
5
72
69
73
4
0
VERTEX
8
0
6
CONTINUOUS
62
252
70
128
10
0.000000
20
0.000000
30
0.000000
71
4
72
69
73
70
0
VERTEX
8
0
6
CONTINUOUS
62
252
70
128
10
0.000000
20
0.000000
30
0.000000
71
4
72
70
73
3
0
VERTEX
8
0
6
CONTINUOUS
62
252
70
128
10
0.000000
20
0.000000
30
0.000000
71
3
72
70
73
71
0
VERTEX
8
0
6
CONTINUOUS
62
252
70
128
10
0.000000
20
0.000000
30
0.000000
71
3
72
71
73
2
0
VERTEX
8
0
6
CONTINUOUS
62
252
70
128
10
0.000000
20
0.000000
30
0.000000
71
2
72
71
73
72
0
SEQEND
0
POLYLINE
66
1
8
0
6
CONTINUOUS
62
252
70
64
75
0
10
0.000000
20
0.000000
30
0.000000
0
VERTEX
8
0
6
CONTINUOUS
62
252
70
192
10
98.000000
20
1.750000
30
-0.000000
0
VERTEX
8
0
6
CONTINUOUS
62
252
70
192
10
98.303884
20
1.723414
30
0.000000
0
VERTEX
8
0
6
CONTINUOUS
62
252
70
192
10
98.598535
20
1.644462
30
0.000000
0
VERTEX
8
0
6
CONTINUOUS
62
252
70
192
10
98.875000
20
1.515544
30
0.000000
0
VERTEX
8
0
6
CONTINUOUS
62
252
70
192
10
99.124878
20
1.340578
30
0.000000
0
VERTEX
8
0
6
CONTINUOUS
62
252
70
192
10
99.340578
20
1.124878
30
0.000000
0
VERTEX
8
0
6
CONTINUOUS
62
252
70
192
10
99.515544
20
0.875000
30
0.000000
0
VERTEX
8
0
6
CONTINUOUS
62
252
70
192
10
99.644462
20
0.598535
30
0.000000
0
VERTEX
8
0
6
CONTINUOUS
62
252
70
192
10
99.723414
20
0.303884
30
0.000000
0
VERTEX
8
0
6
CONTINUOUS
62
252
70
192
10
99.750000
20
-0.000000
30
0.000000
0
VERTEX
8
0
6
CONTINUOUS
62
252
70
192
10
99.723414
20
-0.303884
30
0.000000
0
VERTEX
8
0
6
CONTINUOUS
62
252
70
192
10
99.644462
20
-0.598535
30
0.000000
0
VERTEX
8
0
6
CONTINUOUS
62
252
70
192
10
99.515544
20
-0.875000
30
0.000000
0
VERTEX
8
0
6
CONTINUOUS
62
252
70
192
10
99.340578
20
-1.124878
30
0.000000
0
VERTEX
8
0
6
CONTINUOUS
62
252
70
192
10
99.124878
20
-1.340578
30
0.000000
0
VERTEX
8
0
6
CONTINUOUS
62
252
70
192
10
98.875000
20
-1.515544
30
0.000000
0
VERTEX
8
0
6
CONTINUOUS
62
252
70
192
10
98.598535
20
-1.644462
30
0.000000
0
VERTEX
8
0
6
CONTINUOUS
62
252
70
192
10
98.303884
20
-1.723414
30
0.000000
0
VERTEX
8
0
6
CONTINUOUS
62
252
70
192
10
98.000000
20
-1.750000
30
0.000000
0
VERTEX
8
0
6
CONTINUOUS
62
252
70
192
10
97.696116
20
-1.723414
30
0.000000
0
VERTEX
8
0
6
CONTINUOUS
62
252
70
192
10
97.401465
20
-1.644462
30
0.000000
0
VERTEX
8
0
6
CONTINUOUS
62
252
70
192
10
97.125000
20
-1.515544
30
0.000000
0
VERTEX
8
0
6
CONTINUOUS
62
252
70
192
10
96.875122
20
-1.340578
30
0.000000
0
VERTEX
8
0
6
CONTINUOUS
62
252
70
192
10
96.659422
20
-1.124878
30
0.000000
0
VERTEX
8
0
6
CONTINUOUS
62
252
70
192
10
96.484456
20
-0.875000
30
0.000000
0
VERTEX
8
0
6
CONTINUOUS
62
252
70
192
10
96.355538
20
-0.598535
30
0.000000
0
VERTEX
8
0
6
CONTINUOUS
62
252
70
192
10
96.276586
20
-0.303884
30
0.000000
0
VERTEX
8
0
6
CONTINUOUS
62
252
70
192
10
96.250000
20
-0.000000
30
0.000000
0
VERTEX
8
0
6
CONTINUOUS
62
252
70
192
10
96.276586
20
0.303884
30
0.000000
0
VERTEX
8
0
6
CONTINUOUS
62
252
70
192
10
96.355538
20
0.598535
30
0.000000
0
VERTEX
8
0
6
CONTINUOUS
62
252
70
192
10
96.484456
20
0.875000
30
0.000000
0
VERTEX
8
0
6
CONTINUOUS
62
252
70
192
10
96.659422
20
1.124878
30
0.000000
0
VERTEX
8
0
6
CONTINUOUS
62
252
70
192
10
96.875122
20
1.340578
30
0.000000
0
VERTEX
8
0
6
CONTINUOUS
62
252
70
192
10
97.125000
20
1.515544
30
0.000000
0
VERTEX
8
0
6
CONTINUOUS
62
252
70
192
10
97.401465
20
1.644462
30
0.000000
0
VERTEX
8
0
6
CONTINUOUS
62
252
70
192
10
97.696116
20
1.723414
30
0.000000
0
VERTEX
8
0
6
CONTINUOUS
62
252
70
192
10
98.000000
20
1.750000
30
1.600000
0
VERTEX
8
0
6
CONTINUOUS
62
252
70
192
10
97.696116
20
1.723414
30
1.600000
0
VERTEX
8
0
6
CONTINUOUS
62
252
70
192
10
97.401465
20
1.644462
30
1.600000
0
VERTEX
8
0
6
CONTINUOUS
62
252
70
192
10
97.125000
20
1.515544
30
1.600000
0
VERTEX
8
0
6
CONTINUOUS
62
252
70
192
10
96.875122
20
1.340578
30
1.600000
0
VERTEX
8
0
6
CONTINUOUS
62
252
70
192
10
96.659422
20
1.124878
30
1.600000
0
VERTEX
8
0
6
CONTINUOUS
62
252
70
192
10
96.484456
20
0.875000
30
1.600000
0
VERTEX
8
0
6
CONTINUOUS
62
252
70
192
10
96.355538
20
0.598535
30
1.600000
0
VERTEX
8
0
6
CONTINUOUS
62
252
70
192
10
96.276586
20
0.303884
30
1.600000
0
VERTEX
8
0
6
CONTINUOUS
62
252
70
192
10
96.250000
20
-0.000000
30
1.600000
0
VERTEX
8
0
6
CONTINUOUS
62
252
70
192
10
96.276586
20
-0.303884
30
1.600000
0
VERTEX
8
0
6
CONTINUOUS
62
252
70
192
10
96.355538
20
-0.598535
30
1.600000
0
VERTEX
8
0
6
CONTINUOUS
62
252
70
192
10
96.484456
20
-0.875000
30
1.600000
0
VERTEX
8
0
6
CONTINUOUS
62
252
70
192
10
96.659422
20
-1.124878
30
1.600000
0
VERTEX
8
0
6
CONTINUOUS
62
252
70
192
10
96.875122
20
-1.340578
30
1.600000
0
VERTEX
8
0
6
CONTINUOUS
62
252
70
192
10
97.125000
20
-1.515544
30
1.600000
0
VERTEX
8
0
6
CONTINUOUS
62
252
70
192
10
97.401465
20
-1.644462
30
1.600000
0
VERTEX
8
0
6
CONTINUOUS
62
252
70
192
10
97.696116
20
-1.723414
30
1.600000
0
VERTEX
8
0
6
CONTINUOUS
62
252
70
192
10
98.000000
20
-1.750000
30
1.600000
0
VERTEX
8
0
6
CONTINUOUS
62
252
70
192
10
98.303884
20
-1.723414
30
1.600000
0
VERTEX
8
0
6
CONTINUOUS
62
252
70
192
10
98.598535
20
-1.644462
30
1.600000
0
VERTEX
8
0
6
CONTINUOUS
62
252
70
192
10
98.875000
20
-1.515544
30
1.600000
0
VERTEX
8
0
6
CONTINUOUS
62
252
70
192
10
99.124878
20
-1.340578
30
1.600000
0
VERTEX
8
0
6
CONTINUOUS
62
252
70
192
10
99.340578
20
-1.124878
30
1.600000
0
VERTEX
8
0
6
CONTINUOUS
62
252
70
192
10
99.515544
20
-0.875000
30
1.600000
0
VERTEX
8
0
6
CONTINUOUS
62
252
70
192
10
99.644462
20
-0.598535
30
1.600000
0
VERTEX
8
0
6
CONTINUOUS
62
252
70
192
10
99.723414
20
-0.303884
30
1.600000
0
VERTEX
8
0
6
CONTINUOUS
62
252
70
192
10
99.750000
20
-0.000000
30
1.600000
0
VERTEX
8
0
6
CONTINUOUS
62
252
70
192
10
99.723414
20
0.303884
30
1.600000
0
VERTEX
8
0
6
CONTINUOUS
62
252
70
192
10
99.644462
20
0.598535
30
1.600000
0
VERTEX
8
0
6
CONTINUOUS
62
252
70
192
10
99.515544
20
0.875000
30
1.600000
0
VERTEX
8
0
6
CONTINUOUS
62
252
70
192
10
99.340578
20
1.124878
30
1.600000
0
VERTEX
8
0
6
CONTINUOUS
62
252
70
192
10
99.124878
20
1.340578
30
1.600000
0
VERTEX
8
0
6
CONTINUOUS
62
252
70
192
10
98.875000
20
1.515544
30
1.600000
0
VERTEX
8
0
6
CONTINUOUS
62
252
70
192
10
98.598535
20
1.644462
30
1.600000
0
VERTEX
8
0
6
CONTINUOUS
62
252
70
192
10
98.303884
20
1.723414
30
1.600000
0
VERTEX
8
0
6
CONTINUOUS
62
252
70
128
10
0.000000
20
0.000000
30
0.000000
71
36
72
1
73
37
0
VERTEX
8
0
6
CONTINUOUS
62
252
70
128
10
0.000000
20
0.000000
30
0.000000
71
37
72
1
73
2
0
VERTEX
8
0
6
CONTINUOUS
62
252
70
128
10
0.000000
20
0.000000
30
0.000000
71
37
72
2
73
72
0
VERTEX
8
0
6
CONTINUOUS
62
252
70
128
10
0.000000
20
0.000000
30
0.000000
71
72
72
2
73
3
0
VERTEX
8
0
6
CONTINUOUS
62
252
70
128
10
0.000000
20
0.000000
30
0.000000
71
72
72
3
73
71
0
VERTEX
8
0
6
CONTINUOUS
62
252
70
128
10
0.000000
20
0.000000
30
0.000000
71
71
72
3
73
4
0
VERTEX
8
0
6
CONTINUOUS
62
252
70
128
10
0.000000
20
0.000000
30
0.000000
71
71
72
4
73
70
0
VERTEX
8
0
6
CONTINUOUS
62
252
70
128
10
0.000000
20
0.000000
30
0.000000
71
70
72
4
73
5
0
VERTEX
8
0
6
CONTINUOUS
62
252
70
128
10
0.000000
20
0.000000
30
0.000000
71
70
72
5
73
69
0
VERTEX
8
0
6
CONTINUOUS
62
252
70
128
10
0.000000
20
0.000000
30
0.000000
71
69
72
5
73
68
0
VERTEX
8
0
6
CONTINUOUS
62
252
70
128
10
0.000000
20
0.000000
30
0.000000
71
68
72
5
73
6
0
VERTEX
8
0
6
CONTINUOUS
62
252
70
128
10
0.000000
20
0.000000
30
0.000000
71
68
72
6
73
67
0
VERTEX
8
0
6
CONTINUOUS
62
252
70
128
10
0.000000
20
0.000000
30
0.000000
71
67
72
6
73
7
0
VERTEX
8
0
6
CONTINUOUS
62
252
70
128
10
0.000000
20
0.000000
30
0.000000
71
67
72
7
73
66
0
VERTEX
8
0
6
CONTINUOUS
62
252
70
128
10
0.000000
20
0.000000
30
0.000000
71
66
72
7
73
8
0
VERTEX
8
0
6
CONTINUOUS
62
252
70
128
10
0.000000
20
0.000000
30
0.000000
71
66
72
8
73
65
0
VERTEX
8
0
6
CONTINUOUS
62
252
70
128
10
0.000000
20
0.000000
30
0.000000
71
65
72
8
73
9
0
VERTEX
8
0
6
CONTINUOUS
62
252
70
128
10
0.000000
20
0.000000
30
0.000000
71
65
72
9
73
64
0
VERTEX
8
0
6
CONTINUOUS
62
252
70
128
10
0.000000
20
0.000000
30
0.000000
71
64
72
9
73
10
0
VERTEX
8
0
6
CONTINUOUS
62
252
70
128
10
0.000000
20
0.000000
30
0.000000
71
64
72
10
73
63
0
VERTEX
8
0
6
CONTINUOUS
62
252
70
128
10
0.000000
20
0.000000
30
0.000000
71
63
72
10
73
11
0
VERTEX
8
0
6
CONTINUOUS
62
252
70
128
10
0.000000
20
0.000000
30
0.000000
71
63
72
11
73
62
0
VERTEX
8
0
6
CONTINUOUS
62
252
70
128
10
0.000000
20
0.000000
30
0.000000
71
62
72
11
73
12
0
VERTEX
8
0
6
CONTINUOUS
62
252
70
128
10
0.000000
20
0.000000
30
0.000000
71
62
72
12
73
61
0
VERTEX
8
0
6
CONTINUOUS
62
252
70
128
10
0.000000
20
0.000000
30
0.000000
71
61
72
12
73
13
0
VERTEX
8
0
6
CONTINUOUS
62
252
70
128
10
0.000000
20
0.000000
30
0.000000
71
61
72
13
73
60
0
VERTEX
8
0
6
CONTINUOUS
62
252
70
128
10
0.000000
20
0.000000
30
0.000000
71
60
72
13
73
14
0
VERTEX
8
0
6
CONTINUOUS
62
252
70
128
10
0.000000
20
0.000000
30
0.000000
71
60
72
14
73
59
0
VERTEX
8
0
6
CONTINUOUS
62
252
70
128
10
0.000000
20
0.000000
30
0.000000
71
59
72
14
73
15
0
VERTEX
8
0
6
CONTINUOUS
62
252
70
128
10
0.000000
20
0.000000
30
0.000000
71
59
72
15
73
16
0
VERTEX
8
0
6
CONTINUOUS
62
252
70
128
10
0.000000
20
0.000000
30
0.000000
71
17
72
57
73
16
0
VERTEX
8
0
6
CONTINUOUS
62
252
70
128
10
0.000000
20
0.000000
30
0.000000
71
16
72
57
73
58
0
VERTEX
8
0
6
CONTINUOUS
62
252
70
128
10
0.000000
20
0.000000
30
0.000000
71
16
72
58
73
59
0
VERTEX
8
0
6
CONTINUOUS
62
252
70
128
10
0.000000
20
0.000000
30
0.000000
71
57
72
17
73
56
0
VERTEX
8
0
6
CONTINUOUS
62
252
70
128
10
0.000000
20
0.000000
30
0.000000
71
56
72
17
73
18
0
VERTEX
8
0
6
CONTINUOUS
62
252
70
128
10
0.000000
20
0.000000
30
0.000000
71
56
72
18
73
55
0
VERTEX
8
0
6
CONTINUOUS
62
252
70
128
10
0.000000
20
0.000000
30
0.000000
71
55
72
18
73
19
0
VERTEX
8
0
6
CONTINUOUS
62
252
70
128
10
0.000000
20
0.000000
30
0.000000
71
55
72
19
73
54
0
VERTEX
8
0
6
CONTINUOUS
62
252
70
128
10
0.000000
20
0.000000
30
0.000000
71
54
72
19
73
20
0
VERTEX
8
0
6
CONTINUOUS
62
252
70
128
10
0.000000
20
0.000000
30
0.000000
71
54
72
20
73
21
0
VERTEX
8
0
6
CONTINUOUS
62
252
70
128
10
0.000000
20
0.000000
30
0.000000
71
22
72
52
73
21
0
VERTEX
8
0
6
CONTINUOUS
62
252
70
128
10
0.000000
20
0.000000
30
0.000000
71
21
72
52
73
53
0
VERTEX
8
0
6
CONTINUOUS
62
252
70
128
10
0.000000
20
0.000000
30
0.000000
71
21
72
53
73
54
0
VERTEX
8
0
6
CONTINUOUS
62
252
70
128
10
0.000000
20
0.000000
30
0.000000
71
52
72
22
73
51
0
VERTEX
8
0
6
CONTINUOUS
62
252
70
128
10
0.000000
20
0.000000
30
0.000000
71
51
72
22
73
23
0
VERTEX
8
0
6
CONTINUOUS
62
252
70
128
10
0.000000
20
0.000000
30
0.000000
71
51
72
23
73
50
0
VERTEX
8
0
6
CONTINUOUS
62
252
70
128
10
0.000000
20
0.000000
30
0.000000
71
50
72
23
73
24
0
VERTEX
8
0
6
CONTINUOUS
62
252
70
128
10
0.000000
20
0.000000
30
0.000000
71
50
72
24
73
49
0
VERTEX
8
0
6
CONTINUOUS
62
252
70
128
10
0.000000
20
0.000000
30
0.000000
71
49
72
24
73
25
0
VERTEX
8
0
6
CONTINUOUS
62
252
70
128
10
0.000000
20
0.000000
30
0.000000
71
49
72
25
73
48
0
VERTEX
8
0
6
CONTINUOUS
62
252
70
128
10
0.000000
20
0.000000
30
0.000000
71
48
72
25
73
26
0
VERTEX
8
0
6
CONTINUOUS
62
252
70
128
10
0.000000
20
0.000000
30
0.000000
71
48
72
26
73
47
0
VERTEX
8
0
6
CONTINUOUS
62
252
70
128
10
0.000000
20
0.000000
30
0.000000
71
47
72
26
73
27
0
VERTEX
8
0
6
CONTINUOUS
62
252
70
128
10
0.000000
20
0.000000
30
0.000000
71
47
72
27
73
46
0
VERTEX
8
0
6
CONTINUOUS
62
252
70
128
10
0.000000
20
0.000000
30
0.000000
71
46
72
27
73
28
0
VERTEX
8
0
6
CONTINUOUS
62
252
70
128
10
0.000000
20
0.000000
30
0.000000
71
46
72
28
73
45
0
VERTEX
8
0
6
CONTINUOUS
62
252
70
128
10
0.000000
20
0.000000
30
0.000000
71
45
72
28
73
29
0
VERTEX
8
0
6
CONTINUOUS
62
252
70
128
10
0.000000
20
0.000000
30
0.000000
71
45
72
29
73
44
0
VERTEX
8
0
6
CONTINUOUS
62
252
70
128
10
0.000000
20
0.000000
30
0.000000
71
44
72
29
73
30
0
VERTEX
8
0
6
CONTINUOUS
62
252
70
128
10
0.000000
20
0.000000
30
0.000000
71
44
72
30
73
43
0
VERTEX
8
0
6
CONTINUOUS
62
252
70
128
10
0.000000
20
0.000000
30
0.000000
71
43
72
30
73
31
0
VERTEX
8
0
6
CONTINUOUS
62
252
70
128
10
0.000000
20
0.000000
30
0.000000
71
43
72
31
73
32
0
VERTEX
8
0
6
CONTINUOUS
62
252
70
128
10
0.000000
20
0.000000
30
0.000000
71
33
72
41
73
32
0
VERTEX
8
0
6
CONTINUOUS
62
252
70
128
10
0.000000
20
0.000000
30
0.000000
71
32
72
41
73
42
0
VERTEX
8
0
6
CONTINUOUS
62
252
70
128
10
0.000000
20
0.000000
30
0.000000
71
32
72
42
73
43
0
VERTEX
8
0
6
CONTINUOUS
62
252
70
128
10
0.000000
20
0.000000
30
0.000000
71
41
72
33
73
40
0
VERTEX
8
0
6
CONTINUOUS
62
252
70
128
10
0.000000
20
0.000000
30
0.000000
71
40
72
33
73
34
0
VERTEX
8
0
6
CONTINUOUS
62
252
70
128
10
0.000000
20
0.000000
30
0.000000
71
40
72
34
73
39
0
VERTEX
8
0
6
CONTINUOUS
62
252
70
128
10
0.000000
20
0.000000
30
0.000000
71
39
72
34
73
35
0
VERTEX
8
0
6
CONTINUOUS
62
252
70
128
10
0.000000
20
0.000000
30
0.000000
71
39
72
35
73
38
0
VERTEX
8
0
6
CONTINUOUS
62
252
70
128
10
0.000000
20
0.000000
30
0.000000
71
38
72
35
73
36
0
VERTEX
8
0
6
CONTINUOUS
62
252
70
128
10
0.000000
20
0.000000
30
0.000000
71
38
72
36
73
37
0
SEQEND
0
POLYLINE
66
1
8
0
6
CONTINUOUS
62
252
70
64
75
0
10
0.000000
20
0.000000
30
0.000000
0
VERTEX
8
0
6
CONTINUOUS
62
252
70
192
10
-3.500000
20
61.500000
30
1.600000
0
VERTEX
8
0
6
CONTINUOUS
62
252
70
192
10
-3.500000
20
61.500000
30
-0.000000
0
VERTEX
8
0
6
CONTINUOUS
62
252
70
192
10
-3.500000
20
-3.500000
30
0.000000
0
VERTEX
8
0
6
CONTINUOUS
62
252
70
192
10
-3.500000
20
-3.500000
30
1.600000
0
VERTEX
8
0
6
CONTINUOUS
62
252
70
128
10
0.000000
20
0.000000
30
0.000000
71
2
72
3
73
1
0
VERTEX
8
0
6
CONTINUOUS
62
252
70
128
10
0.000000
20
0.000000
30
0.000000
71
1
72
3
73
4
0
SEQEND
0
POLYLINE
66
1
8
0
6
CONTINUOUS
62
252
70
64
75
0
10
0.000000
20
0.000000
30
0.000000
0
VERTEX
8
0
6
CONTINUOUS
62
252
70
192
10
101.500000
20
61.500000
30
-0.000000
0
VERTEX
8
0
6
CONTINUOUS
62
252
70
192
10
101.500000
20
61.500000
30
1.600000
0
VERTEX
8
0
6
CONTINUOUS
62
252
70
192
10
101.500000
20
-3.500000
30
1.600000
0
VERTEX
8
0
6
CONTINUOUS
62
252
70
192
10
101.500000
20
-3.500000
30
0.000000
0
VERTEX
8
0
6
CONTINUOUS
62
252
70
128
10
0.000000
20
0.000000
30
0.000000
71
2
72
3
73
1
0
VERTEX
8
0
6
CONTINUOUS
62
252
70
128
10
0.000000
20
0.000000
30
0.000000
71
1
72
3
73
4
0
SEQEND
0
POLYLINE
66
1
8
0
6
CONTINUOUS
62
252
70
64
75
0
10
0.000000
20
0.000000
30
0.000000
0
VERTEX
8
0
6
CONTINUOUS
62
252
70
192
10
-3.500000
20
-3.500000
30
0.000000
0
VERTEX
8
0
6
CONTINUOUS
62
252
70
192
10
101.500000
20
-3.500000
30
0.000000
0
VERTEX
8
0
6
CONTINUOUS
62
252
70
192
10
101.500000
20
-3.500000
30
1.600000
0
VERTEX
8
0
6
CONTINUOUS
62
252
70
192
10
71.300000
20
-3.500000
30
1.600000
0
VERTEX
8
0
6
CONTINUOUS
62
252
70
192
10
49.700000
20
-3.500000
30
1.600000
0
VERTEX
8
0
6
CONTINUOUS
62
252
70
192
10
-3.500000
20
-3.500000
30
1.600000
0
VERTEX
8
0
6
CONTINUOUS
62
252
70
128
10
0.000000
20
0.000000
30
0.000000
71
6
72
1
73
5
0
VERTEX
8
0
6
CONTINUOUS
62
252
70
128
10
0.000000
20
0.000000
30
0.000000
71
5
72
1
73
2
0
VERTEX
8
0
6
CONTINUOUS
62
252
70
128
10
0.000000
20
0.000000
30
0.000000
71
5
72
2
73
4
0
VERTEX
8
0
6
CONTINUOUS
62
252
70
128
10
0.000000
20
0.000000
30
0.000000
71
4
72
2
73
3
0
SEQEND
0
POLYLINE
66
1
8
0
6
CONTINUOUS
62
252
70
64
75
0
10
0.000000
20
0.000000
30
0.000000
0
VERTEX
8
0
6
CONTINUOUS
62
252
70
192
10
38.400000
20
2.250000
30
-0.000000
0
VERTEX
8
0
6
CONTINUOUS
62
252
70
192
10
38.096116
20
2.223414
30
-0.000000
0
VERTEX
8
0
6
CONTINUOUS
62
252
70
192
10
37.801465
20
2.144462
30
-0.000000
0
VERTEX
8
0
6
CONTINUOUS
62
252
70
192
10
37.525000
20
2.015544
30
-0.000000
0
VERTEX
8
0
6
CONTINUOUS
62
252
70
192
10
37.275122
20
1.840578
30
-0.000000
0
VERTEX
8
0
6
CONTINUOUS
62
252
70
192
10
37.059422
20
1.624878
30
-0.000000
0
VERTEX
8
0
6
CONTINUOUS
62
252
70
192
10
36.884456
20
1.375000
30
-0.000000
0
VERTEX
8
0
6
CONTINUOUS
62
252
70
192
10
36.755538
20
1.098535
30
-0.000000
0
VERTEX
8
0
6
CONTINUOUS
62
252
70
192
10
36.676586
20
0.803884
30
-0.000000
0
VERTEX
8
0
6
CONTINUOUS
62
252
70
192
10
36.650000
20
0.500000
30
-0.000000
0
VERTEX
8
0
6
CONTINUOUS
62
252
70
192
10
36.676586
20
0.196116
30
-0.000000
0
VERTEX
8
0
6
CONTINUOUS
62
252
70
192
10
36.755538
20
-0.098535
30
-0.000000
0
VERTEX
8
0
6
CONTINUOUS
62
252
70
192
10
36.884456
20
-0.375000
30
-0.000000
0
VERTEX
8
0
6
CONTINUOUS
62
252
70
192
10
37.059422
20
-0.624878
30
-0.000000
0
VERTEX
8
0
6
CONTINUOUS
62
252
70
192
10
37.275122
20
-0.840578
30
-0.000000
0
VERTEX
8
0
6
CONTINUOUS
62
252
70
192
10
37.525000
20
-1.015544
30
-0.000000
0
VERTEX
8
0
6
CONTINUOUS
62
252
70
192
10
37.801465
20
-1.144462
30
-0.000000
0
VERTEX
8
0
6
CONTINUOUS
62
252
70
192
10
38.096116
20
-1.223414
30
-0.000000
0
VERTEX
8
0
6
CONTINUOUS
62
252
70
192
10
38.400000
20
-1.250000
30
-0.000000
0
VERTEX
8
0
6
CONTINUOUS
62
252
70
192
10
38.703884
20
-1.223414
30
-0.000000
0
VERTEX
8
0
6
CONTINUOUS
62
252
70
192
10
38.998535
20
-1.144462
30
-0.000000
0
VERTEX
8
0
6
CONTINUOUS
62
252
70
192
10
39.275000
20
-1.015544
30
-0.000000
0
VERTEX
8
0
6
CONTINUOUS
62
252
70
192
10
39.524878
20
-0.840578
30
-0.000000
0
VERTEX
8
0
6
CONTINUOUS
62
252
70
192
10
39.740578
20
-0.624878
30
-0.000000
0
VERTEX
8
0
6
CONTINUOUS
62
252
70
192
10
39.915544
20
-0.375000
30
-0.000000
0
VERTEX
8
0
6
CONTINUOUS
62
252
70
192
10
40.044462
20
-0.098535
30
-0.000000
0
VERTEX
8
0
6
CONTINUOUS
62
252
70
192
10
40.123414
20
0.196116
30
-0.000000
0
VERTEX
8
0
6
CONTINUOUS
62
252
70
192
10
40.150000
20
0.500000
30
-0.000000
0
VERTEX
8
0
6
CONTINUOUS
62
252
70
192
10
40.123414
20
0.803884
30
-0.000000
0
VERTEX
8
0
6
CONTINUOUS
62
252
70
192
10
40.044462
20
1.098535
30
-0.000000
0
VERTEX
8
0
6
CONTINUOUS
62
252
70
192
10
39.915544
20
1.375000
30
-0.000000
0
VERTEX
8
0
6
CONTINUOUS
62
252
70
192
10
39.740578
20
1.624878
30
-0.000000
0
VERTEX
8
0
6
CONTINUOUS
62
252
70
192
10
39.524878
20
1.840578
30
-0.000000
0
VERTEX
8
0
6
CONTINUOUS
62
252
70
192
10
39.275000
20
2.015544
30
-0.000000
0
VERTEX
8
0
6
CONTINUOUS
62
252
70
192
10
38.998535
20
2.144462
30
-0.000000
0
VERTEX
8
0
6
CONTINUOUS
62
252
70
192
10
38.703884
20
2.223414
30
-0.000000
0
VERTEX
8
0
6
CONTINUOUS
62
252
70
192
10
-0.000000
20
59.750000
30
-0.000000
0
VERTEX
8
0
6
CONTINUOUS
62
252
70
192
10
-0.303884
20
59.723414
30
-0.000000
0
VERTEX
8
0
6
CONTINUOUS
62
252
70
192
10
-0.598535
20
59.644462
30
-0.000000
0
VERTEX
8
0
6
CONTINUOUS
62
252
70
192
10
-0.875000
20
59.515544
30
-0.000000
0
VERTEX
8
0
6
CONTINUOUS
62
252
70
192
10
-1.124878
20
59.340578
30
-0.000000
0
VERTEX
8
0
6
CONTINUOUS
62
252
70
192
10
-1.340578
20
59.124878
30
-0.000000
0
VERTEX
8
0
6
CONTINUOUS
62
252
70
192
10
-1.515544
20
58.875000
30
-0.000000
0
VERTEX
8
0
6
CONTINUOUS
62
252
70
192
10
-1.644462
20
58.598535
30
-0.000000
0
VERTEX
8
0
6
CONTINUOUS
62
252
70
192
10
-1.723414
20
58.303884
30
-0.000000
0
VERTEX
8
0
6
CONTINUOUS
62
252
70
192
10
-1.750000
20
58.000000
30
-0.000000
0
VERTEX
8
0
6
CONTINUOUS
62
252
70
192
10
-1.723414
20
57.696116
30
-0.000000
0
VERTEX
8
0
6
CONTINUOUS
62
252
70
192
10
-1.644462
20
57.401465
30
-0.000000
0
VERTEX
8
0
6
CONTINUOUS
62
252
70
192
10
-1.515544
20
57.125000
30
-0.000000
0
VERTEX
8
0
6
CONTINUOUS
62
252
70
192
10
-1.340578
20
56.875122
30
-0.000000
0
VERTEX
8
0
6
CONTINUOUS
62
252
70
192
10
-1.124878
20
56.659422
30
-0.000000
0
VERTEX
8
0
6
CONTINUOUS
62
252
70
192
10
-0.875000
20
56.484456
30
-0.000000
0
VERTEX
8
0
6
CONTINUOUS
62
252
70
192
10
-0.598535
20
56.355538
30
-0.000000
0
VERTEX
8
0
6
CONTINUOUS
62
252
70
192
10
-0.303884
20
56.276586
30
-0.000000
0
VERTEX
8
0
6
CONTINUOUS
62
252
70
192
10
-0.000000
20
56.250000
30
-0.000000
0
VERTEX
8
0
6
CONTINUOUS
62
252
70
192
10
0.303884
20
56.276586
30
-0.000000
0
VERTEX
8
0
6
CONTINUOUS
62
252
70
192
10
0.598535
20
56.355538
30
-0.000000
0
VERTEX
8
0
6
CONTINUOUS
62
252
70
192
10
0.875000
20
56.484456
30
-0.000000
0
VERTEX
8
0
6
CONTINUOUS
62
252
70
192
10
1.124878
20
56.659422
30
-0.000000
0
VERTEX
8
0
6
CONTINUOUS
62
252
70
192
10
1.340578
20
56.875122
30
-0.000000
0
VERTEX
8
0
6
CONTINUOUS
62
252
70
192
10
1.515544
20
57.125000
30
-0.000000
0
VERTEX
8
0
6
CONTINUOUS
62
252
70
192
10
1.644462
20
57.401465
30
-0.000000
0
VERTEX
8
0
6
CONTINUOUS
62
252
70
192
10
1.723414
20
57.696116
30
-0.000000
0
VERTEX
8
0
6
CONTINUOUS
62
252
70
192
10
1.750000
20
58.000000
30
-0.000000
0
VERTEX
8
0
6
CONTINUOUS
62
252
70
192
10
1.723414
20
58.303884
30
-0.000000
0
VERTEX
8
0
6
CONTINUOUS
62
252
70
192
10
1.644462
20
58.598535
30
-0.000000
0
VERTEX
8
0
6
CONTINUOUS
62
252
70
192
10
1.515544
20
58.875000
30
-0.000000
0
VERTEX
8
0
6
CONTINUOUS
62
252
70
192
10
1.340578
20
59.124878
30
-0.000000
0
VERTEX
8
0
6
CONTINUOUS
62
252
70
192
10
1.124878
20
59.340578
30
-0.000000
0
VERTEX
8
0
6
CONTINUOUS
62
252
70
192
10
0.875000
20
59.515544
30
-0.000000
0
VERTEX
8
0
6
CONTINUOUS
62
252
70
192
10
0.598535
20
59.644462
30
-0.000000
0
VERTEX
8
0
6
CONTINUOUS
62
252
70
192
10
0.303884
20
59.723414
30
-0.000000
0
VERTEX
8
0
6
CONTINUOUS
62
252
70
192
10
98.000000
20
59.750000
30
-0.000000
0
VERTEX
8
0
6
CONTINUOUS
62
252
70
192
10
97.696116
20
59.723414
30
-0.000000
0
VERTEX
8
0
6
CONTINUOUS
62
252
70
192
10
97.401465
20
59.644462
30
-0.000000
0
VERTEX
8
0
6
CONTINUOUS
62
252
70
192
10
97.125000
20
59.515544
30
-0.000000
0
VERTEX
8
0
6
CONTINUOUS
62
252
70
192
10
96.875122
20
59.340578
30
-0.000000
0
VERTEX
8
0
6
CONTINUOUS
62
252
70
192
10
96.659422
20
59.124878
30
-0.000000
0
VERTEX
8
0
6
CONTINUOUS
62
252
70
192
10
96.484456
20
58.875000
30
-0.000000
0
VERTEX
8
0
6
CONTINUOUS
62
252
70
192
10
96.355538
20
58.598535
30
-0.000000
0
VERTEX
8
0
6
CONTINUOUS
62
252
70
192
10
96.276586
20
58.303884
30
-0.000000
0
VERTEX
8
0
6
CONTINUOUS
62
252
70
192
10
96.250000
20
58.000000
30
-0.000000
0
VERTEX
8
0
6
CONTINUOUS
62
252
70
192
10
96.276586
20
57.696116
30
-0.000000
0
VERTEX
8
0
6
CONTINUOUS
62
252
70
192
10
96.355538
20
57.401465
30
-0.000000
0
VERTEX
8
0
6
CONTINUOUS
62
252
70
192
10
96.484456
20
57.125000
30
-0.000000
0
VERTEX
8
0
6
CONTINUOUS
62
252
70
192
10
96.659422
20
56.875122
30
-0.000000
0
VERTEX
8
0
6
CONTINUOUS
62
252
70
192
10
96.875122
20
56.659422
30
-0.000000
0
VERTEX
8
0
6
CONTINUOUS
62
252
70
192
10
97.125000
20
56.484456
30
-0.000000
0
VERTEX
8
0
6
CONTINUOUS
62
252
70
192
10
97.401465
20
56.355538
30
-0.000000
0
VERTEX
8
0
6
CONTINUOUS
62
252
70
192
10
97.696116
20
56.276586
30
-0.000000
0
VERTEX
8
0
6
CONTINUOUS
62
252
70
192
10
98.000000
20
56.250000
30
-0.000000
0
VERTEX
8
0
6
CONTINUOUS
62
252
70
192
10
98.303884
20
56.276586
30
-0.000000
0
VERTEX
8
0
6
CONTINUOUS
62
252
70
192
10
98.598535
20
56.355538
30
-0.000000
0
VERTEX
8
0
6
CONTINUOUS
62
252
70
192
10
98.875000
20
56.484456
30
-0.000000
0
VERTEX
8
0
6
CONTINUOUS
62
252
70
192
10
99.124878
20
56.659422
30
-0.000000
0
VERTEX
8
0
6
CONTINUOUS
62
252
70
192
10
99.340578
20
56.875122
30
-0.000000
0
VERTEX
8
0
6
CONTINUOUS
62
252
70
192
10
99.515544
20
57.125000
30
-0.000000
0
VERTEX
8
0
6
CONTINUOUS
62
252
70
192
10
99.644462
20
57.401465
30
-0.000000
0
VERTEX
8
0
6
CONTINUOUS
62
252
70
192
10
99.723414
20
57.696116
30
-0.000000
0
VERTEX
8
0
6
CONTINUOUS
62
252
70
192
10
99.750000
20
58.000000
30
-0.000000
0
VERTEX
8
0
6
CONTINUOUS
62
252
70
192
10
99.723414
20
58.303884
30
-0.000000
0
VERTEX
8
0
6
CONTINUOUS
62
252
70
192
10
99.644462
20
58.598535
30
-0.000000
0
VERTEX
8
0
6
CONTINUOUS
62
252
70
192
10
99.515544
20
58.875000
30
-0.000000
0
VERTEX
8
0
6
CONTINUOUS
62
252
70
192
10
99.340578
20
59.124878
30
-0.000000
0
VERTEX
8
0
6
CONTINUOUS
62
252
70
192
10
99.124878
20
59.340578
30
-0.000000
0
VERTEX
8
0
6
CONTINUOUS
62
252
70
192
10
98.875000
20
59.515544
30
-0.000000
0
VERTEX
8
0
6
CONTINUOUS
62
252
70
192
10
98.598535
20
59.644462
30
-0.000000
0
VERTEX
8
0
6
CONTINUOUS
62
252
70
192
10
98.303884
20
59.723414
30
-0.000000
0
VERTEX
8
0
6
CONTINUOUS
62
252
70
192
10
-0.000000
20
1.750000
30
-0.000000
0
VERTEX
8
0
6
CONTINUOUS
62
252
70
192
10
-0.303884
20
1.723414
30
-0.000000
0
VERTEX
8
0
6
CONTINUOUS
62
252
70
192
10
-0.598535
20
1.644462
30
-0.000000
0
VERTEX
8
0
6
CONTINUOUS
62
252
70
192
10
-0.875000
20
1.515544
30
-0.000000
0
VERTEX
8
0
6
CONTINUOUS
62
252
70
192
10
-1.124878
20
1.340578
30
-0.000000
0
VERTEX
8
0
6
CONTINUOUS
62
252
70
192
10
-1.340578
20
1.124878
30
-0.000000
0
VERTEX
8
0
6
CONTINUOUS
62
252
70
192
10
-1.515544
20
0.875000
30
-0.000000
0
VERTEX
8
0
6
CONTINUOUS
62
252
70
192
10
-1.644462
20
0.598535
30
-0.000000
0
VERTEX
8
0
6
CONTINUOUS
62
252
70
192
10
-1.723414
20
0.303884
30
-0.000000
0
VERTEX
8
0
6
CONTINUOUS
62
252
70
192
10
-1.750000
20
-0.000000
30
-0.000000
0
VERTEX
8
0
6
CONTINUOUS
62
252
70
192
10
-1.723414
20
-0.303884
30
-0.000000
0
VERTEX
8
0
6
CONTINUOUS
62
252
70
192
10
-1.644462
20
-0.598535
30
-0.000000
0
VERTEX
8
0
6
CONTINUOUS
62
252
70
192
10
-1.515544
20
-0.875000
30
-0.000000
0
VERTEX
8
0
6
CONTINUOUS
62
252
70
192
10
-1.340578
20
-1.124878
30
-0.000000
0
VERTEX
8
0
6
CONTINUOUS
62
252
70
192
10
-1.124878
20
-1.340578
30
-0.000000
0
VERTEX
8
0
6
CONTINUOUS
62
252
70
192
10
-0.875000
20
-1.515544
30
-0.000000
0
VERTEX
8
0
6
CONTINUOUS
62
252
70
192
10
-0.598535
20
-1.644462
30
-0.000000
0
VERTEX
8
0
6
CONTINUOUS
62
252
70
192
10
-0.303884
20
-1.723414
30
-0.000000
0
VERTEX
8
0
6
CONTINUOUS
62
252
70
192
10
0.000000
20
-1.750000
30
-0.000000
0
VERTEX
8
0
6
CONTINUOUS
62
252
70
192
10
0.303884
20
-1.723414
30
-0.000000
0
VERTEX
8
0
6
CONTINUOUS
62
252
70
192
10
0.598535
20
-1.644462
30
-0.000000
0
VERTEX
8
0
6
CONTINUOUS
62
252
70
192
10
0.875000
20
-1.515544
30
-0.000000
0
VERTEX
8
0
6
CONTINUOUS
62
252
70
192
10
1.124878
20
-1.340578
30
-0.000000
0
VERTEX
8
0
6
CONTINUOUS
62
252
70
192
10
1.340578
20
-1.124878
30
-0.000000
0
VERTEX
8
0
6
CONTINUOUS
62
252
70
192
10
1.515544
20
-0.875000
30
-0.000000
0
VERTEX
8
0
6
CONTINUOUS
62
252
70
192
10
1.644462
20
-0.598535
30
-0.000000
0
VERTEX
8
0
6
CONTINUOUS
62
252
70
192
10
1.723414
20
-0.303884
30
-0.000000
0
VERTEX
8
0
6
CONTINUOUS
62
252
70
192
10
1.750000
20
-0.000000
30
-0.000000
0
VERTEX
8
0
6
CONTINUOUS
62
252
70
192
10
1.723414
20
0.303884
30
-0.000000
0
VERTEX
8
0
6
CONTINUOUS
62
252
70
192
10
1.644462
20
0.598535
30
-0.000000
0
VERTEX
8
0
6
CONTINUOUS
62
252
70
192
10
1.515544
20
0.875000
30
-0.000000
0
VERTEX
8
0
6
CONTINUOUS
62
252
70
192
10
1.340578
20
1.124878
30
-0.000000
0
VERTEX
8
0
6
CONTINUOUS
62
252
70
192
10
1.124878
20
1.340578
30
-0.000000
0
VERTEX
8
0
6
CONTINUOUS
62
252
70
192
10
0.875000
20
1.515544
30
-0.000000
0
VERTEX
8
0
6
CONTINUOUS
62
252
70
192
10
0.598535
20
1.644462
30
-0.000000
0
VERTEX
8
0
6
CONTINUOUS
62
252
70
192
10
0.303884
20
1.723414
30
-0.000000
0
VERTEX
8
0
6
CONTINUOUS
62
252
70
192
10
98.000000
20
1.750000
30
-0.000000
0
VERTEX
8
0
6
CONTINUOUS
62
252
70
192
10
97.696116
20
1.723414
30
0.000000
0
VERTEX
8
0
6
CONTINUOUS
62
252
70
192
10
97.401465
20
1.644462
30
0.000000
0
VERTEX
8
0
6
CONTINUOUS
62
252
70
192
10
97.125000
20
1.515544
30
0.000000
0
VERTEX
8
0
6
CONTINUOUS
62
252
70
192
10
96.875122
20
1.340578
30
0.000000
0
VERTEX
8
0
6
CONTINUOUS
62
252
70
192
10
96.659422
20
1.124878
30
0.000000
0
VERTEX
8
0
6
CONTINUOUS
62
252
70
192
10
96.484456
20
0.875000
30
0.000000
0
VERTEX
8
0
6
CONTINUOUS
62
252
70
192
10
96.355538
20
0.598535
30
0.000000
0
VERTEX
8
0
6
CONTINUOUS
62
252
70
192
10
96.276586
20
0.303884
30
0.000000
0
VERTEX
8
0
6
CONTINUOUS
62
252
70
192
10
96.250000
20
-0.000000
30
0.000000
0
VERTEX
8
0
6
CONTINUOUS
62
252
70
192
10
96.276586
20
-0.303884
30
0.000000
0
VERTEX
8
0
6
CONTINUOUS
62
252
70
192
10
96.355538
20
-0.598535
30
0.000000
0
VERTEX
8
0
6
CONTINUOUS
62
252
70
192
10
96.484456
20
-0.875000
30
0.000000
0
VERTEX
8
0
6
CONTINUOUS
62
252
70
192
10
96.659422
20
-1.124878
30
0.000000
0
VERTEX
8
0
6
CONTINUOUS
62
252
70
192
10
96.875122
20
-1.340578
30
0.000000
0
VERTEX
8
0
6
CONTINUOUS
62
252
70
192
10
97.125000
20
-1.515544
30
0.000000
0
VERTEX
8
0
6
CONTINUOUS
62
252
70
192
10
97.401465
20
-1.644462
30
0.000000
0
VERTEX
8
0
6
CONTINUOUS
62
252
70
192
10
97.696116
20
-1.723414
30
0.000000
0
VERTEX
8
0
6
CONTINUOUS
62
252
70
192
10
98.000000
20
-1.750000
30
0.000000
0
VERTEX
8
0
6
CONTINUOUS
62
252
70
192
10
98.303884
20
-1.723414
30
0.000000
0
VERTEX
8
0
6
CONTINUOUS
62
252
70
192
10
98.598535
20
-1.644462
30
0.000000
0
VERTEX
8
0
6
CONTINUOUS
62
252
70
192
10
98.875000
20
-1.515544
30
0.000000
0
VERTEX
8
0
6
CONTINUOUS
62
252
70
192
10
99.124878
20
-1.340578
30
0.000000
0
VERTEX
8
0
6
CONTINUOUS
62
252
70
192
10
99.340578
20
-1.124878
30
0.000000
0
VERTEX
8
0
6
CONTINUOUS
62
252
70
192
10
99.515544
20
-0.875000
30
0.000000
0
VERTEX
8
0
6
CONTINUOUS
62
252
70
192
10
99.644462
20
-0.598535
30
0.000000
0
VERTEX
8
0
6
CONTINUOUS
62
252
70
192
10
99.723414
20
-0.303884
30
0.000000
0
VERTEX
8
0
6
CONTINUOUS
62
252
70
192
10
99.750000
20
-0.000000
30
0.000000
0
VERTEX
8
0
6
CONTINUOUS
62
252
70
192
10
99.723414
20
0.303884
30
0.000000
0
VERTEX
8
0
6
CONTINUOUS
62
252
70
192
10
99.644462
20
0.598535
30
0.000000
0
VERTEX
8
0
6
CONTINUOUS
62
252
70
192
10
99.515544
20
0.875000
30
0.000000
0
VERTEX
8
0
6
CONTINUOUS
62
252
70
192
10
99.340578
20
1.124878
30
0.000000
0
VERTEX
8
0
6
CONTINUOUS
62
252
70
192
10
99.124878
20
1.340578
30
0.000000
0
VERTEX
8
0
6
CONTINUOUS
62
252
70
192
10
98.875000
20
1.515544
30
0.000000
0
VERTEX
8
0
6
CONTINUOUS
62
252
70
192
10
98.598535
20
1.644462
30
0.000000
0
VERTEX
8
0
6
CONTINUOUS
62
252
70
192
10
98.303884
20
1.723414
30
0.000000
0
VERTEX
8
0
6
CONTINUOUS
62
252
70
192
10
-3.500000
20
61.500000
30
-0.000000
0
VERTEX
8
0
6
CONTINUOUS
62
252
70
192
10
101.500000
20
61.500000
30
-0.000000
0
VERTEX
8
0
6
CONTINUOUS
62
252
70
192
10
101.500000
20
-3.500000
30
0.000000
0
VERTEX
8
0
6
CONTINUOUS
62
252
70
192
10
-3.500000
20
-3.500000
30
0.000000
0
VERTEX
8
0
6
CONTINUOUS
62
252
70
128
10
0.000000
20
0.000000
30
0.000000
71
2
72
58
73
1
0
VERTEX
8
0
6
CONTINUOUS
62
252
70
128
10
0.000000
20
0.000000
30
0.000000
71
1
72
58
73
59
0
VERTEX
8
0
6
CONTINUOUS
62
252
70
128
10
0.000000
20
0.000000
30
0.000000
71
1
72
59
73
36
0
VERTEX
8
0
6
CONTINUOUS
62
252
70
128
10
0.000000
20
0.000000
30
0.000000
71
36
72
59
73
87
0
VERTEX
8
0
6
CONTINUOUS
62
252
70
128
10
0.000000
20
0.000000
30
0.000000
71
36
72
87
73
88
0
VERTEX
8
0
6
CONTINUOUS
62
252
70
128
10
0.000000
20
0.000000
30
0.000000
71
3
72
56
73
2
0
VERTEX
8
0
6
CONTINUOUS
62
252
70
128
10
0.000000
20
0.000000
30
0.000000
71
2
72
56
73
57
0
VERTEX
8
0
6
CONTINUOUS
62
252
70
128
10
0.000000
20
0.000000
30
0.000000
71
2
72
57
73
58
0
VERTEX
8
0
6
CONTINUOUS
62
252
70
128
10
0.000000
20
0.000000
30
0.000000
71
4
72
143
73
3
0
VERTEX
8
0
6
CONTINUOUS
62
252
70
128
10
0.000000
20
0.000000
30
0.000000
71
3
72
143
73
144
0
VERTEX
8
0
6
CONTINUOUS
62
252
70
128
10
0.000000
20
0.000000
30
0.000000
71
3
72
144
73
56
0
VERTEX
8
0
6
CONTINUOUS
62
252
70
128
10
0.000000
20
0.000000
30
0.000000
71
56
72
144
73
55
0
VERTEX
8
0
6
CONTINUOUS
62
252
70
128
10
0.000000
20
0.000000
30
0.000000
71
55
72
144
73
109
0
VERTEX
8
0
6
CONTINUOUS
62
252
70
128
10
0.000000
20
0.000000
30
0.000000
71
55
72
109
73
110
0
VERTEX
8
0
6
CONTINUOUS
62
252
70
128
10
0.000000
20
0.000000
30
0.000000
71
143
72
4
73
142
0
VERTEX
8
0
6
CONTINUOUS
62
252
70
128
10
0.000000
20
0.000000
30
0.000000
71
142
72
4
73
5
0
VERTEX
8
0
6
CONTINUOUS
62
252
70
128
10
0.000000
20
0.000000
30
0.000000
71
142
72
5
73
141
0
VERTEX
8
0
6
CONTINUOUS
62
252
70
128
10
0.000000
20
0.000000
30
0.000000
71
141
72
5
73
6
0
VERTEX
8
0
6
CONTINUOUS
62
252
70
128
10
0.000000
20
0.000000
30
0.000000
71
141
72
6
73
140
0
VERTEX
8
0
6
CONTINUOUS
62
252
70
128
10
0.000000
20
0.000000
30
0.000000
71
140
72
6
73
7
0
VERTEX
8
0
6
CONTINUOUS
62
252
70
128
10
0.000000
20
0.000000
30
0.000000
71
140
72
7
73
139
0
VERTEX
8
0
6
CONTINUOUS
62
252
70
128
10
0.000000
20
0.000000
30
0.000000
71
139
72
7
73
8
0
VERTEX
8
0
6
CONTINUOUS
62
252
70
128
10
0.000000
20
0.000000
30
0.000000
71
139
72
8
73
138
0
VERTEX
8
0
6
CONTINUOUS
62
252
70
128
10
0.000000
20
0.000000
30
0.000000
71
138
72
8
73
9
0
VERTEX
8
0
6
CONTINUOUS
62
252
70
128
10
0.000000
20
0.000000
30
0.000000
71
138
72
9
73
137
0
VERTEX
8
0
6
CONTINUOUS
62
252
70
128
10
0.000000
20
0.000000
30
0.000000
71
137
72
9
73
10
0
VERTEX
8
0
6
CONTINUOUS
62
252
70
128
10
0.000000
20
0.000000
30
0.000000
71
137
72
10
73
136
0
VERTEX
8
0
6
CONTINUOUS
62
252
70
128
10
0.000000
20
0.000000
30
0.000000
71
136
72
10
73
11
0
VERTEX
8
0
6
CONTINUOUS
62
252
70
128
10
0.000000
20
0.000000
30
0.000000
71
136
72
11
73
135
0
VERTEX
8
0
6
CONTINUOUS
62
252
70
128
10
0.000000
20
0.000000
30
0.000000
71
135
72
11
73
12
0
VERTEX
8
0
6
CONTINUOUS
62
252
70
128
10
0.000000
20
0.000000
30
0.000000
71
135
72
12
73
134
0
VERTEX
8
0
6
CONTINUOUS
62
252
70
128
10
0.000000
20
0.000000
30
0.000000
71
134
72
12
73
13
0
VERTEX
8
0
6
CONTINUOUS
62
252
70
128
10
0.000000
20
0.000000
30
0.000000
71
134
72
13
73
133
0
VERTEX
8
0
6
CONTINUOUS
62
252
70
128
10
0.000000
20
0.000000
30
0.000000
71
133
72
13
73
14
0
VERTEX
8
0
6
CONTINUOUS
62
252
70
128
10
0.000000
20
0.000000
30
0.000000
71
133
72
14
73
132
0
VERTEX
8
0
6
CONTINUOUS
62
252
70
128
10
0.000000
20
0.000000
30
0.000000
71
132
72
14
73
15
0
VERTEX
8
0
6
CONTINUOUS
62
252
70
128
10
0.000000
20
0.000000
30
0.000000
71
132
72
15
73
131
0
VERTEX
8
0
6
CONTINUOUS
62
252
70
128
10
0.000000
20
0.000000
30
0.000000
71
131
72
15
73
16
0
VERTEX
8
0
6
CONTINUOUS
62
252
70
128
10
0.000000
20
0.000000
30
0.000000
71
131
72
16
73
130
0
VERTEX
8
0
6
CONTINUOUS
62
252
70
128
10
0.000000
20
0.000000
30
0.000000
71
130
72
16
73
17
0
VERTEX
8
0
6
CONTINUOUS
62
252
70
128
10
0.000000
20
0.000000
30
0.000000
71
130
72
17
73
129
0
VERTEX
8
0
6
CONTINUOUS
62
252
70
128
10
0.000000
20
0.000000
30
0.000000
71
129
72
17
73
184
0
VERTEX
8
0
6
CONTINUOUS
62
252
70
128
10
0.000000
20
0.000000
30
0.000000
71
129
72
184
73
128
0
VERTEX
8
0
6
CONTINUOUS
62
252
70
128
10
0.000000
20
0.000000
30
0.000000
71
128
72
184
73
127
0
VERTEX
8
0
6
CONTINUOUS
62
252
70
128
10
0.000000
20
0.000000
30
0.000000
71
127
72
184
73
126
0
VERTEX
8
0
6
CONTINUOUS
62
252
70
128
10
0.000000
20
0.000000
30
0.000000
71
126
72
184
73
125
0
VERTEX
8
0
6
CONTINUOUS
62
252
70
128
10
0.000000
20
0.000000
30
0.000000
71
125
72
184
73
124
0
VERTEX
8
0
6
CONTINUOUS
62
252
70
128
10
0.000000
20
0.000000
30
0.000000
71
124
72
184
73
123
0
VERTEX
8
0
6
CONTINUOUS
62
252
70
128
10
0.000000
20
0.000000
30
0.000000
71
123
72
184
73
122
0
VERTEX
8
0
6
CONTINUOUS
62
252
70
128
10
0.000000
20
0.000000
30
0.000000
71
122
72
184
73
121
0
VERTEX
8
0
6
CONTINUOUS
62
252
70
128
10
0.000000
20
0.000000
30
0.000000
71
121
72
184
73
120
0
VERTEX
8
0
6
CONTINUOUS
62
252
70
128
10
0.000000
20
0.000000
30
0.000000
71
120
72
184
73
119
0
VERTEX
8
0
6
CONTINUOUS
62
252
70
128
10
0.000000
20
0.000000
30
0.000000
71
119
72
184
73
118
0
VERTEX
8
0
6
CONTINUOUS
62
252
70
128
10
0.000000
20
0.000000
30
0.000000
71
118
72
184
73
117
0
VERTEX
8
0
6
CONTINUOUS
62
252
70
128
10
0.000000
20
0.000000
30
0.000000
71
117
72
184
73
116
0
VERTEX
8
0
6
CONTINUOUS
62
252
70
128
10
0.000000
20
0.000000
30
0.000000
71
116
72
184
73
48
0
VERTEX
8
0
6
CONTINUOUS
62
252
70
128
10
0.000000
20
0.000000
30
0.000000
71
116
72
48
73
115
0
VERTEX
8
0
6
CONTINUOUS
62
252
70
128
10
0.000000
20
0.000000
30
0.000000
71
115
72
48
73
49
0
VERTEX
8
0
6
CONTINUOUS
62
252
70
128
10
0.000000
20
0.000000
30
0.000000
71
115
72
49
73
50
0
VERTEX
8
0
6
CONTINUOUS
62
252
70
128
10
0.000000
20
0.000000
30
0.000000
71
17
72
18
73
184
0
VERTEX
8
0
6
CONTINUOUS
62
252
70
128
10
0.000000
20
0.000000
30
0.000000
71
184
72
18
73
19
0
VERTEX
8
0
6
CONTINUOUS
62
252
70
128
10
0.000000
20
0.000000
30
0.000000
71
184
72
19
73
183
0
VERTEX
8
0
6
CONTINUOUS
62
252
70
128
10
0.000000
20
0.000000
30
0.000000
71
183
72
19
73
20
0
VERTEX
8
0
6
CONTINUOUS
62
252
70
128
10
0.000000
20
0.000000
30
0.000000
71
183
72
20
73
21
0
VERTEX
8
0
6
CONTINUOUS
62
252
70
128
10
0.000000
20
0.000000
30
0.000000
71
22
72
160
73
21
0
VERTEX
8
0
6
CONTINUOUS
62
252
70
128
10
0.000000
20
0.000000
30
0.000000
71
21
72
160
73
161
0
VERTEX
8
0
6
CONTINUOUS
62
252
70
128
10
0.000000
20
0.000000
30
0.000000
71
21
72
161
73
183
0
VERTEX
8
0
6
CONTINUOUS
62
252
70
128
10
0.000000
20
0.000000
30
0.000000
71
183
72
161
73
162
0
VERTEX
8
0
6
CONTINUOUS
62
252
70
128
10
0.000000
20
0.000000
30
0.000000
71
183
72
162
73
163
0
VERTEX
8
0
6
CONTINUOUS
62
252
70
128
10
0.000000
20
0.000000
30
0.000000
71
160
72
22
73
159
0
VERTEX
8
0
6
CONTINUOUS
62
252
70
128
10
0.000000
20
0.000000
30
0.000000
71
159
72
22
73
23
0
VERTEX
8
0
6
CONTINUOUS
62
252
70
128
10
0.000000
20
0.000000
30
0.000000
71
159
72
23
73
158
0
VERTEX
8
0
6
CONTINUOUS
62
252
70
128
10
0.000000
20
0.000000
30
0.000000
71
158
72
23
73
24
0
VERTEX
8
0
6
CONTINUOUS
62
252
70
128
10
0.000000
20
0.000000
30
0.000000
71
158
72
24
73
157
0
VERTEX
8
0
6
CONTINUOUS
62
252
70
128
10
0.000000
20
0.000000
30
0.000000
71
157
72
24
73
25
0
VERTEX
8
0
6
CONTINUOUS
62
252
70
128
10
0.000000
20
0.000000
30
0.000000
71
157
72
25
73
156
0
VERTEX
8
0
6
CONTINUOUS
62
252
70
128
10
0.000000
20
0.000000
30
0.000000
71
156
72
25
73
26
0
VERTEX
8
0
6
CONTINUOUS
62
252
70
128
10
0.000000
20
0.000000
30
0.000000
71
156
72
26
73
155
0
VERTEX
8
0
6
CONTINUOUS
62
252
70
128
10
0.000000
20
0.000000
30
0.000000
71
155
72
26
73
27
0
VERTEX
8
0
6
CONTINUOUS
62
252
70
128
10
0.000000
20
0.000000
30
0.000000
71
155
72
27
73
154
0
VERTEX
8
0
6
CONTINUOUS
62
252
70
128
10
0.000000
20
0.000000
30
0.000000
71
154
72
27
73
28
0
VERTEX
8
0
6
CONTINUOUS
62
252
70
128
10
0.000000
20
0.000000
30
0.000000
71
154
72
28
73
153
0
VERTEX
8
0
6
CONTINUOUS
62
252
70
128
10
0.000000
20
0.000000
30
0.000000
71
153
72
28
73
29
0
VERTEX
8
0
6
CONTINUOUS
62
252
70
128
10
0.000000
20
0.000000
30
0.000000
71
153
72
29
73
152
0
VERTEX
8
0
6
CONTINUOUS
62
252
70
128
10
0.000000
20
0.000000
30
0.000000
71
152
72
29
73
30
0
VERTEX
8
0
6
CONTINUOUS
62
252
70
128
10
0.000000
20
0.000000
30
0.000000
71
152
72
30
73
151
0
VERTEX
8
0
6
CONTINUOUS
62
252
70
128
10
0.000000
20
0.000000
30
0.000000
71
151
72
30
73
31
0
VERTEX
8
0
6
CONTINUOUS
62
252
70
128
10
0.000000
20
0.000000
30
0.000000
71
151
72
31
73
150
0
VERTEX
8
0
6
CONTINUOUS
62
252
70
128
10
0.000000
20
0.000000
30
0.000000
71
150
72
31
73
32
0
VERTEX
8
0
6
CONTINUOUS
62
252
70
128
10
0.000000
20
0.000000
30
0.000000
71
150
72
32
73
149
0
VERTEX
8
0
6
CONTINUOUS
62
252
70
128
10
0.000000
20
0.000000
30
0.000000
71
149
72
32
73
33
0
VERTEX
8
0
6
CONTINUOUS
62
252
70
128
10
0.000000
20
0.000000
30
0.000000
71
149
72
33
73
148
0
VERTEX
8
0
6
CONTINUOUS
62
252
70
128
10
0.000000
20
0.000000
30
0.000000
71
148
72
33
73
34
0
VERTEX
8
0
6
CONTINUOUS
62
252
70
128
10
0.000000
20
0.000000
30
0.000000
71
148
72
34
73
147
0
VERTEX
8
0
6
CONTINUOUS
62
252
70
128
10
0.000000
20
0.000000
30
0.000000
71
147
72
34
73
35
0
VERTEX
8
0
6
CONTINUOUS
62
252
70
128
10
0.000000
20
0.000000
30
0.000000
71
147
72
35
73
89
0
VERTEX
8
0
6
CONTINUOUS
62
252
70
128
10
0.000000
20
0.000000
30
0.000000
71
89
72
35
73
88
0
VERTEX
8
0
6
CONTINUOUS
62
252
70
128
10
0.000000
20
0.000000
30
0.000000
71
88
72
35
73
36
0
VERTEX
8
0
6
CONTINUOUS
62
252
70
128
10
0.000000
20
0.000000
30
0.000000
71
72
72
37
73
181
0
VERTEX
8
0
6
CONTINUOUS
62
252
70
128
10
0.000000
20
0.000000
30
0.000000
71
181
72
37
73
38
0
VERTEX
8
0
6
CONTINUOUS
62
252
70
128
10
0.000000
20
0.000000
30
0.000000
71
181
72
38
73
39
0
VERTEX
8
0
6
CONTINUOUS
62
252
70
128
10
0.000000
20
0.000000
30
0.000000
71
39
72
40
73
181
0
VERTEX
8
0
6
CONTINUOUS
62
252
70
128
10
0.000000
20
0.000000
30
0.000000
71
181
72
40
73
41
0
VERTEX
8
0
6
CONTINUOUS
62
252
70
128
10
0.000000
20
0.000000
30
0.000000
71
181
72
41
73
42
0
VERTEX
8
0
6
CONTINUOUS
62
252
70
128
10
0.000000
20
0.000000
30
0.000000
71
42
72
43
73
181
0
VERTEX
8
0
6
CONTINUOUS
62
252
70
128
10
0.000000
20
0.000000
30
0.000000
71
181
72
43
73
44
0
VERTEX
8
0
6
CONTINUOUS
62
252
70
128
10
0.000000
20
0.000000
30
0.000000
71
181
72
44
73
45
0
VERTEX
8
0
6
CONTINUOUS
62
252
70
128
10
0.000000
20
0.000000
30
0.000000
71
45
72
46
73
181
0
VERTEX
8
0
6
CONTINUOUS
62
252
70
128
10
0.000000
20
0.000000
30
0.000000
71
181
72
46
73
47
0
VERTEX
8
0
6
CONTINUOUS
62
252
70
128
10
0.000000
20
0.000000
30
0.000000
71
181
72
47
73
48
0
VERTEX
8
0
6
CONTINUOUS
62
252
70
128
10
0.000000
20
0.000000
30
0.000000
71
51
72
113
73
50
0
VERTEX
8
0
6
CONTINUOUS
62
252
70
128
10
0.000000
20
0.000000
30
0.000000
71
50
72
113
73
114
0
VERTEX
8
0
6
CONTINUOUS
62
252
70
128
10
0.000000
20
0.000000
30
0.000000
71
50
72
114
73
115
0
VERTEX
8
0
6
CONTINUOUS
62
252
70
128
10
0.000000
20
0.000000
30
0.000000
71
51
72
52
73
113
0
VERTEX
8
0
6
CONTINUOUS
62
252
70
128
10
0.000000
20
0.000000
30
0.000000
71
113
72
52
73
112
0
VERTEX
8
0
6
CONTINUOUS
62
252
70
128
10
0.000000
20
0.000000
30
0.000000
71
112
72
52
73
53
0
VERTEX
8
0
6
CONTINUOUS
62
252
70
128
10
0.000000
20
0.000000
30
0.000000
71
112
72
53
73
111
0
VERTEX
8
0
6
CONTINUOUS
62
252
70
128
10
0.000000
20
0.000000
30
0.000000
71
111
72
53
73
54
0
VERTEX
8
0
6
CONTINUOUS
62
252
70
128
10
0.000000
20
0.000000
30
0.000000
71
111
72
54
73
110
0
VERTEX
8
0
6
CONTINUOUS
62
252
70
128
10
0.000000
20
0.000000
30
0.000000
71
110
72
54
73
55
0
VERTEX
8
0
6
CONTINUOUS
62
252
70
128
10
0.000000
20
0.000000
30
0.000000
71
59
72
60
73
87
0
VERTEX
8
0
6
CONTINUOUS
62
252
70
128
10
0.000000
20
0.000000
30
0.000000
71
87
72
60
73
86
0
VERTEX
8
0
6
CONTINUOUS
62
252
70
128
10
0.000000
20
0.000000
30
0.000000
71
86
72
60
73
61
0
VERTEX
8
0
6
CONTINUOUS
62
252
70
128
10
0.000000
20
0.000000
30
0.000000
71
86
72
61
73
85
0
VERTEX
8
0
6
CONTINUOUS
62
252
70
128
10
0.000000
20
0.000000
30
0.000000
71
85
72
61
73
62
0
VERTEX
8
0
6
CONTINUOUS
62
252
70
128
10
0.000000
20
0.000000
30
0.000000
71
85
72
62
73
84
0
VERTEX
8
0
6
CONTINUOUS
62
252
70
128
10
0.000000
20
0.000000
30
0.000000
71
84
72
62
73
63
0
VERTEX
8
0
6
CONTINUOUS
62
252
70
128
10
0.000000
20
0.000000
30
0.000000
71
84
72
63
73
83
0
VERTEX
8
0
6
CONTINUOUS
62
252
70
128
10
0.000000
20
0.000000
30
0.000000
71
83
72
63
73
64
0
VERTEX
8
0
6
CONTINUOUS
62
252
70
128
10
0.000000
20
0.000000
30
0.000000
71
83
72
64
73
82
0
VERTEX
8
0
6
CONTINUOUS
62
252
70
128
10
0.000000
20
0.000000
30
0.000000
71
82
72
64
73
81
0
VERTEX
8
0
6
CONTINUOUS
62
252
70
128
10
0.000000
20
0.000000
30
0.000000
71
81
72
64
73
65
0
VERTEX
8
0
6
CONTINUOUS
62
252
70
128
10
0.000000
20
0.000000
30
0.000000
71
81
72
65
73
66
0
VERTEX
8
0
6
CONTINUOUS
62
252
70
128
10
0.000000
20
0.000000
30
0.000000
71
81
72
66
73
80
0
VERTEX
8
0
6
CONTINUOUS
62
252
70
128
10
0.000000
20
0.000000
30
0.000000
71
80
72
66
73
67
0
VERTEX
8
0
6
CONTINUOUS
62
252
70
128
10
0.000000
20
0.000000
30
0.000000
71
80
72
67
73
79
0
VERTEX
8
0
6
CONTINUOUS
62
252
70
128
10
0.000000
20
0.000000
30
0.000000
71
79
72
67
73
68
0
VERTEX
8
0
6
CONTINUOUS
62
252
70
128
10
0.000000
20
0.000000
30
0.000000
71
79
72
68
73
78
0
VERTEX
8
0
6
CONTINUOUS
62
252
70
128
10
0.000000
20
0.000000
30
0.000000
71
78
72
68
73
77
0
VERTEX
8
0
6
CONTINUOUS
62
252
70
128
10
0.000000
20
0.000000
30
0.000000
71
77
72
68
73
69
0
VERTEX
8
0
6
CONTINUOUS
62
252
70
128
10
0.000000
20
0.000000
30
0.000000
71
77
72
69
73
70
0
VERTEX
8
0
6
CONTINUOUS
62
252
70
128
10
0.000000
20
0.000000
30
0.000000
71
77
72
70
73
76
0
VERTEX
8
0
6
CONTINUOUS
62
252
70
128
10
0.000000
20
0.000000
30
0.000000
71
76
72
70
73
71
0
VERTEX
8
0
6
CONTINUOUS
62
252
70
128
10
0.000000
20
0.000000
30
0.000000
71
76
72
71
73
75
0
VERTEX
8
0
6
CONTINUOUS
62
252
70
128
10
0.000000
20
0.000000
30
0.000000
71
75
72
71
73
181
0
VERTEX
8
0
6
CONTINUOUS
62
252
70
128
10
0.000000
20
0.000000
30
0.000000
71
75
72
181
73
182
0
VERTEX
8
0
6
CONTINUOUS
62
252
70
128
10
0.000000
20
0.000000
30
0.000000
71
71
72
72
73
181
0
VERTEX
8
0
6
CONTINUOUS
62
252
70
128
10
0.000000
20
0.000000
30
0.000000
71
108
72
73
73
182
0
VERTEX
8
0
6
CONTINUOUS
62
252
70
128
10
0.000000
20
0.000000
30
0.000000
71
182
72
73
73
74
0
VERTEX
8
0
6
CONTINUOUS
62
252
70
128
10
0.000000
20
0.000000
30
0.000000
71
182
72
74
73
75
0
VERTEX
8
0
6
CONTINUOUS
62
252
70
128
10
0.000000
20
0.000000
30
0.000000
71
147
72
89
73
146
0
VERTEX
8
0
6
CONTINUOUS
62
252
70
128
10
0.000000
20
0.000000
30
0.000000
71
146
72
89
73
90
0
VERTEX
8
0
6
CONTINUOUS
62
252
70
128
10
0.000000
20
0.000000
30
0.000000
71
146
72
90
73
145
0
VERTEX
8
0
6
CONTINUOUS
62
252
70
128
10
0.000000
20
0.000000
30
0.000000
71
145
72
90
73
91
0
VERTEX
8
0
6
CONTINUOUS
62
252
70
128
10
0.000000
20
0.000000
30
0.000000
71
145
72
91
73
92
0
VERTEX
8
0
6
CONTINUOUS
62
252
70
128
10
0.000000
20
0.000000
30
0.000000
71
93
72
179
73
92
0
VERTEX
8
0
6
CONTINUOUS
62
252
70
128
10
0.000000
20
0.000000
30
0.000000
71
92
72
179
73
180
0
VERTEX
8
0
6
CONTINUOUS
62
252
70
128
10
0.000000
20
0.000000
30
0.000000
71
92
72
180
73
145
0
VERTEX
8
0
6
CONTINUOUS
62
252
70
128
10
0.000000
20
0.000000
30
0.000000
71
179
72
93
73
178
0
VERTEX
8
0
6
CONTINUOUS
62
252
70
128
10
0.000000
20
0.000000
30
0.000000
71
178
72
93
73
94
0
VERTEX
8
0
6
CONTINUOUS
62
252
70
128
10
0.000000
20
0.000000
30
0.000000
71
178
72
94
73
95
0
VERTEX
8
0
6
CONTINUOUS
62
252
70
128
10
0.000000
20
0.000000
30
0.000000
71
178
72
95
73
177
0
VERTEX
8
0
6
CONTINUOUS
62
252
70
128
10
0.000000
20
0.000000
30
0.000000
71
177
72
95
73
96
0
VERTEX
8
0
6
CONTINUOUS
62
252
70
128
10
0.000000
20
0.000000
30
0.000000
71
177
72
96
73
176
0
VERTEX
8
0
6
CONTINUOUS
62
252
70
128
10
0.000000
20
0.000000
30
0.000000
71
176
72
96
73
175
0
VERTEX
8
0
6
CONTINUOUS
62
252
70
128
10
0.000000
20
0.000000
30
0.000000
71
175
72
96
73
97
0
VERTEX
8
0
6
CONTINUOUS
62
252
70
128
10
0.000000
20
0.000000
30
0.000000
71
175
72
97
73
98
0
VERTEX
8
0
6
CONTINUOUS
62
252
70
128
10
0.000000
20
0.000000
30
0.000000
71
99
72
182
73
98
0
VERTEX
8
0
6
CONTINUOUS
62
252
70
128
10
0.000000
20
0.000000
30
0.000000
71
98
72
182
73
174
0
VERTEX
8
0
6
CONTINUOUS
62
252
70
128
10
0.000000
20
0.000000
30
0.000000
71
98
72
174
73
175
0
VERTEX
8
0
6
CONTINUOUS
62
252
70
128
10
0.000000
20
0.000000
30
0.000000
71
99
72
100
73
182
0
VERTEX
8
0
6
CONTINUOUS
62
252
70
128
10
0.000000
20
0.000000
30
0.000000
71
182
72
100
73
101
0
VERTEX
8
0
6
CONTINUOUS
62
252
70
128
10
0.000000
20
0.000000
30
0.000000
71
182
72
101
73
102
0
VERTEX
8
0
6
CONTINUOUS
62
252
70
128
10
0.000000
20
0.000000
30
0.000000
71
102
72
103
73
182
0
VERTEX
8
0
6
CONTINUOUS
62
252
70
128
10
0.000000
20
0.000000
30
0.000000
71
182
72
103
73
104
0
VERTEX
8
0
6
CONTINUOUS
62
252
70
128
10
0.000000
20
0.000000
30
0.000000
71
182
72
104
73
105
0
VERTEX
8
0
6
CONTINUOUS
62
252
70
128
10
0.000000
20
0.000000
30
0.000000
71
105
72
106
73
182
0
VERTEX
8
0
6
CONTINUOUS
62
252
70
128
10
0.000000
20
0.000000
30
0.000000
71
182
72
106
73
107
0
VERTEX
8
0
6
CONTINUOUS
62
252
70
128
10
0.000000
20
0.000000
30
0.000000
71
182
72
107
73
108
0
VERTEX
8
0
6
CONTINUOUS
62
252
70
128
10
0.000000
20
0.000000
30
0.000000
71
163
72
164
73
183
0
VERTEX
8
0
6
CONTINUOUS
62
252
70
128
10
0.000000
20
0.000000
30
0.000000
71
183
72
164
73
165
0
VERTEX
8
0
6
CONTINUOUS
62
252
70
128
10
0.000000
20
0.000000
30
0.000000
71
183
72
165
73
166
0
VERTEX
8
0
6
CONTINUOUS
62
252
70
128
10
0.000000
20
0.000000
30
0.000000
71
166
72
167
73
183
0
VERTEX
8
0
6
CONTINUOUS
62
252
70
128
10
0.000000
20
0.000000
30
0.000000
71
183
72
167
73
168
0
VERTEX
8
0
6
CONTINUOUS
62
252
70
128
10
0.000000
20
0.000000
30
0.000000
71
183
72
168
73
169
0
VERTEX
8
0
6
CONTINUOUS
62
252
70
128
10
0.000000
20
0.000000
30
0.000000
71
169
72
170
73
183
0
VERTEX
8
0
6
CONTINUOUS
62
252
70
128
10
0.000000
20
0.000000
30
0.000000
71
183
72
170
73
171
0
VERTEX
8
0
6
CONTINUOUS
62
252
70
128
10
0.000000
20
0.000000
30
0.000000
71
183
72
171
73
172
0
VERTEX
8
0
6
CONTINUOUS
62
252
70
128
10
0.000000
20
0.000000
30
0.000000
71
172
72
173
73
183
0
VERTEX
8
0
6
CONTINUOUS
62
252
70
128
10
0.000000
20
0.000000
30
0.000000
71
183
72
173
73
174
0
VERTEX
8
0
6
CONTINUOUS
62
252
70
128
10
0.000000
20
0.000000
30
0.000000
71
183
72
174
73
182
0
VERTEX
8
0
6
CONTINUOUS
62
252
70
128
10
0.000000
20
0.000000
30
0.000000
71
184
72
181
73
48
0
SEQEND
0
POLYLINE
66
1
8
0
6
CONTINUOUS
62
252
70
64
75
0
10
0.000000
20
0.000000
30
0.000000
0
VERTEX
8
0
6
CONTINUOUS
62
252
70
192
10
-3.500000
20
61.500000
30
1.600000
0
VERTEX
8
0
6
CONTINUOUS
62
252
70
192
10
101.500000
20
61.500000
30
1.600000
0
VERTEX
8
0
6
CONTINUOUS
62
252
70
192
10
101.500000
20
61.500000
30
-0.000000
0
VERTEX
8
0
6
CONTINUOUS
62
252
70
192
10
-3.500000
20
61.500000
30
-0.000000
0
VERTEX
8
0
6
CONTINUOUS
62
252
70
128
10
0.000000
20
0.000000
30
0.000000
71
1
72
2
73
4
0
VERTEX
8
0
6
CONTINUOUS
62
252
70
128
10
0.000000
20
0.000000
30
0.000000
71
4
72
2
73
3
0
SEQEND
0
ENDSEC
0
EOF
