0
SECTION
2
HEADER
9
$ACADVER
1
AC1009
9
$INSBASE
10
0.0
20
0.0
30
0.0
9
$EXTMIN
10
0.000000
20
0.000000
30
0.000000
9
$EXTMAX
10
0.000000
20
0.000000
30
0.000000
9
$UCSORG
10
0.0
20
0.0
30
0.0
9
$UCSXDIR
10
1.0
20
0.0
30
0.0
9
$UCSYDIR
10
0.0
20
1.0
30
0.0
9
$CLAYER
8
0
9
$SHADEDGE
70
3
0
ENDSEC
0
SECTION
2
TABLES
0
TABLE
2
LTYPE
70
2
0
LTYPE
2
CONTINUOUS
70
0
3
Solid line
72
65
73
0
40
0.0
0
ENDTAB
0
TABLE
2
LAYER
70
5
0
LAYER
2
0
70
0
62
7
6
CONTINUOUS
0
ENDTAB
0
TABLE
2
APPID
70
1
0
APPID
2
ACAD
70
64
0
ENDTAB
0
ENDSEC
0
SECTION
2
BLOCKS
0
ENDSEC
0
SECTION
2
ENTITIES
0
POLYLINE
66
1
8
0
6
CONTINUOUS
62
252
70
64
75
0
10
0.000000
20
0.000000
30
0.000000
0
VERTEX
8
0
6
CONTINUOUS
62
252
70
192
10
0.001000
20
-6.000000
30
29.099965
0
VERTEX
8
0
6
CONTINUOUS
62
252
70
192
10
0.000000
20
-6.000000
30
29.100000
0
VERTEX
8
0
6
CONTINUOUS
62
252
70
192
10
0.000000
20
-6.000000
30
30.300000
0
VERTEX
8
0
6
CONTINUOUS
62
252
70
192
10
0.001000
20
-6.000000
30
30.300000
0
VERTEX
8
0
6
CONTINUOUS
62
252
70
128
10
0.000000
20
0.000000
30
0.000000
71
1
72
2
73
4
0
VERTEX
8
0
6
CONTINUOUS
62
252
70
128
10
0.000000
20
0.000000
30
0.000000
71
4
72
2
73
3
0
SEQEND
0
POLYLINE
66
1
8
0
6
CONTINUOUS
62
252
70
64
75
0
10
0.000000
20
0.000000
30
0.000000
0
VERTEX
8
0
6
CONTINUOUS
62
252
70
192
10
0.000000
20
6.000000
30
29.100000
0
VERTEX
8
0
6
CONTINUOUS
62
252
70
192
10
0.001000
20
6.000000
30
29.099965
0
VERTEX
8
0
6
CONTINUOUS
62
252
70
192
10
0.001000
20
6.000000
30
30.300000
0
VERTEX
8
0
6
CONTINUOUS
62
252
70
192
10
0.000000
20
6.000000
30
30.300000
0
VERTEX
8
0
6
CONTINUOUS
62
252
70
128
10
0.000000
20
0.000000
30
0.000000
71
2
72
3
73
1
0
VERTEX
8
0
6
CONTINUOUS
62
252
70
128
10
0.000000
20
0.000000
30
0.000000
71
1
72
3
73
4
0
SEQEND
0
POLYLINE
66
1
8
0
6
CONTINUOUS
62
252
70
64
75
0
10
0.000000
20
0.000000
30
0.000000
0
VERTEX
8
0
6
CONTINUOUS
62
252
70
192
10
0.001000
20
6.000000
30
29.099965
0
VERTEX
8
0
6
CONTINUOUS
62
252
70
192
10
0.001000
20
-6.000000
30
29.099965
0
VERTEX
8
0
6
CONTINUOUS
62
252
70
192
10
0.001000
20
-6.000000
30
30.300000
0
VERTEX
8
0
6
CONTINUOUS
62
252
70
192
10
0.001000
20
6.000000
30
30.300000
0
VERTEX
8
0
6
CONTINUOUS
62
252
70
128
10
0.000000
20
0.000000
30
0.000000
71
2
72
3
73
1
0
VERTEX
8
0
6
CONTINUOUS
62
252
70
128
10
0.000000
20
0.000000
30
0.000000
71
1
72
3
73
4
0
SEQEND
0
POLYLINE
66
1
8
0
6
CONTINUOUS
62
252
70
64
75
0
10
0.000000
20
0.000000
30
0.000000
0
VERTEX
8
0
6
CONTINUOUS
62
252
70
192
10
0.000000
20
6.000000
30
30.300000
0
VERTEX
8
0
6
CONTINUOUS
62
252
70
192
10
0.001000
20
6.000000
30
30.300000
0
VERTEX
8
0
6
CONTINUOUS
62
252
70
192
10
0.001000
20
-6.000000
30
30.300000
0
VERTEX
8
0
6
CONTINUOUS
62
252
70
192
10
0.000000
20
-6.000000
30
30.300000
0
VERTEX
8
0
6
CONTINUOUS
62
252
70
192
10
-0.000000
20
-24.836100
30
30.300000
0
VERTEX
8
0
6
CONTINUOUS
62
252
70
192
10
1.200000
20
-24.836100
30
30.300000
0
VERTEX
8
0
6
CONTINUOUS
62
252
70
192
10
1.200000
20
-23.936039
30
30.300000
0
VERTEX
8
0
6
CONTINUOUS
62
252
70
192
10
1.700000
20
-23.936039
30
30.300000
0
VERTEX
8
0
6
CONTINUOUS
62
252
70
192
10
1.700000
20
-12.633500
30
30.300000
0
VERTEX
8
0
6
CONTINUOUS
62
252
70
192
10
1.700000
20
12.633500
30
30.300000
0
VERTEX
8
0
6
CONTINUOUS
62
252
70
192
10
1.700000
20
23.936039
30
30.300000
0
VERTEX
8
0
6
CONTINUOUS
62
252
70
192
10
1.200000
20
23.936039
30
30.300000
0
VERTEX
8
0
6
CONTINUOUS
62
252
70
192
10
1.200000
20
24.836100
30
30.300000
0
VERTEX
8
0
6
CONTINUOUS
62
252
70
192
10
-0.000000
20
24.836100
30
30.300000
0
VERTEX
8
0
6
CONTINUOUS
62
252
70
128
10
0.000000
20
0.000000
30
0.000000
71
1
72
2
73
14
0
VERTEX
8
0
6
CONTINUOUS
62
252
70
128
10
0.000000
20
0.000000
30
0.000000
71
14
72
2
73
12
0
VERTEX
8
0
6
CONTINUOUS
62
252
70
128
10
0.000000
20
0.000000
30
0.000000
71
14
72
12
73
13
0
VERTEX
8
0
6
CONTINUOUS
62
252
70
128
10
0.000000
20
0.000000
30
0.000000
71
2
72
3
73
12
0
VERTEX
8
0
6
CONTINUOUS
62
252
70
128
10
0.000000
20
0.000000
30
0.000000
71
12
72
3
73
10
0
VERTEX
8
0
6
CONTINUOUS
62
252
70
128
10
0.000000
20
0.000000
30
0.000000
71
12
72
10
73
11
0
VERTEX
8
0
6
CONTINUOUS
62
252
70
128
10
0.000000
20
0.000000
30
0.000000
71
4
72
5
73
3
0
VERTEX
8
0
6
CONTINUOUS
62
252
70
128
10
0.000000
20
0.000000
30
0.000000
71
3
72
5
73
7
0
VERTEX
8
0
6
CONTINUOUS
62
252
70
128
10
0.000000
20
0.000000
30
0.000000
71
3
72
7
73
9
0
VERTEX
8
0
6
CONTINUOUS
62
252
70
128
10
0.000000
20
0.000000
30
0.000000
71
9
72
7
73
8
0
VERTEX
8
0
6
CONTINUOUS
62
252
70
128
10
0.000000
20
0.000000
30
0.000000
71
5
72
6
73
7
0
VERTEX
8
0
6
CONTINUOUS
62
252
70
128
10
0.000000
20
0.000000
30
0.000000
71
9
72
10
73
3
0
SEQEND
0
POLYLINE
66
1
8
0
6
CONTINUOUS
62
252
70
64
75
0
10
0.000000
20
0.000000
30
0.000000
0
VERTEX
8
0
6
CONTINUOUS
62
252
70
192
10
28.700000
20
-0.000000
30
7.000000
0
VERTEX
8
0
6
CONTINUOUS
62
252
70
192
10
28.700000
20
1.215537
30
6.893654
0
VERTEX
8
0
6
CONTINUOUS
62
252
70
192
10
28.700000
20
2.394141
30
6.577848
0
VERTEX
8
0
6
CONTINUOUS
62
252
70
192
10
28.700000
20
3.500000
30
6.062178
0
VERTEX
8
0
6
CONTINUOUS
62
252
70
192
10
28.700000
20
4.499513
30
5.362311
0
VERTEX
8
0
6
CONTINUOUS
62
252
70
192
10
28.700000
20
5.362311
30
4.499513
0
VERTEX
8
0
6
CONTINUOUS
62
252
70
192
10
28.700000
20
6.062178
30
3.500000
0
VERTEX
8
0
6
CONTINUOUS
62
252
70
192
10
28.700000
20
6.577848
30
2.394141
0
VERTEX
8
0
6
CONTINUOUS
62
252
70
192
10
28.700000
20
6.893654
30
1.215537
0
VERTEX
8
0
6
CONTINUOUS
62
252
70
192
10
28.700000
20
7.000000
30
0.000000
0
VERTEX
8
0
6
CONTINUOUS
62
252
70
192
10
28.700000
20
6.893654
30
-1.215537
0
VERTEX
8
0
6
CONTINUOUS
62
252
70
192
10
28.700000
20
6.577848
30
-2.394141
0
VERTEX
8
0
6
CONTINUOUS
62
252
70
192
10
28.700000
20
6.062178
30
-3.500000
0
VERTEX
8
0
6
CONTINUOUS
62
252
70
192
10
28.700000
20
5.362311
30
-4.499513
0
VERTEX
8
0
6
CONTINUOUS
62
252
70
192
10
28.700000
20
4.499513
30
-5.362311
0
VERTEX
8
0
6
CONTINUOUS
62
252
70
192
10
28.700000
20
3.500000
30
-6.062178
0
VERTEX
8
0
6
CONTINUOUS
62
252
70
192
10
28.700000
20
2.394141
30
-6.577848
0
VERTEX
8
0
6
CONTINUOUS
62
252
70
192
10
28.700000
20
1.215537
30
-6.893654
0
VERTEX
8
0
6
CONTINUOUS
62
252
70
192
10
28.700000
20
0.000000
30
-7.000000
0
VERTEX
8
0
6
CONTINUOUS
62
252
70
192
10
28.700000
20
-1.215537
30
-6.893654
0
VERTEX
8
0
6
CONTINUOUS
62
252
70
192
10
28.700000
20
-2.394141
30
-6.577848
0
VERTEX
8
0
6
CONTINUOUS
62
252
70
192
10
28.700000
20
-3.500000
30
-6.062178
0
VERTEX
8
0
6
CONTINUOUS
62
252
70
192
10
28.700000
20
-4.499513
30
-5.362311
0
VERTEX
8
0
6
CONTINUOUS
62
252
70
192
10
28.700000
20
-5.362311
30
-4.499513
0
VERTEX
8
0
6
CONTINUOUS
62
252
70
192
10
28.700000
20
-6.062178
30
-3.500000
0
VERTEX
8
0
6
CONTINUOUS
62
252
70
192
10
28.700000
20
-6.577848
30
-2.394141
0
VERTEX
8
0
6
CONTINUOUS
62
252
70
192
10
28.700000
20
-6.893654
30
-1.215537
0
VERTEX
8
0
6
CONTINUOUS
62
252
70
192
10
28.700000
20
-7.000000
30
0.000000
0
VERTEX
8
0
6
CONTINUOUS
62
252
70
192
10
28.700000
20
-6.893654
30
1.215537
0
VERTEX
8
0
6
CONTINUOUS
62
252
70
192
10
28.700000
20
-6.577848
30
2.394141
0
VERTEX
8
0
6
CONTINUOUS
62
252
70
192
10
28.700000
20
-6.062178
30
3.500000
0
VERTEX
8
0
6
CONTINUOUS
62
252
70
192
10
28.700000
20
-5.362311
30
4.499513
0
VERTEX
8
0
6
CONTINUOUS
62
252
70
192
10
28.700000
20
-4.499513
30
5.362311
0
VERTEX
8
0
6
CONTINUOUS
62
252
70
192
10
28.700000
20
-3.500000
30
6.062178
0
VERTEX
8
0
6
CONTINUOUS
62
252
70
192
10
28.700000
20
-2.394141
30
6.577848
0
VERTEX
8
0
6
CONTINUOUS
62
252
70
192
10
28.700000
20
-1.215537
30
6.893654
0
VERTEX
8
0
6
CONTINUOUS
62
252
70
192
10
30.400000
20
0.000000
30
-7.000000
0
VERTEX
8
0
6
CONTINUOUS
62
252
70
192
10
30.400000
20
1.215537
30
-6.893654
0
VERTEX
8
0
6
CONTINUOUS
62
252
70
192
10
30.400000
20
2.394141
30
-6.577848
0
VERTEX
8
0
6
CONTINUOUS
62
252
70
192
10
30.400000
20
3.500000
30
-6.062178
0
VERTEX
8
0
6
CONTINUOUS
62
252
70
192
10
30.400000
20
4.499513
30
-5.362311
0
VERTEX
8
0
6
CONTINUOUS
62
252
70
192
10
30.400000
20
5.362311
30
-4.499513
0
VERTEX
8
0
6
CONTINUOUS
62
252
70
192
10
30.400000
20
6.062178
30
-3.500000
0
VERTEX
8
0
6
CONTINUOUS
62
252
70
192
10
30.400000
20
6.577848
30
-2.394141
0
VERTEX
8
0
6
CONTINUOUS
62
252
70
192
10
30.400000
20
6.893654
30
-1.215537
0
VERTEX
8
0
6
CONTINUOUS
62
252
70
192
10
30.400000
20
7.000000
30
0.000000
0
VERTEX
8
0
6
CONTINUOUS
62
252
70
192
10
30.400000
20
6.893654
30
1.215537
0
VERTEX
8
0
6
CONTINUOUS
62
252
70
192
10
30.400000
20
6.577848
30
2.394141
0
VERTEX
8
0
6
CONTINUOUS
62
252
70
192
10
30.400000
20
6.062178
30
3.500000
0
VERTEX
8
0
6
CONTINUOUS
62
252
70
192
10
30.400000
20
5.362311
30
4.499513
0
VERTEX
8
0
6
CONTINUOUS
62
252
70
192
10
30.400000
20
4.499513
30
5.362311
0
VERTEX
8
0
6
CONTINUOUS
62
252
70
192
10
30.400000
20
3.500000
30
6.062178
0
VERTEX
8
0
6
CONTINUOUS
62
252
70
192
10
30.400000
20
2.394141
30
6.577848
0
VERTEX
8
0
6
CONTINUOUS
62
252
70
192
10
30.400000
20
1.215537
30
6.893654
0
VERTEX
8
0
6
CONTINUOUS
62
252
70
192
10
30.400000
20
-0.000000
30
7.000000
0
VERTEX
8
0
6
CONTINUOUS
62
252
70
192
10
30.400000
20
-1.215537
30
6.893654
0
VERTEX
8
0
6
CONTINUOUS
62
252
70
192
10
30.400000
20
-2.394141
30
6.577848
0
VERTEX
8
0
6
CONTINUOUS
62
252
70
192
10
30.400000
20
-3.500000
30
6.062178
0
VERTEX
8
0
6
CONTINUOUS
62
252
70
192
10
30.400000
20
-4.499513
30
5.362311
0
VERTEX
8
0
6
CONTINUOUS
62
252
70
192
10
30.400000
20
-5.362311
30
4.499513
0
VERTEX
8
0
6
CONTINUOUS
62
252
70
192
10
30.400000
20
-6.062178
30
3.500000
0
VERTEX
8
0
6
CONTINUOUS
62
252
70
192
10
30.400000
20
-6.577848
30
2.394141
0
VERTEX
8
0
6
CONTINUOUS
62
252
70
192
10
30.400000
20
-6.893654
30
1.215537
0
VERTEX
8
0
6
CONTINUOUS
62
252
70
192
10
30.400000
20
-7.000000
30
0.000000
0
VERTEX
8
0
6
CONTINUOUS
62
252
70
192
10
30.400000
20
-6.893654
30
-1.215537
0
VERTEX
8
0
6
CONTINUOUS
62
252
70
192
10
30.400000
20
-6.577848
30
-2.394141
0
VERTEX
8
0
6
CONTINUOUS
62
252
70
192
10
30.400000
20
-6.062178
30
-3.500000
0
VERTEX
8
0
6
CONTINUOUS
62
252
70
192
10
30.400000
20
-5.362311
30
-4.499513
0
VERTEX
8
0
6
CONTINUOUS
62
252
70
192
10
30.400000
20
-4.499513
30
-5.362311
0
VERTEX
8
0
6
CONTINUOUS
62
252
70
192
10
30.400000
20
-3.500000
30
-6.062178
0
VERTEX
8
0
6
CONTINUOUS
62
252
70
192
10
30.400000
20
-2.394141
30
-6.577848
0
VERTEX
8
0
6
CONTINUOUS
62
252
70
192
10
30.400000
20
-1.215537
30
-6.893654
0
VERTEX
8
0
6
CONTINUOUS
62
252
70
128
10
0.000000
20
0.000000
30
0.000000
71
2
72
54
73
1
0
VERTEX
8
0
6
CONTINUOUS
62
252
70
128
10
0.000000
20
0.000000
30
0.000000
71
1
72
54
73
55
0
VERTEX
8
0
6
CONTINUOUS
62
252
70
128
10
0.000000
20
0.000000
30
0.000000
71
1
72
55
73
36
0
VERTEX
8
0
6
CONTINUOUS
62
252
70
128
10
0.000000
20
0.000000
30
0.000000
71
36
72
55
73
56
0
VERTEX
8
0
6
CONTINUOUS
62
252
70
128
10
0.000000
20
0.000000
30
0.000000
71
36
72
56
73
35
0
VERTEX
8
0
6
CONTINUOUS
62
252
70
128
10
0.000000
20
0.000000
30
0.000000
71
35
72
56
73
57
0
VERTEX
8
0
6
CONTINUOUS
62
252
70
128
10
0.000000
20
0.000000
30
0.000000
71
35
72
57
73
34
0
VERTEX
8
0
6
CONTINUOUS
62
252
70
128
10
0.000000
20
0.000000
30
0.000000
71
34
72
57
73
58
0
VERTEX
8
0
6
CONTINUOUS
62
252
70
128
10
0.000000
20
0.000000
30
0.000000
71
34
72
58
73
33
0
VERTEX
8
0
6
CONTINUOUS
62
252
70
128
10
0.000000
20
0.000000
30
0.000000
71
33
72
58
73
59
0
VERTEX
8
0
6
CONTINUOUS
62
252
70
128
10
0.000000
20
0.000000
30
0.000000
71
33
72
59
73
32
0
VERTEX
8
0
6
CONTINUOUS
62
252
70
128
10
0.000000
20
0.000000
30
0.000000
71
32
72
59
73
60
0
VERTEX
8
0
6
CONTINUOUS
62
252
70
128
10
0.000000
20
0.000000
30
0.000000
71
32
72
60
73
31
0
VERTEX
8
0
6
CONTINUOUS
62
252
70
128
10
0.000000
20
0.000000
30
0.000000
71
31
72
60
73
61
0
VERTEX
8
0
6
CONTINUOUS
62
252
70
128
10
0.000000
20
0.000000
30
0.000000
71
31
72
61
73
30
0
VERTEX
8
0
6
CONTINUOUS
62
252
70
128
10
0.000000
20
0.000000
30
0.000000
71
30
72
61
73
62
0
VERTEX
8
0
6
CONTINUOUS
62
252
70
128
10
0.000000
20
0.000000
30
0.000000
71
30
72
62
73
29
0
VERTEX
8
0
6
CONTINUOUS
62
252
70
128
10
0.000000
20
0.000000
30
0.000000
71
29
72
62
73
63
0
VERTEX
8
0
6
CONTINUOUS
62
252
70
128
10
0.000000
20
0.000000
30
0.000000
71
29
72
63
73
28
0
VERTEX
8
0
6
CONTINUOUS
62
252
70
128
10
0.000000
20
0.000000
30
0.000000
71
28
72
63
73
64
0
VERTEX
8
0
6
CONTINUOUS
62
252
70
128
10
0.000000
20
0.000000
30
0.000000
71
28
72
64
73
27
0
VERTEX
8
0
6
CONTINUOUS
62
252
70
128
10
0.000000
20
0.000000
30
0.000000
71
27
72
64
73
65
0
VERTEX
8
0
6
CONTINUOUS
62
252
70
128
10
0.000000
20
0.000000
30
0.000000
71
27
72
65
73
26
0
VERTEX
8
0
6
CONTINUOUS
62
252
70
128
10
0.000000
20
0.000000
30
0.000000
71
26
72
65
73
66
0
VERTEX
8
0
6
CONTINUOUS
62
252
70
128
10
0.000000
20
0.000000
30
0.000000
71
26
72
66
73
25
0
VERTEX
8
0
6
CONTINUOUS
62
252
70
128
10
0.000000
20
0.000000
30
0.000000
71
25
72
66
73
67
0
VERTEX
8
0
6
CONTINUOUS
62
252
70
128
10
0.000000
20
0.000000
30
0.000000
71
25
72
67
73
24
0
VERTEX
8
0
6
CONTINUOUS
62
252
70
128
10
0.000000
20
0.000000
30
0.000000
71
24
72
67
73
68
0
VERTEX
8
0
6
CONTINUOUS
62
252
70
128
10
0.000000
20
0.000000
30
0.000000
71
24
72
68
73
69
0
VERTEX
8
0
6
CONTINUOUS
62
252
70
128
10
0.000000
20
0.000000
30
0.000000
71
54
72
2
73
53
0
VERTEX
8
0
6
CONTINUOUS
62
252
70
128
10
0.000000
20
0.000000
30
0.000000
71
53
72
2
73
3
0
VERTEX
8
0
6
CONTINUOUS
62
252
70
128
10
0.000000
20
0.000000
30
0.000000
71
53
72
3
73
52
0
VERTEX
8
0
6
CONTINUOUS
62
252
70
128
10
0.000000
20
0.000000
30
0.000000
71
52
72
3
73
4
0
VERTEX
8
0
6
CONTINUOUS
62
252
70
128
10
0.000000
20
0.000000
30
0.000000
71
52
72
4
73
51
0
VERTEX
8
0
6
CONTINUOUS
62
252
70
128
10
0.000000
20
0.000000
30
0.000000
71
51
72
4
73
5
0
VERTEX
8
0
6
CONTINUOUS
62
252
70
128
10
0.000000
20
0.000000
30
0.000000
71
51
72
5
73
50
0
VERTEX
8
0
6
CONTINUOUS
62
252
70
128
10
0.000000
20
0.000000
30
0.000000
71
50
72
5
73
6
0
VERTEX
8
0
6
CONTINUOUS
62
252
70
128
10
0.000000
20
0.000000
30
0.000000
71
50
72
6
73
49
0
VERTEX
8
0
6
CONTINUOUS
62
252
70
128
10
0.000000
20
0.000000
30
0.000000
71
49
72
6
73
7
0
VERTEX
8
0
6
CONTINUOUS
62
252
70
128
10
0.000000
20
0.000000
30
0.000000
71
49
72
7
73
48
0
VERTEX
8
0
6
CONTINUOUS
62
252
70
128
10
0.000000
20
0.000000
30
0.000000
71
48
72
7
73
8
0
VERTEX
8
0
6
CONTINUOUS
62
252
70
128
10
0.000000
20
0.000000
30
0.000000
71
48
72
8
73
47
0
VERTEX
8
0
6
CONTINUOUS
62
252
70
128
10
0.000000
20
0.000000
30
0.000000
71
47
72
8
73
9
0
VERTEX
8
0
6
CONTINUOUS
62
252
70
128
10
0.000000
20
0.000000
30
0.000000
71
47
72
9
73
46
0
VERTEX
8
0
6
CONTINUOUS
62
252
70
128
10
0.000000
20
0.000000
30
0.000000
71
46
72
9
73
10
0
VERTEX
8
0
6
CONTINUOUS
62
252
70
128
10
0.000000
20
0.000000
30
0.000000
71
46
72
10
73
45
0
VERTEX
8
0
6
CONTINUOUS
62
252
70
128
10
0.000000
20
0.000000
30
0.000000
71
45
72
10
73
11
0
VERTEX
8
0
6
CONTINUOUS
62
252
70
128
10
0.000000
20
0.000000
30
0.000000
71
45
72
11
73
44
0
VERTEX
8
0
6
CONTINUOUS
62
252
70
128
10
0.000000
20
0.000000
30
0.000000
71
44
72
11
73
12
0
VERTEX
8
0
6
CONTINUOUS
62
252
70
128
10
0.000000
20
0.000000
30
0.000000
71
44
72
12
73
43
0
VERTEX
8
0
6
CONTINUOUS
62
252
70
128
10
0.000000
20
0.000000
30
0.000000
71
43
72
12
73
13
0
VERTEX
8
0
6
CONTINUOUS
62
252
70
128
10
0.000000
20
0.000000
30
0.000000
71
43
72
13
73
42
0
VERTEX
8
0
6
CONTINUOUS
62
252
70
128
10
0.000000
20
0.000000
30
0.000000
71
42
72
13
73
14
0
VERTEX
8
0
6
CONTINUOUS
62
252
70
128
10
0.000000
20
0.000000
30
0.000000
71
42
72
14
73
41
0
VERTEX
8
0
6
CONTINUOUS
62
252
70
128
10
0.000000
20
0.000000
30
0.000000
71
41
72
14
73
15
0
VERTEX
8
0
6
CONTINUOUS
62
252
70
128
10
0.000000
20
0.000000
30
0.000000
71
41
72
15
73
40
0
VERTEX
8
0
6
CONTINUOUS
62
252
70
128
10
0.000000
20
0.000000
30
0.000000
71
40
72
15
73
16
0
VERTEX
8
0
6
CONTINUOUS
62
252
70
128
10
0.000000
20
0.000000
30
0.000000
71
40
72
16
73
39
0
VERTEX
8
0
6
CONTINUOUS
62
252
70
128
10
0.000000
20
0.000000
30
0.000000
71
39
72
16
73
17
0
VERTEX
8
0
6
CONTINUOUS
62
252
70
128
10
0.000000
20
0.000000
30
0.000000
71
39
72
17
73
38
0
VERTEX
8
0
6
CONTINUOUS
62
252
70
128
10
0.000000
20
0.000000
30
0.000000
71
38
72
17
73
18
0
VERTEX
8
0
6
CONTINUOUS
62
252
70
128
10
0.000000
20
0.000000
30
0.000000
71
38
72
18
73
37
0
VERTEX
8
0
6
CONTINUOUS
62
252
70
128
10
0.000000
20
0.000000
30
0.000000
71
37
72
18
73
19
0
VERTEX
8
0
6
CONTINUOUS
62
252
70
128
10
0.000000
20
0.000000
30
0.000000
71
37
72
19
73
72
0
VERTEX
8
0
6
CONTINUOUS
62
252
70
128
10
0.000000
20
0.000000
30
0.000000
71
72
72
19
73
20
0
VERTEX
8
0
6
CONTINUOUS
62
252
70
128
10
0.000000
20
0.000000
30
0.000000
71
72
72
20
73
71
0
VERTEX
8
0
6
CONTINUOUS
62
252
70
128
10
0.000000
20
0.000000
30
0.000000
71
71
72
20
73
21
0
VERTEX
8
0
6
CONTINUOUS
62
252
70
128
10
0.000000
20
0.000000
30
0.000000
71
71
72
21
73
22
0
VERTEX
8
0
6
CONTINUOUS
62
252
70
128
10
0.000000
20
0.000000
30
0.000000
71
71
72
22
73
70
0
VERTEX
8
0
6
CONTINUOUS
62
252
70
128
10
0.000000
20
0.000000
30
0.000000
71
70
72
22
73
23
0
VERTEX
8
0
6
CONTINUOUS
62
252
70
128
10
0.000000
20
0.000000
30
0.000000
71
70
72
23
73
69
0
VERTEX
8
0
6
CONTINUOUS
62
252
70
128
10
0.000000
20
0.000000
30
0.000000
71
69
72
23
73
24
0
SEQEND
0
POLYLINE
66
1
8
0
6
CONTINUOUS
62
252
70
64
75
0
10
0.000000
20
0.000000
30
0.000000
0
VERTEX
8
0
6
CONTINUOUS
62
252
70
192
10
28.700000
20
-8.299076
30
-28.097774
0
VERTEX
8
0
6
CONTINUOUS
62
252
70
192
10
28.700000
20
8.299076
30
-28.097774
0
VERTEX
8
0
6
CONTINUOUS
62
252
70
192
10
0.000000
20
8.442748
30
-29.100000
0
VERTEX
8
0
6
CONTINUOUS
62
252
70
192
10
0.000000
20
-8.442748
30
-29.100000
0
VERTEX
8
0
6
CONTINUOUS
62
252
70
128
10
0.000000
20
0.000000
30
0.000000
71
2
72
3
73
1
0
VERTEX
8
0
6
CONTINUOUS
62
252
70
128
10
0.000000
20
0.000000
30
0.000000
71
1
72
3
73
4
0
SEQEND
0
POLYLINE
66
1
8
0
6
CONTINUOUS
62
252
70
64
75
0
10
0.000000
20
0.000000
30
0.000000
0
VERTEX
8
0
6
CONTINUOUS
62
252
70
192
10
28.700000
20
-28.097774
30
-8.299076
0
VERTEX
8
0
6
CONTINUOUS
62
252
70
192
10
28.700000
20
-26.339348
30
-12.829587
0
VERTEX
8
0
6
CONTINUOUS
62
252
70
192
10
28.700000
20
-23.856201
30
-17.007094
0
VERTEX
8
0
6
CONTINUOUS
62
252
70
192
10
28.700000
20
-20.716655
30
-20.716655
0
VERTEX
8
0
6
CONTINUOUS
62
252
70
192
10
28.700000
20
-17.007094
30
-23.856201
0
VERTEX
8
0
6
CONTINUOUS
62
252
70
192
10
28.700000
20
-12.829587
30
-26.339348
0
VERTEX
8
0
6
CONTINUOUS
62
252
70
192
10
28.700000
20
-8.299076
30
-28.097774
0
VERTEX
8
0
6
CONTINUOUS
62
252
70
192
10
0.000000
20
-8.442748
30
-29.100000
0
VERTEX
8
0
6
CONTINUOUS
62
252
70
192
10
0.000000
20
-13.180826
30
-27.282885
0
VERTEX
8
0
6
CONTINUOUS
62
252
70
192
10
0.000000
20
-17.549197
30
-24.700520
0
VERTEX
8
0
6
CONTINUOUS
62
252
70
192
10
0.000000
20
-21.425335
30
-21.425335
0
VERTEX
8
0
6
CONTINUOUS
62
252
70
192
10
0.000000
20
-24.700520
30
-17.549197
0
VERTEX
8
0
6
CONTINUOUS
62
252
70
192
10
0.000000
20
-27.282885
30
-13.180826
0
VERTEX
8
0
6
CONTINUOUS
62
252
70
192
10
0.000000
20
-29.100000
30
-8.442748
0
VERTEX
8
0
6
CONTINUOUS
62
252
70
128
10
0.000000
20
0.000000
30
0.000000
71
14
72
1
73
13
0
VERTEX
8
0
6
CONTINUOUS
62
252
70
128
10
0.000000
20
0.000000
30
0.000000
71
13
72
1
73
2
0
VERTEX
8
0
6
CONTINUOUS
62
252
70
128
10
0.000000
20
0.000000
30
0.000000
71
13
72
2
73
12
0
VERTEX
8
0
6
CONTINUOUS
62
252
70
128
10
0.000000
20
0.000000
30
0.000000
71
12
72
2
73
3
0
VERTEX
8
0
6
CONTINUOUS
62
252
70
128
10
0.000000
20
0.000000
30
0.000000
71
12
72
3
73
11
0
VERTEX
8
0
6
CONTINUOUS
62
252
70
128
10
0.000000
20
0.000000
30
0.000000
71
11
72
3
73
4
0
VERTEX
8
0
6
CONTINUOUS
62
252
70
128
10
0.000000
20
0.000000
30
0.000000
71
11
72
4
73
5
0
VERTEX
8
0
6
CONTINUOUS
62
252
70
128
10
0.000000
20
0.000000
30
0.000000
71
11
72
5
73
10
0
VERTEX
8
0
6
CONTINUOUS
62
252
70
128
10
0.000000
20
0.000000
30
0.000000
71
10
72
5
73
6
0
VERTEX
8
0
6
CONTINUOUS
62
252
70
128
10
0.000000
20
0.000000
30
0.000000
71
10
72
6
73
9
0
VERTEX
8
0
6
CONTINUOUS
62
252
70
128
10
0.000000
20
0.000000
30
0.000000
71
9
72
6
73
7
0
VERTEX
8
0
6
CONTINUOUS
62
252
70
128
10
0.000000
20
0.000000
30
0.000000
71
9
72
7
73
8
0
SEQEND
0
POLYLINE
66
1
8
0
6
CONTINUOUS
62
252
70
64
75
0
10
0.000000
20
0.000000
30
0.000000
0
VERTEX
8
0
6
CONTINUOUS
62
252
70
192
10
28.700000
20
-28.097774
30
8.299076
0
VERTEX
8
0
6
CONTINUOUS
62
252
70
192
10
28.700000
20
-28.097774
30
-8.299076
0
VERTEX
8
0
6
CONTINUOUS
62
252
70
192
10
0.000000
20
-29.100000
30
-8.442748
0
VERTEX
8
0
6
CONTINUOUS
62
252
70
192
10
-0.000000
20
-29.100000
30
8.442748
0
VERTEX
8
0
6
CONTINUOUS
62
252
70
128
10
0.000000
20
0.000000
30
0.000000
71
2
72
3
73
1
0
VERTEX
8
0
6
CONTINUOUS
62
252
70
128
10
0.000000
20
0.000000
30
0.000000
71
1
72
3
73
4
0
SEQEND
0
POLYLINE
66
1
8
0
6
CONTINUOUS
62
252
70
64
75
0
10
0.000000
20
0.000000
30
0.000000
0
VERTEX
8
0
6
CONTINUOUS
62
252
70
192
10
28.700000
20
-8.299076
30
28.097774
0
VERTEX
8
0
6
CONTINUOUS
62
252
70
192
10
28.700000
20
-12.829587
30
26.339348
0
VERTEX
8
0
6
CONTINUOUS
62
252
70
192
10
28.700000
20
-17.007094
30
23.856201
0
VERTEX
8
0
6
CONTINUOUS
62
252
70
192
10
28.700000
20
-20.716655
30
20.716655
0
VERTEX
8
0
6
CONTINUOUS
62
252
70
192
10
28.700000
20
-23.856201
30
17.007094
0
VERTEX
8
0
6
CONTINUOUS
62
252
70
192
10
28.700000
20
-26.339348
30
12.829587
0
VERTEX
8
0
6
CONTINUOUS
62
252
70
192
10
28.700000
20
-28.097774
30
8.299076
0
VERTEX
8
0
6
CONTINUOUS
62
252
70
192
10
-0.000000
20
-29.100000
30
8.442748
0
VERTEX
8
0
6
CONTINUOUS
62
252
70
192
10
-0.000000
20
-27.282885
30
13.180826
0
VERTEX
8
0
6
CONTINUOUS
62
252
70
192
10
-0.000000
20
-24.700520
30
17.549197
0
VERTEX
8
0
6
CONTINUOUS
62
252
70
192
10
-0.000000
20
-21.425335
30
21.425335
0
VERTEX
8
0
6
CONTINUOUS
62
252
70
192
10
-0.000000
20
-17.549197
30
24.700520
0
VERTEX
8
0
6
CONTINUOUS
62
252
70
192
10
-0.000000
20
-13.180826
30
27.282885
0
VERTEX
8
0
6
CONTINUOUS
62
252
70
192
10
-0.000000
20
-8.442748
30
29.100000
0
VERTEX
8
0
6
CONTINUOUS
62
252
70
128
10
0.000000
20
0.000000
30
0.000000
71
14
72
1
73
13
0
VERTEX
8
0
6
CONTINUOUS
62
252
70
128
10
0.000000
20
0.000000
30
0.000000
71
13
72
1
73
2
0
VERTEX
8
0
6
CONTINUOUS
62
252
70
128
10
0.000000
20
0.000000
30
0.000000
71
13
72
2
73
12
0
VERTEX
8
0
6
CONTINUOUS
62
252
70
128
10
0.000000
20
0.000000
30
0.000000
71
12
72
2
73
3
0
VERTEX
8
0
6
CONTINUOUS
62
252
70
128
10
0.000000
20
0.000000
30
0.000000
71
12
72
3
73
11
0
VERTEX
8
0
6
CONTINUOUS
62
252
70
128
10
0.000000
20
0.000000
30
0.000000
71
11
72
3
73
4
0
VERTEX
8
0
6
CONTINUOUS
62
252
70
128
10
0.000000
20
0.000000
30
0.000000
71
11
72
4
73
5
0
VERTEX
8
0
6
CONTINUOUS
62
252
70
128
10
0.000000
20
0.000000
30
0.000000
71
11
72
5
73
10
0
VERTEX
8
0
6
CONTINUOUS
62
252
70
128
10
0.000000
20
0.000000
30
0.000000
71
10
72
5
73
6
0
VERTEX
8
0
6
CONTINUOUS
62
252
70
128
10
0.000000
20
0.000000
30
0.000000
71
10
72
6
73
9
0
VERTEX
8
0
6
CONTINUOUS
62
252
70
128
10
0.000000
20
0.000000
30
0.000000
71
9
72
6
73
7
0
VERTEX
8
0
6
CONTINUOUS
62
252
70
128
10
0.000000
20
0.000000
30
0.000000
71
9
72
7
73
8
0
SEQEND
0
POLYLINE
66
1
8
0
6
CONTINUOUS
62
252
70
64
75
0
10
0.000000
20
0.000000
30
0.000000
0
VERTEX
8
0
6
CONTINUOUS
62
252
70
192
10
0.001000
20
6.000000
30
29.099965
0
VERTEX
8
0
6
CONTINUOUS
62
252
70
192
10
0.000000
20
6.000000
30
29.100000
0
VERTEX
8
0
6
CONTINUOUS
62
252
70
192
10
-0.000000
20
8.442748
30
29.100000
0
VERTEX
8
0
6
CONTINUOUS
62
252
70
192
10
28.700000
20
8.299076
30
28.097774
0
VERTEX
8
0
6
CONTINUOUS
62
252
70
192
10
28.700000
20
-8.299076
30
28.097774
0
VERTEX
8
0
6
CONTINUOUS
62
252
70
192
10
-0.000000
20
-8.442748
30
29.100000
0
VERTEX
8
0
6
CONTINUOUS
62
252
70
192
10
0.000000
20
-6.000000
30
29.100000
0
VERTEX
8
0
6
CONTINUOUS
62
252
70
192
10
0.001000
20
-6.000000
30
29.099965
0
VERTEX
8
0
6
CONTINUOUS
62
252
70
128
10
0.000000
20
0.000000
30
0.000000
71
2
72
3
73
1
0
VERTEX
8
0
6
CONTINUOUS
62
252
70
128
10
0.000000
20
0.000000
30
0.000000
71
1
72
3
73
4
0
VERTEX
8
0
6
CONTINUOUS
62
252
70
128
10
0.000000
20
0.000000
30
0.000000
71
1
72
4
73
5
0
VERTEX
8
0
6
CONTINUOUS
62
252
70
128
10
0.000000
20
0.000000
30
0.000000
71
1
72
5
73
8
0
VERTEX
8
0
6
CONTINUOUS
62
252
70
128
10
0.000000
20
0.000000
30
0.000000
71
8
72
5
73
6
0
VERTEX
8
0
6
CONTINUOUS
62
252
70
128
10
0.000000
20
0.000000
30
0.000000
71
8
72
6
73
7
0
SEQEND
0
POLYLINE
66
1
8
0
6
CONTINUOUS
62
252
70
64
75
0
10
0.000000
20
0.000000
30
0.000000
0
VERTEX
8
0
6
CONTINUOUS
62
252
70
192
10
28.700000
20
28.097774
30
8.299076
0
VERTEX
8
0
6
CONTINUOUS
62
252
70
192
10
28.700000
20
26.339348
30
12.829587
0
VERTEX
8
0
6
CONTINUOUS
62
252
70
192
10
28.700000
20
23.856201
30
17.007094
0
VERTEX
8
0
6
CONTINUOUS
62
252
70
192
10
28.700000
20
20.716655
30
20.716655
0
VERTEX
8
0
6
CONTINUOUS
62
252
70
192
10
28.700000
20
17.007094
30
23.856201
0
VERTEX
8
0
6
CONTINUOUS
62
252
70
192
10
28.700000
20
12.829587
30
26.339348
0
VERTEX
8
0
6
CONTINUOUS
62
252
70
192
10
28.700000
20
8.299076
30
28.097774
0
VERTEX
8
0
6
CONTINUOUS
62
252
70
192
10
-0.000000
20
8.442748
30
29.100000
0
VERTEX
8
0
6
CONTINUOUS
62
252
70
192
10
-0.000000
20
13.180826
30
27.282885
0
VERTEX
8
0
6
CONTINUOUS
62
252
70
192
10
-0.000000
20
17.549197
30
24.700520
0
VERTEX
8
0
6
CONTINUOUS
62
252
70
192
10
-0.000000
20
21.425335
30
21.425335
0
VERTEX
8
0
6
CONTINUOUS
62
252
70
192
10
-0.000000
20
24.700520
30
17.549197
0
VERTEX
8
0
6
CONTINUOUS
62
252
70
192
10
-0.000000
20
27.282885
30
13.180826
0
VERTEX
8
0
6
CONTINUOUS
62
252
70
192
10
-0.000000
20
29.100000
30
8.442748
0
VERTEX
8
0
6
CONTINUOUS
62
252
70
128
10
0.000000
20
0.000000
30
0.000000
71
14
72
1
73
13
0
VERTEX
8
0
6
CONTINUOUS
62
252
70
128
10
0.000000
20
0.000000
30
0.000000
71
13
72
1
73
2
0
VERTEX
8
0
6
CONTINUOUS
62
252
70
128
10
0.000000
20
0.000000
30
0.000000
71
13
72
2
73
12
0
VERTEX
8
0
6
CONTINUOUS
62
252
70
128
10
0.000000
20
0.000000
30
0.000000
71
12
72
2
73
3
0
VERTEX
8
0
6
CONTINUOUS
62
252
70
128
10
0.000000
20
0.000000
30
0.000000
71
12
72
3
73
11
0
VERTEX
8
0
6
CONTINUOUS
62
252
70
128
10
0.000000
20
0.000000
30
0.000000
71
11
72
3
73
4
0
VERTEX
8
0
6
CONTINUOUS
62
252
70
128
10
0.000000
20
0.000000
30
0.000000
71
11
72
4
73
5
0
VERTEX
8
0
6
CONTINUOUS
62
252
70
128
10
0.000000
20
0.000000
30
0.000000
71
11
72
5
73
10
0
VERTEX
8
0
6
CONTINUOUS
62
252
70
128
10
0.000000
20
0.000000
30
0.000000
71
10
72
5
73
6
0
VERTEX
8
0
6
CONTINUOUS
62
252
70
128
10
0.000000
20
0.000000
30
0.000000
71
10
72
6
73
9
0
VERTEX
8
0
6
CONTINUOUS
62
252
70
128
10
0.000000
20
0.000000
30
0.000000
71
9
72
6
73
7
0
VERTEX
8
0
6
CONTINUOUS
62
252
70
128
10
0.000000
20
0.000000
30
0.000000
71
9
72
7
73
8
0
SEQEND
0
POLYLINE
66
1
8
0
6
CONTINUOUS
62
252
70
64
75
0
10
0.000000
20
0.000000
30
0.000000
0
VERTEX
8
0
6
CONTINUOUS
62
252
70
192
10
28.700000
20
28.097774
30
-8.299076
0
VERTEX
8
0
6
CONTINUOUS
62
252
70
192
10
28.700000
20
28.097774
30
8.299076
0
VERTEX
8
0
6
CONTINUOUS
62
252
70
192
10
-0.000000
20
29.100000
30
8.442748
0
VERTEX
8
0
6
CONTINUOUS
62
252
70
192
10
0.000000
20
29.100000
30
-8.442748
0
VERTEX
8
0
6
CONTINUOUS
62
252
70
128
10
0.000000
20
0.000000
30
0.000000
71
1
72
2
73
4
0
VERTEX
8
0
6
CONTINUOUS
62
252
70
128
10
0.000000
20
0.000000
30
0.000000
71
4
72
2
73
3
0
SEQEND
0
POLYLINE
66
1
8
0
6
CONTINUOUS
62
252
70
64
75
0
10
0.000000
20
0.000000
30
0.000000
0
VERTEX
8
0
6
CONTINUOUS
62
252
70
192
10
28.700000
20
8.299076
30
-28.097774
0
VERTEX
8
0
6
CONTINUOUS
62
252
70
192
10
28.700000
20
12.829587
30
-26.339348
0
VERTEX
8
0
6
CONTINUOUS
62
252
70
192
10
28.700000
20
17.007094
30
-23.856201
0
VERTEX
8
0
6
CONTINUOUS
62
252
70
192
10
28.700000
20
20.716655
30
-20.716655
0
VERTEX
8
0
6
CONTINUOUS
62
252
70
192
10
28.700000
20
23.856201
30
-17.007094
0
VERTEX
8
0
6
CONTINUOUS
62
252
70
192
10
28.700000
20
26.339348
30
-12.829587
0
VERTEX
8
0
6
CONTINUOUS
62
252
70
192
10
28.700000
20
28.097774
30
-8.299076
0
VERTEX
8
0
6
CONTINUOUS
62
252
70
192
10
0.000000
20
29.100000
30
-8.442748
0
VERTEX
8
0
6
CONTINUOUS
62
252
70
192
10
0.000000
20
27.282885
30
-13.180826
0
VERTEX
8
0
6
CONTINUOUS
62
252
70
192
10
0.000000
20
24.700520
30
-17.549197
0
VERTEX
8
0
6
CONTINUOUS
62
252
70
192
10
0.000000
20
21.425335
30
-21.425335
0
VERTEX
8
0
6
CONTINUOUS
62
252
70
192
10
0.000000
20
17.549197
30
-24.700520
0
VERTEX
8
0
6
CONTINUOUS
62
252
70
192
10
0.000000
20
13.180826
30
-27.282885
0
VERTEX
8
0
6
CONTINUOUS
62
252
70
192
10
0.000000
20
8.442748
30
-29.100000
0
VERTEX
8
0
6
CONTINUOUS
62
252
70
128
10
0.000000
20
0.000000
30
0.000000
71
14
72
1
73
13
0
VERTEX
8
0
6
CONTINUOUS
62
252
70
128
10
0.000000
20
0.000000
30
0.000000
71
13
72
1
73
2
0
VERTEX
8
0
6
CONTINUOUS
62
252
70
128
10
0.000000
20
0.000000
30
0.000000
71
13
72
2
73
12
0
VERTEX
8
0
6
CONTINUOUS
62
252
70
128
10
0.000000
20
0.000000
30
0.000000
71
12
72
2
73
3
0
VERTEX
8
0
6
CONTINUOUS
62
252
70
128
10
0.000000
20
0.000000
30
0.000000
71
12
72
3
73
11
0
VERTEX
8
0
6
CONTINUOUS
62
252
70
128
10
0.000000
20
0.000000
30
0.000000
71
11
72
3
73
4
0
VERTEX
8
0
6
CONTINUOUS
62
252
70
128
10
0.000000
20
0.000000
30
0.000000
71
11
72
4
73
5
0
VERTEX
8
0
6
CONTINUOUS
62
252
70
128
10
0.000000
20
0.000000
30
0.000000
71
11
72
5
73
10
0
VERTEX
8
0
6
CONTINUOUS
62
252
70
128
10
0.000000
20
0.000000
30
0.000000
71
10
72
5
73
6
0
VERTEX
8
0
6
CONTINUOUS
62
252
70
128
10
0.000000
20
0.000000
30
0.000000
71
10
72
6
73
9
0
VERTEX
8
0
6
CONTINUOUS
62
252
70
128
10
0.000000
20
0.000000
30
0.000000
71
9
72
6
73
7
0
VERTEX
8
0
6
CONTINUOUS
62
252
70
128
10
0.000000
20
0.000000
30
0.000000
71
9
72
7
73
8
0
SEQEND
0
POLYLINE
66
1
8
0
6
CONTINUOUS
62
252
70
64
75
0
10
0.000000
20
0.000000
30
0.000000
0
VERTEX
8
0
6
CONTINUOUS
62
252
70
192
10
28.700000
20
-0.000000
30
7.000000
0
VERTEX
8
0
6
CONTINUOUS
62
252
70
192
10
28.700000
20
-1.215537
30
6.893654
0
VERTEX
8
0
6
CONTINUOUS
62
252
70
192
10
28.700000
20
-2.394141
30
6.577848
0
VERTEX
8
0
6
CONTINUOUS
62
252
70
192
10
28.700000
20
-3.500000
30
6.062178
0
VERTEX
8
0
6
CONTINUOUS
62
252
70
192
10
28.700000
20
-4.499513
30
5.362311
0
VERTEX
8
0
6
CONTINUOUS
62
252
70
192
10
28.700000
20
-5.362311
30
4.499513
0
VERTEX
8
0
6
CONTINUOUS
62
252
70
192
10
28.700000
20
-6.062178
30
3.500000
0
VERTEX
8
0
6
CONTINUOUS
62
252
70
192
10
28.700000
20
-6.577848
30
2.394141
0
VERTEX
8
0
6
CONTINUOUS
62
252
70
192
10
28.700000
20
-6.893654
30
1.215537
0
VERTEX
8
0
6
CONTINUOUS
62
252
70
192
10
28.700000
20
-7.000000
30
0.000000
0
VERTEX
8
0
6
CONTINUOUS
62
252
70
192
10
28.700000
20
-6.893654
30
-1.215537
0
VERTEX
8
0
6
CONTINUOUS
62
252
70
192
10
28.700000
20
-6.577848
30
-2.394141
0
VERTEX
8
0
6
CONTINUOUS
62
252
70
192
10
28.700000
20
-6.062178
30
-3.500000
0
VERTEX
8
0
6
CONTINUOUS
62
252
70
192
10
28.700000
20
-5.362311
30
-4.499513
0
VERTEX
8
0
6
CONTINUOUS
62
252
70
192
10
28.700000
20
-4.499513
30
-5.362311
0
VERTEX
8
0
6
CONTINUOUS
62
252
70
192
10
28.700000
20
-3.500000
30
-6.062178
0
VERTEX
8
0
6
CONTINUOUS
62
252
70
192
10
28.700000
20
-2.394141
30
-6.577848
0
VERTEX
8
0
6
CONTINUOUS
62
252
70
192
10
28.700000
20
-1.215537
30
-6.893654
0
VERTEX
8
0
6
CONTINUOUS
62
252
70
192
10
28.700000
20
0.000000
30
-7.000000
0
VERTEX
8
0
6
CONTINUOUS
62
252
70
192
10
28.700000
20
1.215537
30
-6.893654
0
VERTEX
8
0
6
CONTINUOUS
62
252
70
192
10
28.700000
20
2.394141
30
-6.577848
0
VERTEX
8
0
6
CONTINUOUS
62
252
70
192
10
28.700000
20
3.500000
30
-6.062178
0
VERTEX
8
0
6
CONTINUOUS
62
252
70
192
10
28.700000
20
4.499513
30
-5.362311
0
VERTEX
8
0
6
CONTINUOUS
62
252
70
192
10
28.700000
20
5.362311
30
-4.499513
0
VERTEX
8
0
6
CONTINUOUS
62
252
70
192
10
28.700000
20
6.062178
30
-3.500000
0
VERTEX
8
0
6
CONTINUOUS
62
252
70
192
10
28.700000
20
6.577848
30
-2.394141
0
VERTEX
8
0
6
CONTINUOUS
62
252
70
192
10
28.700000
20
6.893654
30
-1.215537
0
VERTEX
8
0
6
CONTINUOUS
62
252
70
192
10
28.700000
20
7.000000
30
0.000000
0
VERTEX
8
0
6
CONTINUOUS
62
252
70
192
10
28.700000
20
6.893654
30
1.215537
0
VERTEX
8
0
6
CONTINUOUS
62
252
70
192
10
28.700000
20
6.577848
30
2.394141
0
VERTEX
8
0
6
CONTINUOUS
62
252
70
192
10
28.700000
20
6.062178
30
3.500000
0
VERTEX
8
0
6
CONTINUOUS
62
252
70
192
10
28.700000
20
5.362311
30
4.499513
0
VERTEX
8
0
6
CONTINUOUS
62
252
70
192
10
28.700000
20
4.499513
30
5.362311
0
VERTEX
8
0
6
CONTINUOUS
62
252
70
192
10
28.700000
20
3.500000
30
6.062178
0
VERTEX
8
0
6
CONTINUOUS
62
252
70
192
10
28.700000
20
2.394141
30
6.577848
0
VERTEX
8
0
6
CONTINUOUS
62
252
70
192
10
28.700000
20
1.215537
30
6.893654
0
VERTEX
8
0
6
CONTINUOUS
62
252
70
192
10
28.700000
20
8.299076
30
-28.097774
0
VERTEX
8
0
6
CONTINUOUS
62
252
70
192
10
28.700000
20
-8.299076
30
-28.097774
0
VERTEX
8
0
6
CONTINUOUS
62
252
70
192
10
28.700000
20
-12.829587
30
-26.339348
0
VERTEX
8
0
6
CONTINUOUS
62
252
70
192
10
28.700000
20
-17.007094
30
-23.856201
0
VERTEX
8
0
6
CONTINUOUS
62
252
70
192
10
28.700000
20
-20.716655
30
-20.716655
0
VERTEX
8
0
6
CONTINUOUS
62
252
70
192
10
28.700000
20
-23.856201
30
-17.007094
0
VERTEX
8
0
6
CONTINUOUS
62
252
70
192
10
28.700000
20
-26.339348
30
-12.829587
0
VERTEX
8
0
6
CONTINUOUS
62
252
70
192
10
28.700000
20
-28.097774
30
-8.299076
0
VERTEX
8
0
6
CONTINUOUS
62
252
70
192
10
28.700000
20
-28.097774
30
8.299076
0
VERTEX
8
0
6
CONTINUOUS
62
252
70
192
10
28.700000
20
-26.339348
30
12.829587
0
VERTEX
8
0
6
CONTINUOUS
62
252
70
192
10
28.700000
20
-23.856201
30
17.007094
0
VERTEX
8
0
6
CONTINUOUS
62
252
70
192
10
28.700000
20
-20.716655
30
20.716655
0
VERTEX
8
0
6
CONTINUOUS
62
252
70
192
10
28.700000
20
-17.007094
30
23.856201
0
VERTEX
8
0
6
CONTINUOUS
62
252
70
192
10
28.700000
20
-12.829587
30
26.339348
0
VERTEX
8
0
6
CONTINUOUS
62
252
70
192
10
28.700000
20
-8.299076
30
28.097774
0
VERTEX
8
0
6
CONTINUOUS
62
252
70
192
10
28.700000
20
8.299076
30
28.097774
0
VERTEX
8
0
6
CONTINUOUS
62
252
70
192
10
28.700000
20
12.829587
30
26.339348
0
VERTEX
8
0
6
CONTINUOUS
62
252
70
192
10
28.700000
20
17.007094
30
23.856201
0
VERTEX
8
0
6
CONTINUOUS
62
252
70
192
10
28.700000
20
20.716655
30
20.716655
0
VERTEX
8
0
6
CONTINUOUS
62
252
70
192
10
28.700000
20
23.856201
30
17.007094
0
VERTEX
8
0
6
CONTINUOUS
62
252
70
192
10
28.700000
20
26.339348
30
12.829587
0
VERTEX
8
0
6
CONTINUOUS
62
252
70
192
10
28.700000
20
28.097774
30
8.299076
0
VERTEX
8
0
6
CONTINUOUS
62
252
70
192
10
28.700000
20
28.097774
30
-8.299076
0
VERTEX
8
0
6
CONTINUOUS
62
252
70
192
10
28.700000
20
26.339348
30
-12.829587
0
VERTEX
8
0
6
CONTINUOUS
62
252
70
192
10
28.700000
20
23.856201
30
-17.007094
0
VERTEX
8
0
6
CONTINUOUS
62
252
70
192
10
28.700000
20
20.716655
30
-20.716655
0
VERTEX
8
0
6
CONTINUOUS
62
252
70
192
10
28.700000
20
17.007094
30
-23.856201
0
VERTEX
8
0
6
CONTINUOUS
62
252
70
192
10
28.700000
20
12.829587
30
-26.339348
0
VERTEX
8
0
6
CONTINUOUS
62
252
70
128
10
0.000000
20
0.000000
30
0.000000
71
2
72
51
73
1
0
VERTEX
8
0
6
CONTINUOUS
62
252
70
128
10
0.000000
20
0.000000
30
0.000000
71
1
72
51
73
52
0
VERTEX
8
0
6
CONTINUOUS
62
252
70
128
10
0.000000
20
0.000000
30
0.000000
71
1
72
52
73
36
0
VERTEX
8
0
6
CONTINUOUS
62
252
70
128
10
0.000000
20
0.000000
30
0.000000
71
36
72
52
73
35
0
VERTEX
8
0
6
CONTINUOUS
62
252
70
128
10
0.000000
20
0.000000
30
0.000000
71
35
72
52
73
53
0
VERTEX
8
0
6
CONTINUOUS
62
252
70
128
10
0.000000
20
0.000000
30
0.000000
71
35
72
53
73
34
0
VERTEX
8
0
6
CONTINUOUS
62
252
70
128
10
0.000000
20
0.000000
30
0.000000
71
34
72
53
73
54
0
VERTEX
8
0
6
CONTINUOUS
62
252
70
128
10
0.000000
20
0.000000
30
0.000000
71
34
72
54
73
33
0
VERTEX
8
0
6
CONTINUOUS
62
252
70
128
10
0.000000
20
0.000000
30
0.000000
71
33
72
54
73
55
0
VERTEX
8
0
6
CONTINUOUS
62
252
70
128
10
0.000000
20
0.000000
30
0.000000
71
33
72
55
73
32
0
VERTEX
8
0
6
CONTINUOUS
62
252
70
128
10
0.000000
20
0.000000
30
0.000000
71
32
72
55
73
56
0
VERTEX
8
0
6
CONTINUOUS
62
252
70
128
10
0.000000
20
0.000000
30
0.000000
71
32
72
56
73
31
0
VERTEX
8
0
6
CONTINUOUS
62
252
70
128
10
0.000000
20
0.000000
30
0.000000
71
31
72
56
73
57
0
VERTEX
8
0
6
CONTINUOUS
62
252
70
128
10
0.000000
20
0.000000
30
0.000000
71
31
72
57
73
30
0
VERTEX
8
0
6
CONTINUOUS
62
252
70
128
10
0.000000
20
0.000000
30
0.000000
71
30
72
57
73
58
0
VERTEX
8
0
6
CONTINUOUS
62
252
70
128
10
0.000000
20
0.000000
30
0.000000
71
30
72
58
73
29
0
VERTEX
8
0
6
CONTINUOUS
62
252
70
128
10
0.000000
20
0.000000
30
0.000000
71
29
72
58
73
28
0
VERTEX
8
0
6
CONTINUOUS
62
252
70
128
10
0.000000
20
0.000000
30
0.000000
71
28
72
58
73
59
0
VERTEX
8
0
6
CONTINUOUS
62
252
70
128
10
0.000000
20
0.000000
30
0.000000
71
28
72
59
73
27
0
VERTEX
8
0
6
CONTINUOUS
62
252
70
128
10
0.000000
20
0.000000
30
0.000000
71
27
72
59
73
26
0
VERTEX
8
0
6
CONTINUOUS
62
252
70
128
10
0.000000
20
0.000000
30
0.000000
71
26
72
59
73
60
0
VERTEX
8
0
6
CONTINUOUS
62
252
70
128
10
0.000000
20
0.000000
30
0.000000
71
26
72
60
73
25
0
VERTEX
8
0
6
CONTINUOUS
62
252
70
128
10
0.000000
20
0.000000
30
0.000000
71
25
72
60
73
61
0
VERTEX
8
0
6
CONTINUOUS
62
252
70
128
10
0.000000
20
0.000000
30
0.000000
71
25
72
61
73
24
0
VERTEX
8
0
6
CONTINUOUS
62
252
70
128
10
0.000000
20
0.000000
30
0.000000
71
24
72
61
73
62
0
VERTEX
8
0
6
CONTINUOUS
62
252
70
128
10
0.000000
20
0.000000
30
0.000000
71
24
72
62
73
23
0
VERTEX
8
0
6
CONTINUOUS
62
252
70
128
10
0.000000
20
0.000000
30
0.000000
71
23
72
62
73
63
0
VERTEX
8
0
6
CONTINUOUS
62
252
70
128
10
0.000000
20
0.000000
30
0.000000
71
23
72
63
73
22
0
VERTEX
8
0
6
CONTINUOUS
62
252
70
128
10
0.000000
20
0.000000
30
0.000000
71
22
72
63
73
64
0
VERTEX
8
0
6
CONTINUOUS
62
252
70
128
10
0.000000
20
0.000000
30
0.000000
71
22
72
64
73
21
0
VERTEX
8
0
6
CONTINUOUS
62
252
70
128
10
0.000000
20
0.000000
30
0.000000
71
21
72
64
73
37
0
VERTEX
8
0
6
CONTINUOUS
62
252
70
128
10
0.000000
20
0.000000
30
0.000000
71
21
72
37
73
20
0
VERTEX
8
0
6
CONTINUOUS
62
252
70
128
10
0.000000
20
0.000000
30
0.000000
71
20
72
37
73
19
0
VERTEX
8
0
6
CONTINUOUS
62
252
70
128
10
0.000000
20
0.000000
30
0.000000
71
19
72
37
73
38
0
VERTEX
8
0
6
CONTINUOUS
62
252
70
128
10
0.000000
20
0.000000
30
0.000000
71
19
72
38
73
18
0
VERTEX
8
0
6
CONTINUOUS
62
252
70
128
10
0.000000
20
0.000000
30
0.000000
71
18
72
38
73
17
0
VERTEX
8
0
6
CONTINUOUS
62
252
70
128
10
0.000000
20
0.000000
30
0.000000
71
17
72
38
73
39
0
VERTEX
8
0
6
CONTINUOUS
62
252
70
128
10
0.000000
20
0.000000
30
0.000000
71
17
72
39
73
16
0
VERTEX
8
0
6
CONTINUOUS
62
252
70
128
10
0.000000
20
0.000000
30
0.000000
71
16
72
39
73
40
0
VERTEX
8
0
6
CONTINUOUS
62
252
70
128
10
0.000000
20
0.000000
30
0.000000
71
16
72
40
73
15
0
VERTEX
8
0
6
CONTINUOUS
62
252
70
128
10
0.000000
20
0.000000
30
0.000000
71
15
72
40
73
41
0
VERTEX
8
0
6
CONTINUOUS
62
252
70
128
10
0.000000
20
0.000000
30
0.000000
71
15
72
41
73
14
0
VERTEX
8
0
6
CONTINUOUS
62
252
70
128
10
0.000000
20
0.000000
30
0.000000
71
14
72
41
73
42
0
VERTEX
8
0
6
CONTINUOUS
62
252
70
128
10
0.000000
20
0.000000
30
0.000000
71
14
72
42
73
13
0
VERTEX
8
0
6
CONTINUOUS
62
252
70
128
10
0.000000
20
0.000000
30
0.000000
71
13
72
42
73
43
0
VERTEX
8
0
6
CONTINUOUS
62
252
70
128
10
0.000000
20
0.000000
30
0.000000
71
13
72
43
73
12
0
VERTEX
8
0
6
CONTINUOUS
62
252
70
128
10
0.000000
20
0.000000
30
0.000000
71
12
72
43
73
44
0
VERTEX
8
0
6
CONTINUOUS
62
252
70
128
10
0.000000
20
0.000000
30
0.000000
71
12
72
44
73
11
0
VERTEX
8
0
6
CONTINUOUS
62
252
70
128
10
0.000000
20
0.000000
30
0.000000
71
11
72
44
73
10
0
VERTEX
8
0
6
CONTINUOUS
62
252
70
128
10
0.000000
20
0.000000
30
0.000000
71
10
72
44
73
45
0
VERTEX
8
0
6
CONTINUOUS
62
252
70
128
10
0.000000
20
0.000000
30
0.000000
71
10
72
45
73
9
0
VERTEX
8
0
6
CONTINUOUS
62
252
70
128
10
0.000000
20
0.000000
30
0.000000
71
9
72
45
73
8
0
VERTEX
8
0
6
CONTINUOUS
62
252
70
128
10
0.000000
20
0.000000
30
0.000000
71
8
72
45
73
46
0
VERTEX
8
0
6
CONTINUOUS
62
252
70
128
10
0.000000
20
0.000000
30
0.000000
71
8
72
46
73
7
0
VERTEX
8
0
6
CONTINUOUS
62
252
70
128
10
0.000000
20
0.000000
30
0.000000
71
7
72
46
73
47
0
VERTEX
8
0
6
CONTINUOUS
62
252
70
128
10
0.000000
20
0.000000
30
0.000000
71
7
72
47
73
6
0
VERTEX
8
0
6
CONTINUOUS
62
252
70
128
10
0.000000
20
0.000000
30
0.000000
71
6
72
47
73
48
0
VERTEX
8
0
6
CONTINUOUS
62
252
70
128
10
0.000000
20
0.000000
30
0.000000
71
6
72
48
73
5
0
VERTEX
8
0
6
CONTINUOUS
62
252
70
128
10
0.000000
20
0.000000
30
0.000000
71
5
72
48
73
49
0
VERTEX
8
0
6
CONTINUOUS
62
252
70
128
10
0.000000
20
0.000000
30
0.000000
71
5
72
49
73
4
0
VERTEX
8
0
6
CONTINUOUS
62
252
70
128
10
0.000000
20
0.000000
30
0.000000
71
4
72
49
73
50
0
VERTEX
8
0
6
CONTINUOUS
62
252
70
128
10
0.000000
20
0.000000
30
0.000000
71
4
72
50
73
3
0
VERTEX
8
0
6
CONTINUOUS
62
252
70
128
10
0.000000
20
0.000000
30
0.000000
71
3
72
50
73
51
0
VERTEX
8
0
6
CONTINUOUS
62
252
70
128
10
0.000000
20
0.000000
30
0.000000
71
3
72
51
73
2
0
SEQEND
0
POLYLINE
66
1
8
0
6
CONTINUOUS
62
252
70
64
75
0
10
0.000000
20
0.000000
30
0.000000
0
VERTEX
8
0
6
CONTINUOUS
62
252
70
192
10
1.200000
20
27.082190
30
27.082190
0
VERTEX
8
0
6
CONTINUOUS
62
252
70
192
10
1.200000
20
26.641540
30
27.451939
0
VERTEX
8
0
6
CONTINUOUS
62
252
70
192
10
1.200000
20
26.143378
30
27.739553
0
VERTEX
8
0
6
CONTINUOUS
62
252
70
192
10
1.200000
20
25.602840
30
27.936293
0
VERTEX
8
0
6
CONTINUOUS
62
252
70
192
10
1.200000
20
25.036351
30
28.036180
0
VERTEX
8
0
6
CONTINUOUS
62
252
70
192
10
1.200000
20
24.461123
30
28.036180
0
VERTEX
8
0
6
CONTINUOUS
62
252
70
192
10
1.200000
20
23.894634
30
27.936293
0
VERTEX
8
0
6
CONTINUOUS
62
252
70
192
10
1.200000
20
23.354097
30
27.739553
0
VERTEX
8
0
6
CONTINUOUS
62
252
70
192
10
1.200000
20
22.855935
30
27.451939
0
VERTEX
8
0
6
CONTINUOUS
62
252
70
192
10
1.200000
20
22.415285
30
27.082190
0
VERTEX
8
0
6
CONTINUOUS
62
252
70
192
10
1.200000
20
22.045536
30
26.641540
0
VERTEX
8
0
6
CONTINUOUS
62
252
70
192
10
1.200000
20
21.757922
30
26.143378
0
VERTEX
8
0
6
CONTINUOUS
62
252
70
192
10
1.200000
20
21.561182
30
25.602840
0
VERTEX
8
0
6
CONTINUOUS
62
252
70
192
10
1.200000
20
21.461295
30
25.036351
0
VERTEX
8
0
6
CONTINUOUS
62
252
70
192
10
1.200000
20
21.461295
30
24.461123
0
VERTEX
8
0
6
CONTINUOUS
62
252
70
192
10
1.200000
20
21.561182
30
23.894634
0
VERTEX
8
0
6
CONTINUOUS
62
252
70
192
10
1.200000
20
21.757922
30
23.354097
0
VERTEX
8
0
6
CONTINUOUS
62
252
70
192
10
1.200000
20
22.045536
30
22.855935
0
VERTEX
8
0
6
CONTINUOUS
62
252
70
192
10
1.200000
20
22.415285
30
22.415285
0
VERTEX
8
0
6
CONTINUOUS
62
252
70
192
10
1.200000
20
22.855935
30
22.045536
0
VERTEX
8
0
6
CONTINUOUS
62
252
70
192
10
1.200000
20
23.354097
30
21.757922
0
VERTEX
8
0
6
CONTINUOUS
62
252
70
192
10
1.200000
20
23.894634
30
21.561182
0
VERTEX
8
0
6
CONTINUOUS
62
252
70
192
10
1.200000
20
24.461123
30
21.461295
0
VERTEX
8
0
6
CONTINUOUS
62
252
70
192
10
1.200000
20
25.036351
30
21.461295
0
VERTEX
8
0
6
CONTINUOUS
62
252
70
192
10
1.200000
20
25.602840
30
21.561182
0
VERTEX
8
0
6
CONTINUOUS
62
252
70
192
10
1.200000
20
26.143378
30
21.757922
0
VERTEX
8
0
6
CONTINUOUS
62
252
70
192
10
1.200000
20
26.641540
30
22.045536
0
VERTEX
8
0
6
CONTINUOUS
62
252
70
192
10
1.200000
20
27.082190
30
22.415285
0
VERTEX
8
0
6
CONTINUOUS
62
252
70
192
10
1.200000
20
27.451939
30
22.855935
0
VERTEX
8
0
6
CONTINUOUS
62
252
70
192
10
1.200000
20
27.739553
30
23.354097
0
VERTEX
8
0
6
CONTINUOUS
62
252
70
192
10
1.200000
20
27.936293
30
23.894634
0
VERTEX
8
0
6
CONTINUOUS
62
252
70
192
10
1.200000
20
28.036180
30
24.461123
0
VERTEX
8
0
6
CONTINUOUS
62
252
70
192
10
1.200000
20
28.036180
30
25.036351
0
VERTEX
8
0
6
CONTINUOUS
62
252
70
192
10
1.200000
20
27.936293
30
25.602840
0
VERTEX
8
0
6
CONTINUOUS
62
252
70
192
10
1.200000
20
27.739553
30
26.143378
0
VERTEX
8
0
6
CONTINUOUS
62
252
70
192
10
1.200000
20
27.451939
30
26.641540
0
VERTEX
8
0
6
CONTINUOUS
62
252
70
192
10
-0.000000
20
22.415285
30
22.415285
0
VERTEX
8
0
6
CONTINUOUS
62
252
70
192
10
-0.000000
20
22.045536
30
22.855935
0
VERTEX
8
0
6
CONTINUOUS
62
252
70
192
10
-0.000000
20
21.757922
30
23.354097
0
VERTEX
8
0
6
CONTINUOUS
62
252
70
192
10
-0.000000
20
21.561182
30
23.894634
0
VERTEX
8
0
6
CONTINUOUS
62
252
70
192
10
-0.000000
20
21.461295
30
24.461123
0
VERTEX
8
0
6
CONTINUOUS
62
252
70
192
10
-0.000000
20
21.461295
30
25.036351
0
VERTEX
8
0
6
CONTINUOUS
62
252
70
192
10
-0.000000
20
21.561182
30
25.602840
0
VERTEX
8
0
6
CONTINUOUS
62
252
70
192
10
-0.000000
20
21.757922
30
26.143378
0
VERTEX
8
0
6
CONTINUOUS
62
252
70
192
10
-0.000000
20
22.045536
30
26.641540
0
VERTEX
8
0
6
CONTINUOUS
62
252
70
192
10
-0.000000
20
22.415285
30
27.082190
0
VERTEX
8
0
6
CONTINUOUS
62
252
70
192
10
-0.000000
20
22.855935
30
27.451939
0
VERTEX
8
0
6
CONTINUOUS
62
252
70
192
10
-0.000000
20
23.354097
30
27.739553
0
VERTEX
8
0
6
CONTINUOUS
62
252
70
192
10
-0.000000
20
23.894634
30
27.936293
0
VERTEX
8
0
6
CONTINUOUS
62
252
70
192
10
-0.000000
20
24.461123
30
28.036180
0
VERTEX
8
0
6
CONTINUOUS
62
252
70
192
10
-0.000000
20
25.036351
30
28.036180
0
VERTEX
8
0
6
CONTINUOUS
62
252
70
192
10
-0.000000
20
25.602840
30
27.936293
0
VERTEX
8
0
6
CONTINUOUS
62
252
70
192
10
-0.000000
20
26.143378
30
27.739553
0
VERTEX
8
0
6
CONTINUOUS
62
252
70
192
10
-0.000000
20
26.641540
30
27.451939
0
VERTEX
8
0
6
CONTINUOUS
62
252
70
192
10
-0.000000
20
27.082190
30
27.082190
0
VERTEX
8
0
6
CONTINUOUS
62
252
70
192
10
-0.000000
20
27.451939
30
26.641540
0
VERTEX
8
0
6
CONTINUOUS
62
252
70
192
10
-0.000000
20
27.739553
30
26.143378
0
VERTEX
8
0
6
CONTINUOUS
62
252
70
192
10
-0.000000
20
27.936293
30
25.602840
0
VERTEX
8
0
6
CONTINUOUS
62
252
70
192
10
-0.000000
20
28.036180
30
25.036351
0
VERTEX
8
0
6
CONTINUOUS
62
252
70
192
10
-0.000000
20
28.036180
30
24.461123
0
VERTEX
8
0
6
CONTINUOUS
62
252
70
192
10
-0.000000
20
27.936293
30
23.894634
0
VERTEX
8
0
6
CONTINUOUS
62
252
70
192
10
-0.000000
20
27.739553
30
23.354097
0
VERTEX
8
0
6
CONTINUOUS
62
252
70
192
10
-0.000000
20
27.451939
30
22.855935
0
VERTEX
8
0
6
CONTINUOUS
62
252
70
192
10
-0.000000
20
27.082190
30
22.415285
0
VERTEX
8
0
6
CONTINUOUS
62
252
70
192
10
-0.000000
20
26.641540
30
22.045536
0
VERTEX
8
0
6
CONTINUOUS
62
252
70
192
10
-0.000000
20
26.143378
30
21.757922
0
VERTEX
8
0
6
CONTINUOUS
62
252
70
192
10
-0.000000
20
25.602840
30
21.561182
0
VERTEX
8
0
6
CONTINUOUS
62
252
70
192
10
-0.000000
20
25.036351
30
21.461295
0
VERTEX
8
0
6
CONTINUOUS
62
252
70
192
10
-0.000000
20
24.461123
30
21.461295
0
VERTEX
8
0
6
CONTINUOUS
62
252
70
192
10
-0.000000
20
23.894634
30
21.561182
0
VERTEX
8
0
6
CONTINUOUS
62
252
70
192
10
-0.000000
20
23.354097
30
21.757922
0
VERTEX
8
0
6
CONTINUOUS
62
252
70
192
10
-0.000000
20
22.855935
30
22.045536
0
VERTEX
8
0
6
CONTINUOUS
62
252
70
128
10
0.000000
20
0.000000
30
0.000000
71
2
72
54
73
1
0
VERTEX
8
0
6
CONTINUOUS
62
252
70
128
10
0.000000
20
0.000000
30
0.000000
71
1
72
54
73
55
0
VERTEX
8
0
6
CONTINUOUS
62
252
70
128
10
0.000000
20
0.000000
30
0.000000
71
1
72
55
73
36
0
VERTEX
8
0
6
CONTINUOUS
62
252
70
128
10
0.000000
20
0.000000
30
0.000000
71
36
72
55
73
56
0
VERTEX
8
0
6
CONTINUOUS
62
252
70
128
10
0.000000
20
0.000000
30
0.000000
71
36
72
56
73
35
0
VERTEX
8
0
6
CONTINUOUS
62
252
70
128
10
0.000000
20
0.000000
30
0.000000
71
35
72
56
73
57
0
VERTEX
8
0
6
CONTINUOUS
62
252
70
128
10
0.000000
20
0.000000
30
0.000000
71
35
72
57
73
58
0
VERTEX
8
0
6
CONTINUOUS
62
252
70
128
10
0.000000
20
0.000000
30
0.000000
71
54
72
2
73
53
0
VERTEX
8
0
6
CONTINUOUS
62
252
70
128
10
0.000000
20
0.000000
30
0.000000
71
53
72
2
73
3
0
VERTEX
8
0
6
CONTINUOUS
62
252
70
128
10
0.000000
20
0.000000
30
0.000000
71
53
72
3
73
52
0
VERTEX
8
0
6
CONTINUOUS
62
252
70
128
10
0.000000
20
0.000000
30
0.000000
71
52
72
3
73
4
0
VERTEX
8
0
6
CONTINUOUS
62
252
70
128
10
0.000000
20
0.000000
30
0.000000
71
52
72
4
73
51
0
VERTEX
8
0
6
CONTINUOUS
62
252
70
128
10
0.000000
20
0.000000
30
0.000000
71
51
72
4
73
5
0
VERTEX
8
0
6
CONTINUOUS
62
252
70
128
10
0.000000
20
0.000000
30
0.000000
71
51
72
5
73
50
0
VERTEX
8
0
6
CONTINUOUS
62
252
70
128
10
0.000000
20
0.000000
30
0.000000
71
50
72
5
73
6
0
VERTEX
8
0
6
CONTINUOUS
62
252
70
128
10
0.000000
20
0.000000
30
0.000000
71
50
72
6
73
49
0
VERTEX
8
0
6
CONTINUOUS
62
252
70
128
10
0.000000
20
0.000000
30
0.000000
71
49
72
6
73
7
0
VERTEX
8
0
6
CONTINUOUS
62
252
70
128
10
0.000000
20
0.000000
30
0.000000
71
49
72
7
73
48
0
VERTEX
8
0
6
CONTINUOUS
62
252
70
128
10
0.000000
20
0.000000
30
0.000000
71
48
72
7
73
8
0
VERTEX
8
0
6
CONTINUOUS
62
252
70
128
10
0.000000
20
0.000000
30
0.000000
71
48
72
8
73
47
0
VERTEX
8
0
6
CONTINUOUS
62
252
70
128
10
0.000000
20
0.000000
30
0.000000
71
47
72
8
73
9
0
VERTEX
8
0
6
CONTINUOUS
62
252
70
128
10
0.000000
20
0.000000
30
0.000000
71
47
72
9
73
46
0
VERTEX
8
0
6
CONTINUOUS
62
252
70
128
10
0.000000
20
0.000000
30
0.000000
71
46
72
9
73
10
0
VERTEX
8
0
6
CONTINUOUS
62
252
70
128
10
0.000000
20
0.000000
30
0.000000
71
46
72
10
73
45
0
VERTEX
8
0
6
CONTINUOUS
62
252
70
128
10
0.000000
20
0.000000
30
0.000000
71
45
72
10
73
11
0
VERTEX
8
0
6
CONTINUOUS
62
252
70
128
10
0.000000
20
0.000000
30
0.000000
71
45
72
11
73
44
0
VERTEX
8
0
6
CONTINUOUS
62
252
70
128
10
0.000000
20
0.000000
30
0.000000
71
44
72
11
73
12
0
VERTEX
8
0
6
CONTINUOUS
62
252
70
128
10
0.000000
20
0.000000
30
0.000000
71
44
72
12
73
43
0
VERTEX
8
0
6
CONTINUOUS
62
252
70
128
10
0.000000
20
0.000000
30
0.000000
71
43
72
12
73
13
0
VERTEX
8
0
6
CONTINUOUS
62
252
70
128
10
0.000000
20
0.000000
30
0.000000
71
43
72
13
73
42
0
VERTEX
8
0
6
CONTINUOUS
62
252
70
128
10
0.000000
20
0.000000
30
0.000000
71
42
72
13
73
14
0
VERTEX
8
0
6
CONTINUOUS
62
252
70
128
10
0.000000
20
0.000000
30
0.000000
71
42
72
14
73
41
0
VERTEX
8
0
6
CONTINUOUS
62
252
70
128
10
0.000000
20
0.000000
30
0.000000
71
41
72
14
73
15
0
VERTEX
8
0
6
CONTINUOUS
62
252
70
128
10
0.000000
20
0.000000
30
0.000000
71
41
72
15
73
40
0
VERTEX
8
0
6
CONTINUOUS
62
252
70
128
10
0.000000
20
0.000000
30
0.000000
71
40
72
15
73
16
0
VERTEX
8
0
6
CONTINUOUS
62
252
70
128
10
0.000000
20
0.000000
30
0.000000
71
40
72
16
73
39
0
VERTEX
8
0
6
CONTINUOUS
62
252
70
128
10
0.000000
20
0.000000
30
0.000000
71
39
72
16
73
17
0
VERTEX
8
0
6
CONTINUOUS
62
252
70
128
10
0.000000
20
0.000000
30
0.000000
71
39
72
17
73
38
0
VERTEX
8
0
6
CONTINUOUS
62
252
70
128
10
0.000000
20
0.000000
30
0.000000
71
38
72
17
73
18
0
VERTEX
8
0
6
CONTINUOUS
62
252
70
128
10
0.000000
20
0.000000
30
0.000000
71
38
72
18
73
37
0
VERTEX
8
0
6
CONTINUOUS
62
252
70
128
10
0.000000
20
0.000000
30
0.000000
71
37
72
18
73
19
0
VERTEX
8
0
6
CONTINUOUS
62
252
70
128
10
0.000000
20
0.000000
30
0.000000
71
37
72
19
73
72
0
VERTEX
8
0
6
CONTINUOUS
62
252
70
128
10
0.000000
20
0.000000
30
0.000000
71
72
72
19
73
20
0
VERTEX
8
0
6
CONTINUOUS
62
252
70
128
10
0.000000
20
0.000000
30
0.000000
71
72
72
20
73
71
0
VERTEX
8
0
6
CONTINUOUS
62
252
70
128
10
0.000000
20
0.000000
30
0.000000
71
71
72
20
73
21
0
VERTEX
8
0
6
CONTINUOUS
62
252
70
128
10
0.000000
20
0.000000
30
0.000000
71
71
72
21
73
70
0
VERTEX
8
0
6
CONTINUOUS
62
252
70
128
10
0.000000
20
0.000000
30
0.000000
71
70
72
21
73
22
0
VERTEX
8
0
6
CONTINUOUS
62
252
70
128
10
0.000000
20
0.000000
30
0.000000
71
70
72
22
73
69
0
VERTEX
8
0
6
CONTINUOUS
62
252
70
128
10
0.000000
20
0.000000
30
0.000000
71
69
72
22
73
23
0
VERTEX
8
0
6
CONTINUOUS
62
252
70
128
10
0.000000
20
0.000000
30
0.000000
71
69
72
23
73
68
0
VERTEX
8
0
6
CONTINUOUS
62
252
70
128
10
0.000000
20
0.000000
30
0.000000
71
68
72
23
73
24
0
VERTEX
8
0
6
CONTINUOUS
62
252
70
128
10
0.000000
20
0.000000
30
0.000000
71
68
72
24
73
67
0
VERTEX
8
0
6
CONTINUOUS
62
252
70
128
10
0.000000
20
0.000000
30
0.000000
71
67
72
24
73
25
0
VERTEX
8
0
6
CONTINUOUS
62
252
70
128
10
0.000000
20
0.000000
30
0.000000
71
67
72
25
73
66
0
VERTEX
8
0
6
CONTINUOUS
62
252
70
128
10
0.000000
20
0.000000
30
0.000000
71
66
72
25
73
26
0
VERTEX
8
0
6
CONTINUOUS
62
252
70
128
10
0.000000
20
0.000000
30
0.000000
71
66
72
26
73
65
0
VERTEX
8
0
6
CONTINUOUS
62
252
70
128
10
0.000000
20
0.000000
30
0.000000
71
65
72
26
73
27
0
VERTEX
8
0
6
CONTINUOUS
62
252
70
128
10
0.000000
20
0.000000
30
0.000000
71
65
72
27
73
64
0
VERTEX
8
0
6
CONTINUOUS
62
252
70
128
10
0.000000
20
0.000000
30
0.000000
71
64
72
27
73
28
0
VERTEX
8
0
6
CONTINUOUS
62
252
70
128
10
0.000000
20
0.000000
30
0.000000
71
64
72
28
73
63
0
VERTEX
8
0
6
CONTINUOUS
62
252
70
128
10
0.000000
20
0.000000
30
0.000000
71
63
72
28
73
29
0
VERTEX
8
0
6
CONTINUOUS
62
252
70
128
10
0.000000
20
0.000000
30
0.000000
71
63
72
29
73
62
0
VERTEX
8
0
6
CONTINUOUS
62
252
70
128
10
0.000000
20
0.000000
30
0.000000
71
62
72
29
73
30
0
VERTEX
8
0
6
CONTINUOUS
62
252
70
128
10
0.000000
20
0.000000
30
0.000000
71
62
72
30
73
61
0
VERTEX
8
0
6
CONTINUOUS
62
252
70
128
10
0.000000
20
0.000000
30
0.000000
71
61
72
30
73
31
0
VERTEX
8
0
6
CONTINUOUS
62
252
70
128
10
0.000000
20
0.000000
30
0.000000
71
61
72
31
73
60
0
VERTEX
8
0
6
CONTINUOUS
62
252
70
128
10
0.000000
20
0.000000
30
0.000000
71
60
72
31
73
32
0
VERTEX
8
0
6
CONTINUOUS
62
252
70
128
10
0.000000
20
0.000000
30
0.000000
71
60
72
32
73
59
0
VERTEX
8
0
6
CONTINUOUS
62
252
70
128
10
0.000000
20
0.000000
30
0.000000
71
59
72
32
73
33
0
VERTEX
8
0
6
CONTINUOUS
62
252
70
128
10
0.000000
20
0.000000
30
0.000000
71
59
72
33
73
34
0
VERTEX
8
0
6
CONTINUOUS
62
252
70
128
10
0.000000
20
0.000000
30
0.000000
71
59
72
34
73
58
0
VERTEX
8
0
6
CONTINUOUS
62
252
70
128
10
0.000000
20
0.000000
30
0.000000
71
58
72
34
73
35
0
SEQEND
0
POLYLINE
66
1
8
0
6
CONTINUOUS
62
252
70
64
75
0
10
0.000000
20
0.000000
30
0.000000
0
VERTEX
8
0
6
CONTINUOUS
62
252
70
192
10
1.200000
20
27.082190
30
-27.082190
0
VERTEX
8
0
6
CONTINUOUS
62
252
70
192
10
1.200000
20
27.451939
30
-26.641540
0
VERTEX
8
0
6
CONTINUOUS
62
252
70
192
10
1.200000
20
27.739553
30
-26.143378
0
VERTEX
8
0
6
CONTINUOUS
62
252
70
192
10
1.200000
20
27.936293
30
-25.602840
0
VERTEX
8
0
6
CONTINUOUS
62
252
70
192
10
1.200000
20
28.036180
30
-25.036351
0
VERTEX
8
0
6
CONTINUOUS
62
252
70
192
10
1.200000
20
28.036180
30
-24.461123
0
VERTEX
8
0
6
CONTINUOUS
62
252
70
192
10
1.200000
20
27.936293
30
-23.894634
0
VERTEX
8
0
6
CONTINUOUS
62
252
70
192
10
1.200000
20
27.739553
30
-23.354097
0
VERTEX
8
0
6
CONTINUOUS
62
252
70
192
10
1.200000
20
27.451939
30
-22.855935
0
VERTEX
8
0
6
CONTINUOUS
62
252
70
192
10
1.200000
20
27.082190
30
-22.415285
0
VERTEX
8
0
6
CONTINUOUS
62
252
70
192
10
1.200000
20
26.641540
30
-22.045536
0
VERTEX
8
0
6
CONTINUOUS
62
252
70
192
10
1.200000
20
26.143378
30
-21.757922
0
VERTEX
8
0
6
CONTINUOUS
62
252
70
192
10
1.200000
20
25.602840
30
-21.561182
0
VERTEX
8
0
6
CONTINUOUS
62
252
70
192
10
1.200000
20
25.036351
30
-21.461295
0
VERTEX
8
0
6
CONTINUOUS
62
252
70
192
10
1.200000
20
24.461123
30
-21.461295
0
VERTEX
8
0
6
CONTINUOUS
62
252
70
192
10
1.200000
20
23.894634
30
-21.561182
0
VERTEX
8
0
6
CONTINUOUS
62
252
70
192
10
1.200000
20
23.354097
30
-21.757922
0
VERTEX
8
0
6
CONTINUOUS
62
252
70
192
10
1.200000
20
22.855935
30
-22.045536
0
VERTEX
8
0
6
CONTINUOUS
62
252
70
192
10
1.200000
20
22.415285
30
-22.415285
0
VERTEX
8
0
6
CONTINUOUS
62
252
70
192
10
1.200000
20
22.045536
30
-22.855935
0
VERTEX
8
0
6
CONTINUOUS
62
252
70
192
10
1.200000
20
21.757922
30
-23.354097
0
VERTEX
8
0
6
CONTINUOUS
62
252
70
192
10
1.200000
20
21.561182
30
-23.894634
0
VERTEX
8
0
6
CONTINUOUS
62
252
70
192
10
1.200000
20
21.461295
30
-24.461123
0
VERTEX
8
0
6
CONTINUOUS
62
252
70
192
10
1.200000
20
21.461295
30
-25.036351
0
VERTEX
8
0
6
CONTINUOUS
62
252
70
192
10
1.200000
20
21.561182
30
-25.602840
0
VERTEX
8
0
6
CONTINUOUS
62
252
70
192
10
1.200000
20
21.757922
30
-26.143378
0
VERTEX
8
0
6
CONTINUOUS
62
252
70
192
10
1.200000
20
22.045536
30
-26.641540
0
VERTEX
8
0
6
CONTINUOUS
62
252
70
192
10
1.200000
20
22.415285
30
-27.082190
0
VERTEX
8
0
6
CONTINUOUS
62
252
70
192
10
1.200000
20
22.855935
30
-27.451939
0
VERTEX
8
0
6
CONTINUOUS
62
252
70
192
10
1.200000
20
23.354097
30
-27.739553
0
VERTEX
8
0
6
CONTINUOUS
62
252
70
192
10
1.200000
20
23.894634
30
-27.936293
0
VERTEX
8
0
6
CONTINUOUS
62
252
70
192
10
1.200000
20
24.461123
30
-28.036180
0
VERTEX
8
0
6
CONTINUOUS
62
252
70
192
10
1.200000
20
25.036351
30
-28.036180
0
VERTEX
8
0
6
CONTINUOUS
62
252
70
192
10
1.200000
20
25.602840
30
-27.936293
0
VERTEX
8
0
6
CONTINUOUS
62
252
70
192
10
1.200000
20
26.143378
30
-27.739553
0
VERTEX
8
0
6
CONTINUOUS
62
252
70
192
10
1.200000
20
26.641540
30
-27.451939
0
VERTEX
8
0
6
CONTINUOUS
62
252
70
192
10
0.000000
20
22.415285
30
-22.415285
0
VERTEX
8
0
6
CONTINUOUS
62
252
70
192
10
0.000000
20
22.855935
30
-22.045536
0
VERTEX
8
0
6
CONTINUOUS
62
252
70
192
10
0.000000
20
23.354097
30
-21.757922
0
VERTEX
8
0
6
CONTINUOUS
62
252
70
192
10
0.000000
20
23.894634
30
-21.561182
0
VERTEX
8
0
6
CONTINUOUS
62
252
70
192
10
0.000000
20
24.461123
30
-21.461295
0
VERTEX
8
0
6
CONTINUOUS
62
252
70
192
10
0.000000
20
25.036351
30
-21.461295
0
VERTEX
8
0
6
CONTINUOUS
62
252
70
192
10
0.000000
20
25.602840
30
-21.561182
0
VERTEX
8
0
6
CONTINUOUS
62
252
70
192
10
0.000000
20
26.143378
30
-21.757922
0
VERTEX
8
0
6
CONTINUOUS
62
252
70
192
10
0.000000
20
26.641540
30
-22.045536
0
VERTEX
8
0
6
CONTINUOUS
62
252
70
192
10
0.000000
20
27.082190
30
-22.415285
0
VERTEX
8
0
6
CONTINUOUS
62
252
70
192
10
0.000000
20
27.451939
30
-22.855935
0
VERTEX
8
0
6
CONTINUOUS
62
252
70
192
10
0.000000
20
27.739553
30
-23.354097
0
VERTEX
8
0
6
CONTINUOUS
62
252
70
192
10
0.000000
20
27.936293
30
-23.894634
0
VERTEX
8
0
6
CONTINUOUS
62
252
70
192
10
0.000000
20
28.036180
30
-24.461123
0
VERTEX
8
0
6
CONTINUOUS
62
252
70
192
10
0.000000
20
28.036180
30
-25.036351
0
VERTEX
8
0
6
CONTINUOUS
62
252
70
192
10
0.000000
20
27.936293
30
-25.602840
0
VERTEX
8
0
6
CONTINUOUS
62
252
70
192
10
0.000000
20
27.739553
30
-26.143378
0
VERTEX
8
0
6
CONTINUOUS
62
252
70
192
10
0.000000
20
27.451939
30
-26.641540
0
VERTEX
8
0
6
CONTINUOUS
62
252
70
192
10
0.000000
20
27.082190
30
-27.082190
0
VERTEX
8
0
6
CONTINUOUS
62
252
70
192
10
0.000000
20
26.641540
30
-27.451939
0
VERTEX
8
0
6
CONTINUOUS
62
252
70
192
10
0.000000
20
26.143378
30
-27.739553
0
VERTEX
8
0
6
CONTINUOUS
62
252
70
192
10
0.000000
20
25.602840
30
-27.936293
0
VERTEX
8
0
6
CONTINUOUS
62
252
70
192
10
0.000000
20
25.036351
30
-28.036180
0
VERTEX
8
0
6
CONTINUOUS
62
252
70
192
10
0.000000
20
24.461123
30
-28.036180
0
VERTEX
8
0
6
CONTINUOUS
62
252
70
192
10
0.000000
20
23.894634
30
-27.936293
0
VERTEX
8
0
6
CONTINUOUS
62
252
70
192
10
0.000000
20
23.354097
30
-27.739553
0
VERTEX
8
0
6
CONTINUOUS
62
252
70
192
10
0.000000
20
22.855935
30
-27.451939
0
VERTEX
8
0
6
CONTINUOUS
62
252
70
192
10
0.000000
20
22.415285
30
-27.082190
0
VERTEX
8
0
6
CONTINUOUS
62
252
70
192
10
0.000000
20
22.045536
30
-26.641540
0
VERTEX
8
0
6
CONTINUOUS
62
252
70
192
10
0.000000
20
21.757922
30
-26.143378
0
VERTEX
8
0
6
CONTINUOUS
62
252
70
192
10
0.000000
20
21.561182
30
-25.602840
0
VERTEX
8
0
6
CONTINUOUS
62
252
70
192
10
0.000000
20
21.461295
30
-25.036351
0
VERTEX
8
0
6
CONTINUOUS
62
252
70
192
10
0.000000
20
21.461295
30
-24.461123
0
VERTEX
8
0
6
CONTINUOUS
62
252
70
192
10
0.000000
20
21.561182
30
-23.894634
0
VERTEX
8
0
6
CONTINUOUS
62
252
70
192
10
0.000000
20
21.757922
30
-23.354097
0
VERTEX
8
0
6
CONTINUOUS
62
252
70
192
10
0.000000
20
22.045536
30
-22.855935
0
VERTEX
8
0
6
CONTINUOUS
62
252
70
128
10
0.000000
20
0.000000
30
0.000000
71
2
72
54
73
1
0
VERTEX
8
0
6
CONTINUOUS
62
252
70
128
10
0.000000
20
0.000000
30
0.000000
71
1
72
54
73
55
0
VERTEX
8
0
6
CONTINUOUS
62
252
70
128
10
0.000000
20
0.000000
30
0.000000
71
1
72
55
73
36
0
VERTEX
8
0
6
CONTINUOUS
62
252
70
128
10
0.000000
20
0.000000
30
0.000000
71
36
72
55
73
56
0
VERTEX
8
0
6
CONTINUOUS
62
252
70
128
10
0.000000
20
0.000000
30
0.000000
71
36
72
56
73
35
0
VERTEX
8
0
6
CONTINUOUS
62
252
70
128
10
0.000000
20
0.000000
30
0.000000
71
35
72
56
73
57
0
VERTEX
8
0
6
CONTINUOUS
62
252
70
128
10
0.000000
20
0.000000
30
0.000000
71
35
72
57
73
58
0
VERTEX
8
0
6
CONTINUOUS
62
252
70
128
10
0.000000
20
0.000000
30
0.000000
71
54
72
2
73
53
0
VERTEX
8
0
6
CONTINUOUS
62
252
70
128
10
0.000000
20
0.000000
30
0.000000
71
53
72
2
73
3
0
VERTEX
8
0
6
CONTINUOUS
62
252
70
128
10
0.000000
20
0.000000
30
0.000000
71
53
72
3
73
52
0
VERTEX
8
0
6
CONTINUOUS
62
252
70
128
10
0.000000
20
0.000000
30
0.000000
71
52
72
3
73
4
0
VERTEX
8
0
6
CONTINUOUS
62
252
70
128
10
0.000000
20
0.000000
30
0.000000
71
52
72
4
73
51
0
VERTEX
8
0
6
CONTINUOUS
62
252
70
128
10
0.000000
20
0.000000
30
0.000000
71
51
72
4
73
5
0
VERTEX
8
0
6
CONTINUOUS
62
252
70
128
10
0.000000
20
0.000000
30
0.000000
71
51
72
5
73
50
0
VERTEX
8
0
6
CONTINUOUS
62
252
70
128
10
0.000000
20
0.000000
30
0.000000
71
50
72
5
73
6
0
VERTEX
8
0
6
CONTINUOUS
62
252
70
128
10
0.000000
20
0.000000
30
0.000000
71
50
72
6
73
49
0
VERTEX
8
0
6
CONTINUOUS
62
252
70
128
10
0.000000
20
0.000000
30
0.000000
71
49
72
6
73
7
0
VERTEX
8
0
6
CONTINUOUS
62
252
70
128
10
0.000000
20
0.000000
30
0.000000
71
49
72
7
73
48
0
VERTEX
8
0
6
CONTINUOUS
62
252
70
128
10
0.000000
20
0.000000
30
0.000000
71
48
72
7
73
8
0
VERTEX
8
0
6
CONTINUOUS
62
252
70
128
10
0.000000
20
0.000000
30
0.000000
71
48
72
8
73
47
0
VERTEX
8
0
6
CONTINUOUS
62
252
70
128
10
0.000000
20
0.000000
30
0.000000
71
47
72
8
73
9
0
VERTEX
8
0
6
CONTINUOUS
62
252
70
128
10
0.000000
20
0.000000
30
0.000000
71
47
72
9
73
46
0
VERTEX
8
0
6
CONTINUOUS
62
252
70
128
10
0.000000
20
0.000000
30
0.000000
71
46
72
9
73
10
0
VERTEX
8
0
6
CONTINUOUS
62
252
70
128
10
0.000000
20
0.000000
30
0.000000
71
46
72
10
73
45
0
VERTEX
8
0
6
CONTINUOUS
62
252
70
128
10
0.000000
20
0.000000
30
0.000000
71
45
72
10
73
11
0
VERTEX
8
0
6
CONTINUOUS
62
252
70
128
10
0.000000
20
0.000000
30
0.000000
71
45
72
11
73
44
0
VERTEX
8
0
6
CONTINUOUS
62
252
70
128
10
0.000000
20
0.000000
30
0.000000
71
44
72
11
73
12
0
VERTEX
8
0
6
CONTINUOUS
62
252
70
128
10
0.000000
20
0.000000
30
0.000000
71
44
72
12
73
43
0
VERTEX
8
0
6
CONTINUOUS
62
252
70
128
10
0.000000
20
0.000000
30
0.000000
71
43
72
12
73
13
0
VERTEX
8
0
6
CONTINUOUS
62
252
70
128
10
0.000000
20
0.000000
30
0.000000
71
43
72
13
73
42
0
VERTEX
8
0
6
CONTINUOUS
62
252
70
128
10
0.000000
20
0.000000
30
0.000000
71
42
72
13
73
14
0
VERTEX
8
0
6
CONTINUOUS
62
252
70
128
10
0.000000
20
0.000000
30
0.000000
71
42
72
14
73
41
0
VERTEX
8
0
6
CONTINUOUS
62
252
70
128
10
0.000000
20
0.000000
30
0.000000
71
41
72
14
73
15
0
VERTEX
8
0
6
CONTINUOUS
62
252
70
128
10
0.000000
20
0.000000
30
0.000000
71
41
72
15
73
40
0
VERTEX
8
0
6
CONTINUOUS
62
252
70
128
10
0.000000
20
0.000000
30
0.000000
71
40
72
15
73
16
0
VERTEX
8
0
6
CONTINUOUS
62
252
70
128
10
0.000000
20
0.000000
30
0.000000
71
40
72
16
73
39
0
VERTEX
8
0
6
CONTINUOUS
62
252
70
128
10
0.000000
20
0.000000
30
0.000000
71
39
72
16
73
17
0
VERTEX
8
0
6
CONTINUOUS
62
252
70
128
10
0.000000
20
0.000000
30
0.000000
71
39
72
17
73
38
0
VERTEX
8
0
6
CONTINUOUS
62
252
70
128
10
0.000000
20
0.000000
30
0.000000
71
38
72
17
73
18
0
VERTEX
8
0
6
CONTINUOUS
62
252
70
128
10
0.000000
20
0.000000
30
0.000000
71
38
72
18
73
37
0
VERTEX
8
0
6
CONTINUOUS
62
252
70
128
10
0.000000
20
0.000000
30
0.000000
71
37
72
18
73
19
0
VERTEX
8
0
6
CONTINUOUS
62
252
70
128
10
0.000000
20
0.000000
30
0.000000
71
37
72
19
73
72
0
VERTEX
8
0
6
CONTINUOUS
62
252
70
128
10
0.000000
20
0.000000
30
0.000000
71
72
72
19
73
20
0
VERTEX
8
0
6
CONTINUOUS
62
252
70
128
10
0.000000
20
0.000000
30
0.000000
71
72
72
20
73
71
0
VERTEX
8
0
6
CONTINUOUS
62
252
70
128
10
0.000000
20
0.000000
30
0.000000
71
71
72
20
73
21
0
VERTEX
8
0
6
CONTINUOUS
62
252
70
128
10
0.000000
20
0.000000
30
0.000000
71
71
72
21
73
70
0
VERTEX
8
0
6
CONTINUOUS
62
252
70
128
10
0.000000
20
0.000000
30
0.000000
71
70
72
21
73
22
0
VERTEX
8
0
6
CONTINUOUS
62
252
70
128
10
0.000000
20
0.000000
30
0.000000
71
70
72
22
73
69
0
VERTEX
8
0
6
CONTINUOUS
62
252
70
128
10
0.000000
20
0.000000
30
0.000000
71
69
72
22
73
23
0
VERTEX
8
0
6
CONTINUOUS
62
252
70
128
10
0.000000
20
0.000000
30
0.000000
71
69
72
23
73
68
0
VERTEX
8
0
6
CONTINUOUS
62
252
70
128
10
0.000000
20
0.000000
30
0.000000
71
68
72
23
73
24
0
VERTEX
8
0
6
CONTINUOUS
62
252
70
128
10
0.000000
20
0.000000
30
0.000000
71
68
72
24
73
67
0
VERTEX
8
0
6
CONTINUOUS
62
252
70
128
10
0.000000
20
0.000000
30
0.000000
71
67
72
24
73
25
0
VERTEX
8
0
6
CONTINUOUS
62
252
70
128
10
0.000000
20
0.000000
30
0.000000
71
67
72
25
73
66
0
VERTEX
8
0
6
CONTINUOUS
62
252
70
128
10
0.000000
20
0.000000
30
0.000000
71
66
72
25
73
26
0
VERTEX
8
0
6
CONTINUOUS
62
252
70
128
10
0.000000
20
0.000000
30
0.000000
71
66
72
26
73
27
0
VERTEX
8
0
6
CONTINUOUS
62
252
70
128
10
0.000000
20
0.000000
30
0.000000
71
28
72
64
73
27
0
VERTEX
8
0
6
CONTINUOUS
62
252
70
128
10
0.000000
20
0.000000
30
0.000000
71
27
72
64
73
65
0
VERTEX
8
0
6
CONTINUOUS
62
252
70
128
10
0.000000
20
0.000000
30
0.000000
71
27
72
65
73
66
0
VERTEX
8
0
6
CONTINUOUS
62
252
70
128
10
0.000000
20
0.000000
30
0.000000
71
64
72
28
73
63
0
VERTEX
8
0
6
CONTINUOUS
62
252
70
128
10
0.000000
20
0.000000
30
0.000000
71
63
72
28
73
29
0
VERTEX
8
0
6
CONTINUOUS
62
252
70
128
10
0.000000
20
0.000000
30
0.000000
71
63
72
29
73
62
0
VERTEX
8
0
6
CONTINUOUS
62
252
70
128
10
0.000000
20
0.000000
30
0.000000
71
62
72
29
73
30
0
VERTEX
8
0
6
CONTINUOUS
62
252
70
128
10
0.000000
20
0.000000
30
0.000000
71
62
72
30
73
61
0
VERTEX
8
0
6
CONTINUOUS
62
252
70
128
10
0.000000
20
0.000000
30
0.000000
71
61
72
30
73
31
0
VERTEX
8
0
6
CONTINUOUS
62
252
70
128
10
0.000000
20
0.000000
30
0.000000
71
61
72
31
73
60
0
VERTEX
8
0
6
CONTINUOUS
62
252
70
128
10
0.000000
20
0.000000
30
0.000000
71
60
72
31
73
32
0
VERTEX
8
0
6
CONTINUOUS
62
252
70
128
10
0.000000
20
0.000000
30
0.000000
71
60
72
32
73
59
0
VERTEX
8
0
6
CONTINUOUS
62
252
70
128
10
0.000000
20
0.000000
30
0.000000
71
59
72
32
73
33
0
VERTEX
8
0
6
CONTINUOUS
62
252
70
128
10
0.000000
20
0.000000
30
0.000000
71
59
72
33
73
34
0
VERTEX
8
0
6
CONTINUOUS
62
252
70
128
10
0.000000
20
0.000000
30
0.000000
71
59
72
34
73
58
0
VERTEX
8
0
6
CONTINUOUS
62
252
70
128
10
0.000000
20
0.000000
30
0.000000
71
58
72
34
73
35
0
SEQEND
0
POLYLINE
66
1
8
0
6
CONTINUOUS
62
252
70
64
75
0
10
0.000000
20
0.000000
30
0.000000
0
VERTEX
8
0
6
CONTINUOUS
62
252
70
192
10
1.200000
20
-27.082190
30
-27.082190
0
VERTEX
8
0
6
CONTINUOUS
62
252
70
192
10
1.200000
20
-26.641540
30
-27.451939
0
VERTEX
8
0
6
CONTINUOUS
62
252
70
192
10
1.200000
20
-26.143378
30
-27.739553
0
VERTEX
8
0
6
CONTINUOUS
62
252
70
192
10
1.200000
20
-25.602840
30
-27.936293
0
VERTEX
8
0
6
CONTINUOUS
62
252
70
192
10
1.200000
20
-25.036351
30
-28.036180
0
VERTEX
8
0
6
CONTINUOUS
62
252
70
192
10
1.200000
20
-24.461123
30
-28.036180
0
VERTEX
8
0
6
CONTINUOUS
62
252
70
192
10
1.200000
20
-23.894634
30
-27.936293
0
VERTEX
8
0
6
CONTINUOUS
62
252
70
192
10
1.200000
20
-23.354097
30
-27.739553
0
VERTEX
8
0
6
CONTINUOUS
62
252
70
192
10
1.200000
20
-22.855935
30
-27.451939
0
VERTEX
8
0
6
CONTINUOUS
62
252
70
192
10
1.200000
20
-22.415285
30
-27.082190
0
VERTEX
8
0
6
CONTINUOUS
62
252
70
192
10
1.200000
20
-22.045536
30
-26.641540
0
VERTEX
8
0
6
CONTINUOUS
62
252
70
192
10
1.200000
20
-21.757922
30
-26.143378
0
VERTEX
8
0
6
CONTINUOUS
62
252
70
192
10
1.200000
20
-21.561182
30
-25.602840
0
VERTEX
8
0
6
CONTINUOUS
62
252
70
192
10
1.200000
20
-21.461295
30
-25.036351
0
VERTEX
8
0
6
CONTINUOUS
62
252
70
192
10
1.200000
20
-21.461295
30
-24.461123
0
VERTEX
8
0
6
CONTINUOUS
62
252
70
192
10
1.200000
20
-21.561182
30
-23.894634
0
VERTEX
8
0
6
CONTINUOUS
62
252
70
192
10
1.200000
20
-21.757922
30
-23.354097
0
VERTEX
8
0
6
CONTINUOUS
62
252
70
192
10
1.200000
20
-22.045536
30
-22.855935
0
VERTEX
8
0
6
CONTINUOUS
62
252
70
192
10
1.200000
20
-22.415285
30
-22.415285
0
VERTEX
8
0
6
CONTINUOUS
62
252
70
192
10
1.200000
20
-22.855935
30
-22.045536
0
VERTEX
8
0
6
CONTINUOUS
62
252
70
192
10
1.200000
20
-23.354097
30
-21.757922
0
VERTEX
8
0
6
CONTINUOUS
62
252
70
192
10
1.200000
20
-23.894634
30
-21.561182
0
VERTEX
8
0
6
CONTINUOUS
62
252
70
192
10
1.200000
20
-24.461123
30
-21.461295
0
VERTEX
8
0
6
CONTINUOUS
62
252
70
192
10
1.200000
20
-25.036351
30
-21.461295
0
VERTEX
8
0
6
CONTINUOUS
62
252
70
192
10
1.200000
20
-25.602840
30
-21.561182
0
VERTEX
8
0
6
CONTINUOUS
62
252
70
192
10
1.200000
20
-26.143378
30
-21.757922
0
VERTEX
8
0
6
CONTINUOUS
62
252
70
192
10
1.200000
20
-26.641540
30
-22.045536
0
VERTEX
8
0
6
CONTINUOUS
62
252
70
192
10
1.200000
20
-27.082190
30
-22.415285
0
VERTEX
8
0
6
CONTINUOUS
62
252
70
192
10
1.200000
20
-27.451939
30
-22.855935
0
VERTEX
8
0
6
CONTINUOUS
62
252
70
192
10
1.200000
20
-27.739553
30
-23.354097
0
VERTEX
8
0
6
CONTINUOUS
62
252
70
192
10
1.200000
20
-27.936293
30
-23.894634
0
VERTEX
8
0
6
CONTINUOUS
62
252
70
192
10
1.200000
20
-28.036180
30
-24.461123
0
VERTEX
8
0
6
CONTINUOUS
62
252
70
192
10
1.200000
20
-28.036180
30
-25.036351
0
VERTEX
8
0
6
CONTINUOUS
62
252
70
192
10
1.200000
20
-27.936293
30
-25.602840
0
VERTEX
8
0
6
CONTINUOUS
62
252
70
192
10
1.200000
20
-27.739553
30
-26.143378
0
VERTEX
8
0
6
CONTINUOUS
62
252
70
192
10
1.200000
20
-27.451939
30
-26.641540
0
VERTEX
8
0
6
CONTINUOUS
62
252
70
192
10
0.000000
20
-22.415285
30
-22.415285
0
VERTEX
8
0
6
CONTINUOUS
62
252
70
192
10
0.000000
20
-22.045536
30
-22.855935
0
VERTEX
8
0
6
CONTINUOUS
62
252
70
192
10
0.000000
20
-21.757922
30
-23.354097
0
VERTEX
8
0
6
CONTINUOUS
62
252
70
192
10
0.000000
20
-21.561182
30
-23.894634
0
VERTEX
8
0
6
CONTINUOUS
62
252
70
192
10
0.000000
20
-21.461295
30
-24.461123
0
VERTEX
8
0
6
CONTINUOUS
62
252
70
192
10
0.000000
20
-21.461295
30
-25.036351
0
VERTEX
8
0
6
CONTINUOUS
62
252
70
192
10
0.000000
20
-21.561182
30
-25.602840
0
VERTEX
8
0
6
CONTINUOUS
62
252
70
192
10
0.000000
20
-21.757922
30
-26.143378
0
VERTEX
8
0
6
CONTINUOUS
62
252
70
192
10
0.000000
20
-22.045536
30
-26.641540
0
VERTEX
8
0
6
CONTINUOUS
62
252
70
192
10
0.000000
20
-22.415285
30
-27.082190
0
VERTEX
8
0
6
CONTINUOUS
62
252
70
192
10
0.000000
20
-22.855935
30
-27.451939
0
VERTEX
8
0
6
CONTINUOUS
62
252
70
192
10
0.000000
20
-23.354097
30
-27.739553
0
VERTEX
8
0
6
CONTINUOUS
62
252
70
192
10
0.000000
20
-23.894634
30
-27.936293
0
VERTEX
8
0
6
CONTINUOUS
62
252
70
192
10
0.000000
20
-24.461123
30
-28.036180
0
VERTEX
8
0
6
CONTINUOUS
62
252
70
192
10
0.000000
20
-25.036351
30
-28.036180
0
VERTEX
8
0
6
CONTINUOUS
62
252
70
192
10
0.000000
20
-25.602840
30
-27.936293
0
VERTEX
8
0
6
CONTINUOUS
62
252
70
192
10
0.000000
20
-26.143378
30
-27.739553
0
VERTEX
8
0
6
CONTINUOUS
62
252
70
192
10
0.000000
20
-26.641540
30
-27.451939
0
VERTEX
8
0
6
CONTINUOUS
62
252
70
192
10
0.000000
20
-27.082190
30
-27.082190
0
VERTEX
8
0
6
CONTINUOUS
62
252
70
192
10
0.000000
20
-27.451939
30
-26.641540
0
VERTEX
8
0
6
CONTINUOUS
62
252
70
192
10
0.000000
20
-27.739553
30
-26.143378
0
VERTEX
8
0
6
CONTINUOUS
62
252
70
192
10
0.000000
20
-27.936293
30
-25.602840
0
VERTEX
8
0
6
CONTINUOUS
62
252
70
192
10
0.000000
20
-28.036180
30
-25.036351
0
VERTEX
8
0
6
CONTINUOUS
62
252
70
192
10
0.000000
20
-28.036180
30
-24.461123
0
VERTEX
8
0
6
CONTINUOUS
62
252
70
192
10
0.000000
20
-27.936293
30
-23.894634
0
VERTEX
8
0
6
CONTINUOUS
62
252
70
192
10
0.000000
20
-27.739553
30
-23.354097
0
VERTEX
8
0
6
CONTINUOUS
62
252
70
192
10
0.000000
20
-27.451939
30
-22.855935
0
VERTEX
8
0
6
CONTINUOUS
62
252
70
192
10
0.000000
20
-27.082190
30
-22.415285
0
VERTEX
8
0
6
CONTINUOUS
62
252
70
192
10
0.000000
20
-26.641540
30
-22.045536
0
VERTEX
8
0
6
CONTINUOUS
62
252
70
192
10
0.000000
20
-26.143378
30
-21.757922
0
VERTEX
8
0
6
CONTINUOUS
62
252
70
192
10
0.000000
20
-25.602840
30
-21.561182
0
VERTEX
8
0
6
CONTINUOUS
62
252
70
192
10
0.000000
20
-25.036351
30
-21.461295
0
VERTEX
8
0
6
CONTINUOUS
62
252
70
192
10
0.000000
20
-24.461123
30
-21.461295
0
VERTEX
8
0
6
CONTINUOUS
62
252
70
192
10
0.000000
20
-23.894634
30
-21.561182
0
VERTEX
8
0
6
CONTINUOUS
62
252
70
192
10
0.000000
20
-23.354097
30
-21.757922
0
VERTEX
8
0
6
CONTINUOUS
62
252
70
192
10
0.000000
20
-22.855935
30
-22.045536
0
VERTEX
8
0
6
CONTINUOUS
62
252
70
128
10
0.000000
20
0.000000
30
0.000000
71
2
72
54
73
1
0
VERTEX
8
0
6
CONTINUOUS
62
252
70
128
10
0.000000
20
0.000000
30
0.000000
71
1
72
54
73
55
0
VERTEX
8
0
6
CONTINUOUS
62
252
70
128
10
0.000000
20
0.000000
30
0.000000
71
1
72
55
73
36
0
VERTEX
8
0
6
CONTINUOUS
62
252
70
128
10
0.000000
20
0.000000
30
0.000000
71
36
72
55
73
56
0
VERTEX
8
0
6
CONTINUOUS
62
252
70
128
10
0.000000
20
0.000000
30
0.000000
71
36
72
56
73
35
0
VERTEX
8
0
6
CONTINUOUS
62
252
70
128
10
0.000000
20
0.000000
30
0.000000
71
35
72
56
73
57
0
VERTEX
8
0
6
CONTINUOUS
62
252
70
128
10
0.000000
20
0.000000
30
0.000000
71
35
72
57
73
34
0
VERTEX
8
0
6
CONTINUOUS
62
252
70
128
10
0.000000
20
0.000000
30
0.000000
71
34
72
57
73
58
0
VERTEX
8
0
6
CONTINUOUS
62
252
70
128
10
0.000000
20
0.000000
30
0.000000
71
34
72
58
73
33
0
VERTEX
8
0
6
CONTINUOUS
62
252
70
128
10
0.000000
20
0.000000
30
0.000000
71
33
72
58
73
59
0
VERTEX
8
0
6
CONTINUOUS
62
252
70
128
10
0.000000
20
0.000000
30
0.000000
71
33
72
59
73
32
0
VERTEX
8
0
6
CONTINUOUS
62
252
70
128
10
0.000000
20
0.000000
30
0.000000
71
32
72
59
73
60
0
VERTEX
8
0
6
CONTINUOUS
62
252
70
128
10
0.000000
20
0.000000
30
0.000000
71
32
72
60
73
31
0
VERTEX
8
0
6
CONTINUOUS
62
252
70
128
10
0.000000
20
0.000000
30
0.000000
71
31
72
60
73
61
0
VERTEX
8
0
6
CONTINUOUS
62
252
70
128
10
0.000000
20
0.000000
30
0.000000
71
31
72
61
73
30
0
VERTEX
8
0
6
CONTINUOUS
62
252
70
128
10
0.000000
20
0.000000
30
0.000000
71
30
72
61
73
62
0
VERTEX
8
0
6
CONTINUOUS
62
252
70
128
10
0.000000
20
0.000000
30
0.000000
71
30
72
62
73
29
0
VERTEX
8
0
6
CONTINUOUS
62
252
70
128
10
0.000000
20
0.000000
30
0.000000
71
29
72
62
73
63
0
VERTEX
8
0
6
CONTINUOUS
62
252
70
128
10
0.000000
20
0.000000
30
0.000000
71
29
72
63
73
28
0
VERTEX
8
0
6
CONTINUOUS
62
252
70
128
10
0.000000
20
0.000000
30
0.000000
71
28
72
63
73
64
0
VERTEX
8
0
6
CONTINUOUS
62
252
70
128
10
0.000000
20
0.000000
30
0.000000
71
28
72
64
73
27
0
VERTEX
8
0
6
CONTINUOUS
62
252
70
128
10
0.000000
20
0.000000
30
0.000000
71
27
72
64
73
65
0
VERTEX
8
0
6
CONTINUOUS
62
252
70
128
10
0.000000
20
0.000000
30
0.000000
71
27
72
65
73
26
0
VERTEX
8
0
6
CONTINUOUS
62
252
70
128
10
0.000000
20
0.000000
30
0.000000
71
26
72
65
73
66
0
VERTEX
8
0
6
CONTINUOUS
62
252
70
128
10
0.000000
20
0.000000
30
0.000000
71
26
72
66
73
25
0
VERTEX
8
0
6
CONTINUOUS
62
252
70
128
10
0.000000
20
0.000000
30
0.000000
71
25
72
66
73
67
0
VERTEX
8
0
6
CONTINUOUS
62
252
70
128
10
0.000000
20
0.000000
30
0.000000
71
25
72
67
73
24
0
VERTEX
8
0
6
CONTINUOUS
62
252
70
128
10
0.000000
20
0.000000
30
0.000000
71
24
72
67
73
68
0
VERTEX
8
0
6
CONTINUOUS
62
252
70
128
10
0.000000
20
0.000000
30
0.000000
71
24
72
68
73
23
0
VERTEX
8
0
6
CONTINUOUS
62
252
70
128
10
0.000000
20
0.000000
30
0.000000
71
23
72
68
73
69
0
VERTEX
8
0
6
CONTINUOUS
62
252
70
128
10
0.000000
20
0.000000
30
0.000000
71
23
72
69
73
22
0
VERTEX
8
0
6
CONTINUOUS
62
252
70
128
10
0.000000
20
0.000000
30
0.000000
71
22
72
69
73
70
0
VERTEX
8
0
6
CONTINUOUS
62
252
70
128
10
0.000000
20
0.000000
30
0.000000
71
22
72
70
73
21
0
VERTEX
8
0
6
CONTINUOUS
62
252
70
128
10
0.000000
20
0.000000
30
0.000000
71
21
72
70
73
71
0
VERTEX
8
0
6
CONTINUOUS
62
252
70
128
10
0.000000
20
0.000000
30
0.000000
71
21
72
71
73
20
0
VERTEX
8
0
6
CONTINUOUS
62
252
70
128
10
0.000000
20
0.000000
30
0.000000
71
20
72
71
73
72
0
VERTEX
8
0
6
CONTINUOUS
62
252
70
128
10
0.000000
20
0.000000
30
0.000000
71
20
72
72
73
19
0
VERTEX
8
0
6
CONTINUOUS
62
252
70
128
10
0.000000
20
0.000000
30
0.000000
71
19
72
72
73
37
0
VERTEX
8
0
6
CONTINUOUS
62
252
70
128
10
0.000000
20
0.000000
30
0.000000
71
19
72
37
73
18
0
VERTEX
8
0
6
CONTINUOUS
62
252
70
128
10
0.000000
20
0.000000
30
0.000000
71
18
72
37
73
38
0
VERTEX
8
0
6
CONTINUOUS
62
252
70
128
10
0.000000
20
0.000000
30
0.000000
71
18
72
38
73
17
0
VERTEX
8
0
6
CONTINUOUS
62
252
70
128
10
0.000000
20
0.000000
30
0.000000
71
17
72
38
73
39
0
VERTEX
8
0
6
CONTINUOUS
62
252
70
128
10
0.000000
20
0.000000
30
0.000000
71
17
72
39
73
16
0
VERTEX
8
0
6
CONTINUOUS
62
252
70
128
10
0.000000
20
0.000000
30
0.000000
71
16
72
39
73
40
0
VERTEX
8
0
6
CONTINUOUS
62
252
70
128
10
0.000000
20
0.000000
30
0.000000
71
16
72
40
73
15
0
VERTEX
8
0
6
CONTINUOUS
62
252
70
128
10
0.000000
20
0.000000
30
0.000000
71
15
72
40
73
41
0
VERTEX
8
0
6
CONTINUOUS
62
252
70
128
10
0.000000
20
0.000000
30
0.000000
71
15
72
41
73
14
0
VERTEX
8
0
6
CONTINUOUS
62
252
70
128
10
0.000000
20
0.000000
30
0.000000
71
14
72
41
73
42
0
VERTEX
8
0
6
CONTINUOUS
62
252
70
128
10
0.000000
20
0.000000
30
0.000000
71
14
72
42
73
13
0
VERTEX
8
0
6
CONTINUOUS
62
252
70
128
10
0.000000
20
0.000000
30
0.000000
71
13
72
42
73
43
0
VERTEX
8
0
6
CONTINUOUS
62
252
70
128
10
0.000000
20
0.000000
30
0.000000
71
13
72
43
73
12
0
VERTEX
8
0
6
CONTINUOUS
62
252
70
128
10
0.000000
20
0.000000
30
0.000000
71
12
72
43
73
44
0
VERTEX
8
0
6
CONTINUOUS
62
252
70
128
10
0.000000
20
0.000000
30
0.000000
71
12
72
44
73
11
0
VERTEX
8
0
6
CONTINUOUS
62
252
70
128
10
0.000000
20
0.000000
30
0.000000
71
11
72
44
73
45
0
VERTEX
8
0
6
CONTINUOUS
62
252
70
128
10
0.000000
20
0.000000
30
0.000000
71
11
72
45
73
10
0
VERTEX
8
0
6
CONTINUOUS
62
252
70
128
10
0.000000
20
0.000000
30
0.000000
71
10
72
45
73
46
0
VERTEX
8
0
6
CONTINUOUS
62
252
70
128
10
0.000000
20
0.000000
30
0.000000
71
10
72
46
73
9
0
VERTEX
8
0
6
CONTINUOUS
62
252
70
128
10
0.000000
20
0.000000
30
0.000000
71
9
72
46
73
47
0
VERTEX
8
0
6
CONTINUOUS
62
252
70
128
10
0.000000
20
0.000000
30
0.000000
71
9
72
47
73
8
0
VERTEX
8
0
6
CONTINUOUS
62
252
70
128
10
0.000000
20
0.000000
30
0.000000
71
8
72
47
73
48
0
VERTEX
8
0
6
CONTINUOUS
62
252
70
128
10
0.000000
20
0.000000
30
0.000000
71
8
72
48
73
7
0
VERTEX
8
0
6
CONTINUOUS
62
252
70
128
10
0.000000
20
0.000000
30
0.000000
71
7
72
48
73
49
0
VERTEX
8
0
6
CONTINUOUS
62
252
70
128
10
0.000000
20
0.000000
30
0.000000
71
7
72
49
73
6
0
VERTEX
8
0
6
CONTINUOUS
62
252
70
128
10
0.000000
20
0.000000
30
0.000000
71
6
72
49
73
50
0
VERTEX
8
0
6
CONTINUOUS
62
252
70
128
10
0.000000
20
0.000000
30
0.000000
71
6
72
50
73
5
0
VERTEX
8
0
6
CONTINUOUS
62
252
70
128
10
0.000000
20
0.000000
30
0.000000
71
5
72
50
73
51
0
VERTEX
8
0
6
CONTINUOUS
62
252
70
128
10
0.000000
20
0.000000
30
0.000000
71
5
72
51
73
4
0
VERTEX
8
0
6
CONTINUOUS
62
252
70
128
10
0.000000
20
0.000000
30
0.000000
71
4
72
51
73
52
0
VERTEX
8
0
6
CONTINUOUS
62
252
70
128
10
0.000000
20
0.000000
30
0.000000
71
4
72
52
73
3
0
VERTEX
8
0
6
CONTINUOUS
62
252
70
128
10
0.000000
20
0.000000
30
0.000000
71
3
72
52
73
53
0
VERTEX
8
0
6
CONTINUOUS
62
252
70
128
10
0.000000
20
0.000000
30
0.000000
71
3
72
53
73
2
0
VERTEX
8
0
6
CONTINUOUS
62
252
70
128
10
0.000000
20
0.000000
30
0.000000
71
2
72
53
73
54
0
SEQEND
0
POLYLINE
66
1
8
0
6
CONTINUOUS
62
252
70
64
75
0
10
0.000000
20
0.000000
30
0.000000
0
VERTEX
8
0
6
CONTINUOUS
62
252
70
192
10
1.200000
20
-27.082190
30
27.082190
0
VERTEX
8
0
6
CONTINUOUS
62
252
70
192
10
1.200000
20
-27.451939
30
26.641540
0
VERTEX
8
0
6
CONTINUOUS
62
252
70
192
10
1.200000
20
-27.739553
30
26.143378
0
VERTEX
8
0
6
CONTINUOUS
62
252
70
192
10
1.200000
20
-27.936293
30
25.602840
0
VERTEX
8
0
6
CONTINUOUS
62
252
70
192
10
1.200000
20
-28.036180
30
25.036351
0
VERTEX
8
0
6
CONTINUOUS
62
252
70
192
10
1.200000
20
-28.036180
30
24.461123
0
VERTEX
8
0
6
CONTINUOUS
62
252
70
192
10
1.200000
20
-27.936293
30
23.894634
0
VERTEX
8
0
6
CONTINUOUS
62
252
70
192
10
1.200000
20
-27.739553
30
23.354097
0
VERTEX
8
0
6
CONTINUOUS
62
252
70
192
10
1.200000
20
-27.451939
30
22.855935
0
VERTEX
8
0
6
CONTINUOUS
62
252
70
192
10
1.200000
20
-27.082190
30
22.415285
0
VERTEX
8
0
6
CONTINUOUS
62
252
70
192
10
1.200000
20
-26.641540
30
22.045536
0
VERTEX
8
0
6
CONTINUOUS
62
252
70
192
10
1.200000
20
-26.143378
30
21.757922
0
VERTEX
8
0
6
CONTINUOUS
62
252
70
192
10
1.200000
20
-25.602840
30
21.561182
0
VERTEX
8
0
6
CONTINUOUS
62
252
70
192
10
1.200000
20
-25.036351
30
21.461295
0
VERTEX
8
0
6
CONTINUOUS
62
252
70
192
10
1.200000
20
-24.461123
30
21.461295
0
VERTEX
8
0
6
CONTINUOUS
62
252
70
192
10
1.200000
20
-23.894634
30
21.561182
0
VERTEX
8
0
6
CONTINUOUS
62
252
70
192
10
1.200000
20
-23.354097
30
21.757922
0
VERTEX
8
0
6
CONTINUOUS
62
252
70
192
10
1.200000
20
-22.855935
30
22.045536
0
VERTEX
8
0
6
CONTINUOUS
62
252
70
192
10
1.200000
20
-22.415285
30
22.415285
0
VERTEX
8
0
6
CONTINUOUS
62
252
70
192
10
1.200000
20
-22.045536
30
22.855935
0
VERTEX
8
0
6
CONTINUOUS
62
252
70
192
10
1.200000
20
-21.757922
30
23.354097
0
VERTEX
8
0
6
CONTINUOUS
62
252
70
192
10
1.200000
20
-21.561182
30
23.894634
0
VERTEX
8
0
6
CONTINUOUS
62
252
70
192
10
1.200000
20
-21.461295
30
24.461123
0
VERTEX
8
0
6
CONTINUOUS
62
252
70
192
10
1.200000
20
-21.461295
30
25.036351
0
VERTEX
8
0
6
CONTINUOUS
62
252
70
192
10
1.200000
20
-21.561182
30
25.602840
0
VERTEX
8
0
6
CONTINUOUS
62
252
70
192
10
1.200000
20
-21.757922
30
26.143378
0
VERTEX
8
0
6
CONTINUOUS
62
252
70
192
10
1.200000
20
-22.045536
30
26.641540
0
VERTEX
8
0
6
CONTINUOUS
62
252
70
192
10
1.200000
20
-22.415285
30
27.082190
0
VERTEX
8
0
6
CONTINUOUS
62
252
70
192
10
1.200000
20
-22.855935
30
27.451939
0
VERTEX
8
0
6
CONTINUOUS
62
252
70
192
10
1.200000
20
-23.354097
30
27.739553
0
VERTEX
8
0
6
CONTINUOUS
62
252
70
192
10
1.200000
20
-23.894634
30
27.936293
0
VERTEX
8
0
6
CONTINUOUS
62
252
70
192
10
1.200000
20
-24.461123
30
28.036180
0
VERTEX
8
0
6
CONTINUOUS
62
252
70
192
10
1.200000
20
-25.036351
30
28.036180
0
VERTEX
8
0
6
CONTINUOUS
62
252
70
192
10
1.200000
20
-25.602840
30
27.936293
0
VERTEX
8
0
6
CONTINUOUS
62
252
70
192
10
1.200000
20
-26.143378
30
27.739553
0
VERTEX
8
0
6
CONTINUOUS
62
252
70
192
10
1.200000
20
-26.641540
30
27.451939
0
VERTEX
8
0
6
CONTINUOUS
62
252
70
192
10
-0.000000
20
-22.415285
30
22.415285
0
VERTEX
8
0
6
CONTINUOUS
62
252
70
192
10
-0.000000
20
-22.855935
30
22.045536
0
VERTEX
8
0
6
CONTINUOUS
62
252
70
192
10
-0.000000
20
-23.354097
30
21.757922
0
VERTEX
8
0
6
CONTINUOUS
62
252
70
192
10
-0.000000
20
-23.894634
30
21.561182
0
VERTEX
8
0
6
CONTINUOUS
62
252
70
192
10
-0.000000
20
-24.461123
30
21.461295
0
VERTEX
8
0
6
CONTINUOUS
62
252
70
192
10
-0.000000
20
-25.036351
30
21.461295
0
VERTEX
8
0
6
CONTINUOUS
62
252
70
192
10
-0.000000
20
-25.602840
30
21.561182
0
VERTEX
8
0
6
CONTINUOUS
62
252
70
192
10
-0.000000
20
-26.143378
30
21.757922
0
VERTEX
8
0
6
CONTINUOUS
62
252
70
192
10
-0.000000
20
-26.641540
30
22.045536
0
VERTEX
8
0
6
CONTINUOUS
62
252
70
192
10
-0.000000
20
-27.082190
30
22.415285
0
VERTEX
8
0
6
CONTINUOUS
62
252
70
192
10
-0.000000
20
-27.451939
30
22.855935
0
VERTEX
8
0
6
CONTINUOUS
62
252
70
192
10
-0.000000
20
-27.739553
30
23.354097
0
VERTEX
8
0
6
CONTINUOUS
62
252
70
192
10
-0.000000
20
-27.936293
30
23.894634
0
VERTEX
8
0
6
CONTINUOUS
62
252
70
192
10
-0.000000
20
-28.036180
30
24.461123
0
VERTEX
8
0
6
CONTINUOUS
62
252
70
192
10
-0.000000
20
-28.036180
30
25.036351
0
VERTEX
8
0
6
CONTINUOUS
62
252
70
192
10
-0.000000
20
-27.936293
30
25.602840
0
VERTEX
8
0
6
CONTINUOUS
62
252
70
192
10
-0.000000
20
-27.739553
30
26.143378
0
VERTEX
8
0
6
CONTINUOUS
62
252
70
192
10
-0.000000
20
-27.451939
30
26.641540
0
VERTEX
8
0
6
CONTINUOUS
62
252
70
192
10
-0.000000
20
-27.082190
30
27.082190
0
VERTEX
8
0
6
CONTINUOUS
62
252
70
192
10
-0.000000
20
-26.641540
30
27.451939
0
VERTEX
8
0
6
CONTINUOUS
62
252
70
192
10
-0.000000
20
-26.143378
30
27.739553
0
VERTEX
8
0
6
CONTINUOUS
62
252
70
192
10
-0.000000
20
-25.602840
30
27.936293
0
VERTEX
8
0
6
CONTINUOUS
62
252
70
192
10
-0.000000
20
-25.036351
30
28.036180
0
VERTEX
8
0
6
CONTINUOUS
62
252
70
192
10
-0.000000
20
-24.461123
30
28.036180
0
VERTEX
8
0
6
CONTINUOUS
62
252
70
192
10
-0.000000
20
-23.894634
30
27.936293
0
VERTEX
8
0
6
CONTINUOUS
62
252
70
192
10
-0.000000
20
-23.354097
30
27.739553
0
VERTEX
8
0
6
CONTINUOUS
62
252
70
192
10
-0.000000
20
-22.855935
30
27.451939
0
VERTEX
8
0
6
CONTINUOUS
62
252
70
192
10
-0.000000
20
-22.415285
30
27.082190
0
VERTEX
8
0
6
CONTINUOUS
62
252
70
192
10
-0.000000
20
-22.045536
30
26.641540
0
VERTEX
8
0
6
CONTINUOUS
62
252
70
192
10
-0.000000
20
-21.757922
30
26.143378
0
VERTEX
8
0
6
CONTINUOUS
62
252
70
192
10
-0.000000
20
-21.561182
30
25.602840
0
VERTEX
8
0
6
CONTINUOUS
62
252
70
192
10
-0.000000
20
-21.461295
30
25.036351
0
VERTEX
8
0
6
CONTINUOUS
62
252
70
192
10
-0.000000
20
-21.461295
30
24.461123
0
VERTEX
8
0
6
CONTINUOUS
62
252
70
192
10
-0.000000
20
-21.561182
30
23.894634
0
VERTEX
8
0
6
CONTINUOUS
62
252
70
192
10
-0.000000
20
-21.757922
30
23.354097
0
VERTEX
8
0
6
CONTINUOUS
62
252
70
192
10
-0.000000
20
-22.045536
30
22.855935
0
VERTEX
8
0
6
CONTINUOUS
62
252
70
128
10
0.000000
20
0.000000
30
0.000000
71
2
72
54
73
1
0
VERTEX
8
0
6
CONTINUOUS
62
252
70
128
10
0.000000
20
0.000000
30
0.000000
71
1
72
54
73
55
0
VERTEX
8
0
6
CONTINUOUS
62
252
70
128
10
0.000000
20
0.000000
30
0.000000
71
1
72
55
73
36
0
VERTEX
8
0
6
CONTINUOUS
62
252
70
128
10
0.000000
20
0.000000
30
0.000000
71
36
72
55
73
56
0
VERTEX
8
0
6
CONTINUOUS
62
252
70
128
10
0.000000
20
0.000000
30
0.000000
71
36
72
56
73
35
0
VERTEX
8
0
6
CONTINUOUS
62
252
70
128
10
0.000000
20
0.000000
30
0.000000
71
35
72
56
73
57
0
VERTEX
8
0
6
CONTINUOUS
62
252
70
128
10
0.000000
20
0.000000
30
0.000000
71
35
72
57
73
34
0
VERTEX
8
0
6
CONTINUOUS
62
252
70
128
10
0.000000
20
0.000000
30
0.000000
71
34
72
57
73
58
0
VERTEX
8
0
6
CONTINUOUS
62
252
70
128
10
0.000000
20
0.000000
30
0.000000
71
34
72
58
73
33
0
VERTEX
8
0
6
CONTINUOUS
62
252
70
128
10
0.000000
20
0.000000
30
0.000000
71
33
72
58
73
59
0
VERTEX
8
0
6
CONTINUOUS
62
252
70
128
10
0.000000
20
0.000000
30
0.000000
71
33
72
59
73
32
0
VERTEX
8
0
6
CONTINUOUS
62
252
70
128
10
0.000000
20
0.000000
30
0.000000
71
32
72
59
73
60
0
VERTEX
8
0
6
CONTINUOUS
62
252
70
128
10
0.000000
20
0.000000
30
0.000000
71
32
72
60
73
31
0
VERTEX
8
0
6
CONTINUOUS
62
252
70
128
10
0.000000
20
0.000000
30
0.000000
71
31
72
60
73
61
0
VERTEX
8
0
6
CONTINUOUS
62
252
70
128
10
0.000000
20
0.000000
30
0.000000
71
31
72
61
73
30
0
VERTEX
8
0
6
CONTINUOUS
62
252
70
128
10
0.000000
20
0.000000
30
0.000000
71
30
72
61
73
62
0
VERTEX
8
0
6
CONTINUOUS
62
252
70
128
10
0.000000
20
0.000000
30
0.000000
71
30
72
62
73
29
0
VERTEX
8
0
6
CONTINUOUS
62
252
70
128
10
0.000000
20
0.000000
30
0.000000
71
29
72
62
73
63
0
VERTEX
8
0
6
CONTINUOUS
62
252
70
128
10
0.000000
20
0.000000
30
0.000000
71
29
72
63
73
28
0
VERTEX
8
0
6
CONTINUOUS
62
252
70
128
10
0.000000
20
0.000000
30
0.000000
71
28
72
63
73
64
0
VERTEX
8
0
6
CONTINUOUS
62
252
70
128
10
0.000000
20
0.000000
30
0.000000
71
28
72
64
73
27
0
VERTEX
8
0
6
CONTINUOUS
62
252
70
128
10
0.000000
20
0.000000
30
0.000000
71
27
72
64
73
65
0
VERTEX
8
0
6
CONTINUOUS
62
252
70
128
10
0.000000
20
0.000000
30
0.000000
71
27
72
65
73
26
0
VERTEX
8
0
6
CONTINUOUS
62
252
70
128
10
0.000000
20
0.000000
30
0.000000
71
26
72
65
73
66
0
VERTEX
8
0
6
CONTINUOUS
62
252
70
128
10
0.000000
20
0.000000
30
0.000000
71
26
72
66
73
25
0
VERTEX
8
0
6
CONTINUOUS
62
252
70
128
10
0.000000
20
0.000000
30
0.000000
71
25
72
66
73
67
0
VERTEX
8
0
6
CONTINUOUS
62
252
70
128
10
0.000000
20
0.000000
30
0.000000
71
25
72
67
73
24
0
VERTEX
8
0
6
CONTINUOUS
62
252
70
128
10
0.000000
20
0.000000
30
0.000000
71
24
72
67
73
68
0
VERTEX
8
0
6
CONTINUOUS
62
252
70
128
10
0.000000
20
0.000000
30
0.000000
71
24
72
68
73
23
0
VERTEX
8
0
6
CONTINUOUS
62
252
70
128
10
0.000000
20
0.000000
30
0.000000
71
23
72
68
73
69
0
VERTEX
8
0
6
CONTINUOUS
62
252
70
128
10
0.000000
20
0.000000
30
0.000000
71
23
72
69
73
22
0
VERTEX
8
0
6
CONTINUOUS
62
252
70
128
10
0.000000
20
0.000000
30
0.000000
71
22
72
69
73
70
0
VERTEX
8
0
6
CONTINUOUS
62
252
70
128
10
0.000000
20
0.000000
30
0.000000
71
22
72
70
73
21
0
VERTEX
8
0
6
CONTINUOUS
62
252
70
128
10
0.000000
20
0.000000
30
0.000000
71
21
72
70
73
71
0
VERTEX
8
0
6
CONTINUOUS
62
252
70
128
10
0.000000
20
0.000000
30
0.000000
71
21
72
71
73
20
0
VERTEX
8
0
6
CONTINUOUS
62
252
70
128
10
0.000000
20
0.000000
30
0.000000
71
20
72
71
73
72
0
VERTEX
8
0
6
CONTINUOUS
62
252
70
128
10
0.000000
20
0.000000
30
0.000000
71
20
72
72
73
19
0
VERTEX
8
0
6
CONTINUOUS
62
252
70
128
10
0.000000
20
0.000000
30
0.000000
71
19
72
72
73
37
0
VERTEX
8
0
6
CONTINUOUS
62
252
70
128
10
0.000000
20
0.000000
30
0.000000
71
19
72
37
73
18
0
VERTEX
8
0
6
CONTINUOUS
62
252
70
128
10
0.000000
20
0.000000
30
0.000000
71
18
72
37
73
38
0
VERTEX
8
0
6
CONTINUOUS
62
252
70
128
10
0.000000
20
0.000000
30
0.000000
71
18
72
38
73
17
0
VERTEX
8
0
6
CONTINUOUS
62
252
70
128
10
0.000000
20
0.000000
30
0.000000
71
17
72
38
73
39
0
VERTEX
8
0
6
CONTINUOUS
62
252
70
128
10
0.000000
20
0.000000
30
0.000000
71
17
72
39
73
16
0
VERTEX
8
0
6
CONTINUOUS
62
252
70
128
10
0.000000
20
0.000000
30
0.000000
71
16
72
39
73
40
0
VERTEX
8
0
6
CONTINUOUS
62
252
70
128
10
0.000000
20
0.000000
30
0.000000
71
16
72
40
73
15
0
VERTEX
8
0
6
CONTINUOUS
62
252
70
128
10
0.000000
20
0.000000
30
0.000000
71
15
72
40
73
41
0
VERTEX
8
0
6
CONTINUOUS
62
252
70
128
10
0.000000
20
0.000000
30
0.000000
71
15
72
41
73
14
0
VERTEX
8
0
6
CONTINUOUS
62
252
70
128
10
0.000000
20
0.000000
30
0.000000
71
14
72
41
73
42
0
VERTEX
8
0
6
CONTINUOUS
62
252
70
128
10
0.000000
20
0.000000
30
0.000000
71
14
72
42
73
13
0
VERTEX
8
0
6
CONTINUOUS
62
252
70
128
10
0.000000
20
0.000000
30
0.000000
71
13
72
42
73
43
0
VERTEX
8
0
6
CONTINUOUS
62
252
70
128
10
0.000000
20
0.000000
30
0.000000
71
13
72
43
73
12
0
VERTEX
8
0
6
CONTINUOUS
62
252
70
128
10
0.000000
20
0.000000
30
0.000000
71
12
72
43
73
44
0
VERTEX
8
0
6
CONTINUOUS
62
252
70
128
10
0.000000
20
0.000000
30
0.000000
71
12
72
44
73
11
0
VERTEX
8
0
6
CONTINUOUS
62
252
70
128
10
0.000000
20
0.000000
30
0.000000
71
11
72
44
73
45
0
VERTEX
8
0
6
CONTINUOUS
62
252
70
128
10
0.000000
20
0.000000
30
0.000000
71
11
72
45
73
10
0
VERTEX
8
0
6
CONTINUOUS
62
252
70
128
10
0.000000
20
0.000000
30
0.000000
71
10
72
45
73
46
0
VERTEX
8
0
6
CONTINUOUS
62
252
70
128
10
0.000000
20
0.000000
30
0.000000
71
10
72
46
73
9
0
VERTEX
8
0
6
CONTINUOUS
62
252
70
128
10
0.000000
20
0.000000
30
0.000000
71
9
72
46
73
47
0
VERTEX
8
0
6
CONTINUOUS
62
252
70
128
10
0.000000
20
0.000000
30
0.000000
71
9
72
47
73
8
0
VERTEX
8
0
6
CONTINUOUS
62
252
70
128
10
0.000000
20
0.000000
30
0.000000
71
8
72
47
73
48
0
VERTEX
8
0
6
CONTINUOUS
62
252
70
128
10
0.000000
20
0.000000
30
0.000000
71
8
72
48
73
7
0
VERTEX
8
0
6
CONTINUOUS
62
252
70
128
10
0.000000
20
0.000000
30
0.000000
71
7
72
48
73
49
0
VERTEX
8
0
6
CONTINUOUS
62
252
70
128
10
0.000000
20
0.000000
30
0.000000
71
7
72
49
73
6
0
VERTEX
8
0
6
CONTINUOUS
62
252
70
128
10
0.000000
20
0.000000
30
0.000000
71
6
72
49
73
50
0
VERTEX
8
0
6
CONTINUOUS
62
252
70
128
10
0.000000
20
0.000000
30
0.000000
71
6
72
50
73
5
0
VERTEX
8
0
6
CONTINUOUS
62
252
70
128
10
0.000000
20
0.000000
30
0.000000
71
5
72
50
73
51
0
VERTEX
8
0
6
CONTINUOUS
62
252
70
128
10
0.000000
20
0.000000
30
0.000000
71
5
72
51
73
4
0
VERTEX
8
0
6
CONTINUOUS
62
252
70
128
10
0.000000
20
0.000000
30
0.000000
71
4
72
51
73
52
0
VERTEX
8
0
6
CONTINUOUS
62
252
70
128
10
0.000000
20
0.000000
30
0.000000
71
4
72
52
73
3
0
VERTEX
8
0
6
CONTINUOUS
62
252
70
128
10
0.000000
20
0.000000
30
0.000000
71
3
72
52
73
53
0
VERTEX
8
0
6
CONTINUOUS
62
252
70
128
10
0.000000
20
0.000000
30
0.000000
71
3
72
53
73
2
0
VERTEX
8
0
6
CONTINUOUS
62
252
70
128
10
0.000000
20
0.000000
30
0.000000
71
2
72
53
73
54
0
SEQEND
0
POLYLINE
66
1
8
0
6
CONTINUOUS
62
252
70
64
75
0
10
0.000000
20
0.000000
30
0.000000
0
VERTEX
8
0
6
CONTINUOUS
62
252
70
192
10
10.300000
20
-19.803900
30
-22.704885
0
VERTEX
8
0
6
CONTINUOUS
62
252
70
192
10
1.700000
20
-19.803900
30
-23.129600
0
VERTEX
8
0
6
CONTINUOUS
62
252
70
192
10
1.700000
20
-19.803900
30
-26.870400
0
VERTEX
8
0
6
CONTINUOUS
62
252
70
192
10
10.300000
20
-19.803900
30
-26.870400
0
VERTEX
8
0
6
CONTINUOUS
62
252
70
128
10
0.000000
20
0.000000
30
0.000000
71
1
72
2
73
4
0
VERTEX
8
0
6
CONTINUOUS
62
252
70
128
10
0.000000
20
0.000000
30
0.000000
71
4
72
2
73
3
0
SEQEND
0
POLYLINE
66
1
8
0
6
CONTINUOUS
62
252
70
64
75
0
10
0.000000
20
0.000000
30
0.000000
0
VERTEX
8
0
6
CONTINUOUS
62
252
70
192
10
1.700000
20
-19.803900
30
-26.870400
0
VERTEX
8
0
6
CONTINUOUS
62
252
70
192
10
1.700000
20
-22.500000
30
-29.464200
0
VERTEX
8
0
6
CONTINUOUS
62
252
70
192
10
10.300000
20
-22.500000
30
-29.464200
0
VERTEX
8
0
6
CONTINUOUS
62
252
70
192
10
10.300000
20
-19.803900
30
-26.870400
0
VERTEX
8
0
6
CONTINUOUS
62
252
70
128
10
0.000000
20
0.000000
30
0.000000
71
1
72
2
73
4
0
VERTEX
8
0
6
CONTINUOUS
62
252
70
128
10
0.000000
20
0.000000
30
0.000000
71
4
72
2
73
3
0
SEQEND
0
POLYLINE
66
1
8
0
6
CONTINUOUS
62
252
70
64
75
0
10
0.000000
20
0.000000
30
0.000000
0
VERTEX
8
0
6
CONTINUOUS
62
252
70
192
10
1.700000
20
-22.500000
30
-29.464200
0
VERTEX
8
0
6
CONTINUOUS
62
252
70
192
10
1.700000
20
-22.500000
30
-30.300000
0
VERTEX
8
0
6
CONTINUOUS
62
252
70
192
10
-0.000000
20
-22.500000
30
-30.300000
0
VERTEX
8
0
6
CONTINUOUS
62
252
70
192
10
-0.000000
20
-22.500000
30
-37.800000
0
VERTEX
8
0
6
CONTINUOUS
62
252
70
192
10
10.300000
20
-22.500000
30
-37.800000
0
VERTEX
8
0
6
CONTINUOUS
62
252
70
192
10
10.300000
20
-22.500000
30
-29.464200
0
VERTEX
8
0
6
CONTINUOUS
62
252
70
128
10
0.000000
20
0.000000
30
0.000000
71
1
72
2
73
6
0
VERTEX
8
0
6
CONTINUOUS
62
252
70
128
10
0.000000
20
0.000000
30
0.000000
71
6
72
2
73
5
0
VERTEX
8
0
6
CONTINUOUS
62
252
70
128
10
0.000000
20
0.000000
30
0.000000
71
5
72
2
73
4
0
VERTEX
8
0
6
CONTINUOUS
62
252
70
128
10
0.000000
20
0.000000
30
0.000000
71
4
72
2
73
3
0
SEQEND
0
POLYLINE
66
1
8
0
6
CONTINUOUS
62
252
70
64
75
0
10
0.000000
20
0.000000
30
0.000000
0
VERTEX
8
0
6
CONTINUOUS
62
252
70
192
10
1.700000
20
19.803900
30
-23.129600
0
VERTEX
8
0
6
CONTINUOUS
62
252
70
192
10
10.300000
20
19.803900
30
-22.704885
0
VERTEX
8
0
6
CONTINUOUS
62
252
70
192
10
10.300000
20
19.803900
30
-26.870400
0
VERTEX
8
0
6
CONTINUOUS
62
252
70
192
10
1.700000
20
19.803900
30
-26.870400
0
VERTEX
8
0
6
CONTINUOUS
62
252
70
128
10
0.000000
20
0.000000
30
0.000000
71
2
72
3
73
1
0
VERTEX
8
0
6
CONTINUOUS
62
252
70
128
10
0.000000
20
0.000000
30
0.000000
71
1
72
3
73
4
0
SEQEND
0
POLYLINE
66
1
8
0
6
CONTINUOUS
62
252
70
64
75
0
10
0.000000
20
0.000000
30
0.000000
0
VERTEX
8
0
6
CONTINUOUS
62
252
70
192
10
1.700000
20
22.500000
30
-29.464200
0
VERTEX
8
0
6
CONTINUOUS
62
252
70
192
10
1.700000
20
19.803900
30
-26.870400
0
VERTEX
8
0
6
CONTINUOUS
62
252
70
192
10
10.300000
20
19.803900
30
-26.870400
0
VERTEX
8
0
6
CONTINUOUS
62
252
70
192
10
10.300000
20
22.500000
30
-29.464200
0
VERTEX
8
0
6
CONTINUOUS
62
252
70
128
10
0.000000
20
0.000000
30
0.000000
71
2
72
3
73
1
0
VERTEX
8
0
6
CONTINUOUS
62
252
70
128
10
0.000000
20
0.000000
30
0.000000
71
1
72
3
73
4
0
SEQEND
0
POLYLINE
66
1
8
0
6
CONTINUOUS
62
252
70
64
75
0
10
0.000000
20
0.000000
30
0.000000
0
VERTEX
8
0
6
CONTINUOUS
62
252
70
192
10
1.700000
20
22.500000
30
-30.300000
0
VERTEX
8
0
6
CONTINUOUS
62
252
70
192
10
1.700000
20
22.500000
30
-29.464200
0
VERTEX
8
0
6
CONTINUOUS
62
252
70
192
10
10.300000
20
22.500000
30
-29.464200
0
VERTEX
8
0
6
CONTINUOUS
62
252
70
192
10
10.300000
20
22.500000
30
-37.800000
0
VERTEX
8
0
6
CONTINUOUS
62
252
70
192
10
0.000000
20
22.500000
30
-37.800000
0
VERTEX
8
0
6
CONTINUOUS
62
252
70
192
10
-0.000000
20
22.500000
30
-30.300000
0
VERTEX
8
0
6
CONTINUOUS
62
252
70
128
10
0.000000
20
0.000000
30
0.000000
71
2
72
3
73
1
0
VERTEX
8
0
6
CONTINUOUS
62
252
70
128
10
0.000000
20
0.000000
30
0.000000
71
1
72
3
73
4
0
VERTEX
8
0
6
CONTINUOUS
62
252
70
128
10
0.000000
20
0.000000
30
0.000000
71
1
72
4
73
5
0
VERTEX
8
0
6
CONTINUOUS
62
252
70
128
10
0.000000
20
0.000000
30
0.000000
71
5
72
6
73
1
0
SEQEND
0
POLYLINE
66
1
8
0
6
CONTINUOUS
62
252
70
64
75
0
10
0.000000
20
0.000000
30
0.000000
0
VERTEX
8
0
6
CONTINUOUS
62
252
70
192
10
10.300000
20
22.500000
30
-37.800000
0
VERTEX
8
0
6
CONTINUOUS
62
252
70
192
10
10.300000
20
-22.500000
30
-37.800000
0
VERTEX
8
0
6
CONTINUOUS
62
252
70
192
10
-0.000000
20
-22.500000
30
-37.800000
0
VERTEX
8
0
6
CONTINUOUS
62
252
70
192
10
0.000000
20
22.500000
30
-37.800000
0
VERTEX
8
0
6
CONTINUOUS
62
252
70
128
10
0.000000
20
0.000000
30
0.000000
71
2
72
3
73
1
0
VERTEX
8
0
6
CONTINUOUS
62
252
70
128
10
0.000000
20
0.000000
30
0.000000
71
1
72
3
73
4
0
SEQEND
0
POLYLINE
66
1
8
0
6
CONTINUOUS
62
252
70
64
75
0
10
0.000000
20
0.000000
30
0.000000
0
VERTEX
8
0
6
CONTINUOUS
62
252
70
192
10
10.300000
20
-12.509104
30
-29.999681
0
VERTEX
8
0
6
CONTINUOUS
62
252
70
192
10
10.300000
20
-19.803900
30
-22.704885
0
VERTEX
8
0
6
CONTINUOUS
62
252
70
192
10
10.300000
20
-19.803900
30
-26.870400
0
VERTEX
8
0
6
CONTINUOUS
62
252
70
192
10
10.300000
20
-22.500000
30
-29.464200
0
VERTEX
8
0
6
CONTINUOUS
62
252
70
192
10
10.300000
20
-22.500000
30
-37.800000
0
VERTEX
8
0
6
CONTINUOUS
62
252
70
192
10
10.300000
20
22.500000
30
-37.800000
0
VERTEX
8
0
6
CONTINUOUS
62
252
70
192
10
10.300000
20
22.500000
30
-29.464200
0
VERTEX
8
0
6
CONTINUOUS
62
252
70
192
10
10.300000
20
19.803900
30
-26.870400
0
VERTEX
8
0
6
CONTINUOUS
62
252
70
192
10
10.300000
20
19.803900
30
-22.704885
0
VERTEX
8
0
6
CONTINUOUS
62
252
70
192
10
10.300000
20
12.509104
30
-29.999681
0
VERTEX
8
0
6
CONTINUOUS
62
252
70
128
10
0.000000
20
0.000000
30
0.000000
71
2
72
3
73
1
0
VERTEX
8
0
6
CONTINUOUS
62
252
70
128
10
0.000000
20
0.000000
30
0.000000
71
1
72
3
73
4
0
VERTEX
8
0
6
CONTINUOUS
62
252
70
128
10
0.000000
20
0.000000
30
0.000000
71
1
72
4
73
5
0
VERTEX
8
0
6
CONTINUOUS
62
252
70
128
10
0.000000
20
0.000000
30
0.000000
71
5
72
6
73
1
0
VERTEX
8
0
6
CONTINUOUS
62
252
70
128
10
0.000000
20
0.000000
30
0.000000
71
1
72
6
73
10
0
VERTEX
8
0
6
CONTINUOUS
62
252
70
128
10
0.000000
20
0.000000
30
0.000000
71
10
72
6
73
7
0
VERTEX
8
0
6
CONTINUOUS
62
252
70
128
10
0.000000
20
0.000000
30
0.000000
71
10
72
7
73
8
0
VERTEX
8
0
6
CONTINUOUS
62
252
70
128
10
0.000000
20
0.000000
30
0.000000
71
8
72
9
73
10
0
SEQEND
0
POLYLINE
66
1
8
0
6
CONTINUOUS
62
252
70
64
75
0
10
0.000000
20
0.000000
30
0.000000
0
VERTEX
8
0
6
CONTINUOUS
62
252
70
192
10
10.300000
20
-12.509104
30
-29.999681
0
VERTEX
8
0
6
CONTINUOUS
62
252
70
192
10
10.300000
20
12.509104
30
-29.999681
0
VERTEX
8
0
6
CONTINUOUS
62
252
70
192
10
30.400000
20
12.218364
30
-29.297774
0
VERTEX
8
0
6
CONTINUOUS
62
252
70
192
10
30.400000
20
-12.218364
30
-29.297774
0
VERTEX
8
0
6
CONTINUOUS
62
252
70
128
10
0.000000
20
0.000000
30
0.000000
71
1
72
2
73
4
0
VERTEX
8
0
6
CONTINUOUS
62
252
70
128
10
0.000000
20
0.000000
30
0.000000
71
4
72
2
73
3
0
SEQEND
0
POLYLINE
66
1
8
0
6
CONTINUOUS
62
252
70
64
75
0
10
0.000000
20
0.000000
30
0.000000
0
VERTEX
8
0
6
CONTINUOUS
62
252
70
192
10
10.300000
20
12.509104
30
-29.999681
0
VERTEX
8
0
6
CONTINUOUS
62
252
70
192
10
10.300000
20
19.803900
30
-22.704885
0
VERTEX
8
0
6
CONTINUOUS
62
252
70
192
10
1.700000
20
19.803900
30
-23.129600
0
VERTEX
8
0
6
CONTINUOUS
62
252
70
192
10
1.700000
20
30.300000
30
-12.633500
0
VERTEX
8
0
6
CONTINUOUS
62
252
70
192
10
30.400000
20
29.297774
30
-12.218364
0
VERTEX
8
0
6
CONTINUOUS
62
252
70
192
10
30.400000
20
12.218364
30
-29.297774
0
VERTEX
8
0
6
CONTINUOUS
62
252
70
128
10
0.000000
20
0.000000
30
0.000000
71
1
72
2
73
6
0
VERTEX
8
0
6
CONTINUOUS
62
252
70
128
10
0.000000
20
0.000000
30
0.000000
71
6
72
2
73
5
0
VERTEX
8
0
6
CONTINUOUS
62
252
70
128
10
0.000000
20
0.000000
30
0.000000
71
5
72
2
73
4
0
VERTEX
8
0
6
CONTINUOUS
62
252
70
128
10
0.000000
20
0.000000
30
0.000000
71
4
72
2
73
3
0
SEQEND
0
POLYLINE
66
1
8
0
6
CONTINUOUS
62
252
70
64
75
0
10
0.000000
20
0.000000
30
0.000000
0
VERTEX
8
0
6
CONTINUOUS
62
252
70
192
10
1.700000
20
19.803900
30
-23.129600
0
VERTEX
8
0
6
CONTINUOUS
62
252
70
192
10
1.700000
20
19.803900
30
-26.870400
0
VERTEX
8
0
6
CONTINUOUS
62
252
70
192
10
1.700000
20
22.500000
30
-29.464200
0
VERTEX
8
0
6
CONTINUOUS
62
252
70
192
10
1.700000
20
22.500000
30
-30.300000
0
VERTEX
8
0
6
CONTINUOUS
62
252
70
192
10
1.700000
20
23.936039
30
-30.300000
0
VERTEX
8
0
6
CONTINUOUS
62
252
70
192
10
1.700000
20
21.566757
30
-27.930718
0
VERTEX
8
0
6
CONTINUOUS
62
252
70
192
10
1.700000
20
21.062553
30
-27.329831
0
VERTEX
8
0
6
CONTINUOUS
62
252
70
192
10
1.700000
20
20.670352
30
-26.650520
0
VERTEX
8
0
6
CONTINUOUS
62
252
70
192
10
1.700000
20
20.402071
30
-25.913423
0
VERTEX
8
0
6
CONTINUOUS
62
252
70
192
10
1.700000
20
20.265861
30
-25.140938
0
VERTEX
8
0
6
CONTINUOUS
62
252
70
192
10
1.700000
20
20.265861
30
-24.356536
0
VERTEX
8
0
6
CONTINUOUS
62
252
70
192
10
1.700000
20
20.402071
30
-23.584052
0
VERTEX
8
0
6
CONTINUOUS
62
252
70
192
10
1.700000
20
20.670352
30
-22.846955
0
VERTEX
8
0
6
CONTINUOUS
62
252
70
192
10
1.700000
20
21.062553
30
-22.167643
0
VERTEX
8
0
6
CONTINUOUS
62
252
70
192
10
1.700000
20
21.566757
30
-21.566757
0
VERTEX
8
0
6
CONTINUOUS
62
252
70
192
10
1.700000
20
22.167643
30
-21.062553
0
VERTEX
8
0
6
CONTINUOUS
62
252
70
192
10
1.700000
20
22.846955
30
-20.670352
0
VERTEX
8
0
6
CONTINUOUS
62
252
70
192
10
1.700000
20
23.584052
30
-20.402071
0
VERTEX
8
0
6
CONTINUOUS
62
252
70
192
10
1.700000
20
24.356536
30
-20.265861
0
VERTEX
8
0
6
CONTINUOUS
62
252
70
192
10
1.700000
20
25.140938
30
-20.265861
0
VERTEX
8
0
6
CONTINUOUS
62
252
70
192
10
1.700000
20
25.913423
30
-20.402071
0
VERTEX
8
0
6
CONTINUOUS
62
252
70
192
10
1.700000
20
26.650520
30
-20.670352
0
VERTEX
8
0
6
CONTINUOUS
62
252
70
192
10
1.700000
20
27.329831
30
-21.062553
0
VERTEX
8
0
6
CONTINUOUS
62
252
70
192
10
1.700000
20
27.930718
30
-21.566757
0
VERTEX
8
0
6
CONTINUOUS
62
252
70
192
10
1.700000
20
30.300000
30
-23.936039
0
VERTEX
8
0
6
CONTINUOUS
62
252
70
192
10
1.700000
20
30.300000
30
-12.633500
0
VERTEX
8
0
6
CONTINUOUS
62
252
70
128
10
0.000000
20
0.000000
30
0.000000
71
2
72
10
73
1
0
VERTEX
8
0
6
CONTINUOUS
62
252
70
128
10
0.000000
20
0.000000
30
0.000000
71
1
72
10
73
11
0
VERTEX
8
0
6
CONTINUOUS
62
252
70
128
10
0.000000
20
0.000000
30
0.000000
71
1
72
11
73
12
0
VERTEX
8
0
6
CONTINUOUS
62
252
70
128
10
0.000000
20
0.000000
30
0.000000
71
3
72
6
73
2
0
VERTEX
8
0
6
CONTINUOUS
62
252
70
128
10
0.000000
20
0.000000
30
0.000000
71
2
72
6
73
7
0
VERTEX
8
0
6
CONTINUOUS
62
252
70
128
10
0.000000
20
0.000000
30
0.000000
71
2
72
7
73
8
0
VERTEX
8
0
6
CONTINUOUS
62
252
70
128
10
0.000000
20
0.000000
30
0.000000
71
4
72
5
73
3
0
VERTEX
8
0
6
CONTINUOUS
62
252
70
128
10
0.000000
20
0.000000
30
0.000000
71
3
72
5
73
6
0
VERTEX
8
0
6
CONTINUOUS
62
252
70
128
10
0.000000
20
0.000000
30
0.000000
71
8
72
9
73
2
0
VERTEX
8
0
6
CONTINUOUS
62
252
70
128
10
0.000000
20
0.000000
30
0.000000
71
2
72
9
73
10
0
VERTEX
8
0
6
CONTINUOUS
62
252
70
128
10
0.000000
20
0.000000
30
0.000000
71
12
72
13
73
1
0
VERTEX
8
0
6
CONTINUOUS
62
252
70
128
10
0.000000
20
0.000000
30
0.000000
71
1
72
13
73
14
0
VERTEX
8
0
6
CONTINUOUS
62
252
70
128
10
0.000000
20
0.000000
30
0.000000
71
1
72
14
73
15
0
VERTEX
8
0
6
CONTINUOUS
62
252
70
128
10
0.000000
20
0.000000
30
0.000000
71
1
72
15
73
26
0
VERTEX
8
0
6
CONTINUOUS
62
252
70
128
10
0.000000
20
0.000000
30
0.000000
71
26
72
15
73
16
0
VERTEX
8
0
6
CONTINUOUS
62
252
70
128
10
0.000000
20
0.000000
30
0.000000
71
26
72
16
73
17
0
VERTEX
8
0
6
CONTINUOUS
62
252
70
128
10
0.000000
20
0.000000
30
0.000000
71
17
72
18
73
26
0
VERTEX
8
0
6
CONTINUOUS
62
252
70
128
10
0.000000
20
0.000000
30
0.000000
71
26
72
18
73
19
0
VERTEX
8
0
6
CONTINUOUS
62
252
70
128
10
0.000000
20
0.000000
30
0.000000
71
26
72
19
73
20
0
VERTEX
8
0
6
CONTINUOUS
62
252
70
128
10
0.000000
20
0.000000
30
0.000000
71
20
72
21
73
26
0
VERTEX
8
0
6
CONTINUOUS
62
252
70
128
10
0.000000
20
0.000000
30
0.000000
71
26
72
21
73
22
0
VERTEX
8
0
6
CONTINUOUS
62
252
70
128
10
0.000000
20
0.000000
30
0.000000
71
26
72
22
73
23
0
VERTEX
8
0
6
CONTINUOUS
62
252
70
128
10
0.000000
20
0.000000
30
0.000000
71
23
72
24
73
26
0
VERTEX
8
0
6
CONTINUOUS
62
252
70
128
10
0.000000
20
0.000000
30
0.000000
71
26
72
24
73
25
0
SEQEND
0
POLYLINE
66
1
8
0
6
CONTINUOUS
62
252
70
64
75
0
10
0.000000
20
0.000000
30
0.000000
0
VERTEX
8
0
6
CONTINUOUS
62
252
70
192
10
1.700000
20
22.500000
30
-30.300000
0
VERTEX
8
0
6
CONTINUOUS
62
252
70
192
10
-0.000000
20
22.500000
30
-30.300000
0
VERTEX
8
0
6
CONTINUOUS
62
252
70
192
10
0.000000
20
24.836100
30
-30.300000
0
VERTEX
8
0
6
CONTINUOUS
62
252
70
192
10
1.200000
20
24.836100
30
-30.300000
0
VERTEX
8
0
6
CONTINUOUS
62
252
70
192
10
1.200000
20
23.936039
30
-30.300000
0
VERTEX
8
0
6
CONTINUOUS
62
252
70
192
10
1.700000
20
23.936039
30
-30.300000
0
VERTEX
8
0
6
CONTINUOUS
62
252
70
128
10
0.000000
20
0.000000
30
0.000000
71
6
72
1
73
5
0
VERTEX
8
0
6
CONTINUOUS
62
252
70
128
10
0.000000
20
0.000000
30
0.000000
71
5
72
1
73
2
0
VERTEX
8
0
6
CONTINUOUS
62
252
70
128
10
0.000000
20
0.000000
30
0.000000
71
5
72
2
73
3
0
VERTEX
8
0
6
CONTINUOUS
62
252
70
128
10
0.000000
20
0.000000
30
0.000000
71
3
72
4
73
5
0
SEQEND
0
POLYLINE
66
1
8
0
6
CONTINUOUS
62
252
70
64
75
0
10
0.000000
20
0.000000
30
0.000000
0
VERTEX
8
0
6
CONTINUOUS
62
252
70
192
10
1.700000
20
-23.936039
30
30.300000
0
VERTEX
8
0
6
CONTINUOUS
62
252
70
192
10
1.200000
20
-23.936039
30
30.300000
0
VERTEX
8
0
6
CONTINUOUS
62
252
70
192
10
1.200000
20
-21.566757
30
27.930718
0
VERTEX
8
0
6
CONTINUOUS
62
252
70
192
10
1.700000
20
-21.566757
30
27.930718
0
VERTEX
8
0
6
CONTINUOUS
62
252
70
128
10
0.000000
20
0.000000
30
0.000000
71
2
72
3
73
1
0
VERTEX
8
0
6
CONTINUOUS
62
252
70
128
10
0.000000
20
0.000000
30
0.000000
71
1
72
3
73
4
0
SEQEND
0
POLYLINE
66
1
8
0
6
CONTINUOUS
62
252
70
64
75
0
10
0.000000
20
0.000000
30
0.000000
0
VERTEX
8
0
6
CONTINUOUS
62
252
70
192
10
1.200000
20
-30.300000
30
23.936039
0
VERTEX
8
0
6
CONTINUOUS
62
252
70
192
10
1.700000
20
-30.300000
30
23.936039
0
VERTEX
8
0
6
CONTINUOUS
62
252
70
192
10
1.700000
20
-27.930718
30
21.566757
0
VERTEX
8
0
6
CONTINUOUS
62
252
70
192
10
1.200000
20
-27.930718
30
21.566757
0
VERTEX
8
0
6
CONTINUOUS
62
252
70
128
10
0.000000
20
0.000000
30
0.000000
71
1
72
2
73
4
0
VERTEX
8
0
6
CONTINUOUS
62
252
70
128
10
0.000000
20
0.000000
30
0.000000
71
4
72
2
73
3
0
SEQEND
0
POLYLINE
66
1
8
0
6
CONTINUOUS
62
252
70
64
75
0
10
0.000000
20
0.000000
30
0.000000
0
VERTEX
8
0
6
CONTINUOUS
62
252
70
192
10
1.200000
20
-21.566757
30
27.930718
0
VERTEX
8
0
6
CONTINUOUS
62
252
70
192
10
1.200000
20
-21.062553
30
27.329831
0
VERTEX
8
0
6
CONTINUOUS
62
252
70
192
10
1.200000
20
-20.670352
30
26.650520
0
VERTEX
8
0
6
CONTINUOUS
62
252
70
192
10
1.200000
20
-20.402071
30
25.913423
0
VERTEX
8
0
6
CONTINUOUS
62
252
70
192
10
1.200000
20
-20.265861
30
25.140938
0
VERTEX
8
0
6
CONTINUOUS
62
252
70
192
10
1.200000
20
-20.265861
30
24.356536
0
VERTEX
8
0
6
CONTINUOUS
62
252
70
192
10
1.200000
20
-20.402071
30
23.584052
0
VERTEX
8
0
6
CONTINUOUS
62
252
70
192
10
1.200000
20
-20.670352
30
22.846955
0
VERTEX
8
0
6
CONTINUOUS
62
252
70
192
10
1.200000
20
-21.062553
30
22.167643
0
VERTEX
8
0
6
CONTINUOUS
62
252
70
192
10
1.200000
20
-21.566757
30
21.566757
0
VERTEX
8
0
6
CONTINUOUS
62
252
70
192
10
1.200000
20
-22.167643
30
21.062553
0
VERTEX
8
0
6
CONTINUOUS
62
252
70
192
10
1.200000
20
-22.846955
30
20.670352
0
VERTEX
8
0
6
CONTINUOUS
62
252
70
192
10
1.200000
20
-23.584052
30
20.402071
0
VERTEX
8
0
6
CONTINUOUS
62
252
70
192
10
1.200000
20
-24.356536
30
20.265861
0
VERTEX
8
0
6
CONTINUOUS
62
252
70
192
10
1.200000
20
-25.140938
30
20.265861
0
VERTEX
8
0
6
CONTINUOUS
62
252
70
192
10
1.200000
20
-25.913423
30
20.402071
0
VERTEX
8
0
6
CONTINUOUS
62
252
70
192
10
1.200000
20
-26.650520
30
20.670352
0
VERTEX
8
0
6
CONTINUOUS
62
252
70
192
10
1.200000
20
-27.329831
30
21.062553
0
VERTEX
8
0
6
CONTINUOUS
62
252
70
192
10
1.200000
20
-27.930718
30
21.566757
0
VERTEX
8
0
6
CONTINUOUS
62
252
70
192
10
1.700000
20
-27.930718
30
21.566757
0
VERTEX
8
0
6
CONTINUOUS
62
252
70
192
10
1.700000
20
-27.329831
30
21.062553
0
VERTEX
8
0
6
CONTINUOUS
62
252
70
192
10
1.700000
20
-26.650520
30
20.670352
0
VERTEX
8
0
6
CONTINUOUS
62
252
70
192
10
1.700000
20
-25.913423
30
20.402071
0
VERTEX
8
0
6
CONTINUOUS
62
252
70
192
10
1.700000
20
-25.140938
30
20.265861
0
VERTEX
8
0
6
CONTINUOUS
62
252
70
192
10
1.700000
20
-24.356536
30
20.265861
0
VERTEX
8
0
6
CONTINUOUS
62
252
70
192
10
1.700000
20
-23.584052
30
20.402071
0
VERTEX
8
0
6
CONTINUOUS
62
252
70
192
10
1.700000
20
-22.846955
30
20.670352
0
VERTEX
8
0
6
CONTINUOUS
62
252
70
192
10
1.700000
20
-22.167643
30
21.062553
0
VERTEX
8
0
6
CONTINUOUS
62
252
70
192
10
1.700000
20
-21.566757
30
21.566757
0
VERTEX
8
0
6
CONTINUOUS
62
252
70
192
10
1.700000
20
-21.062553
30
22.167643
0
VERTEX
8
0
6
CONTINUOUS
62
252
70
192
10
1.700000
20
-20.670352
30
22.846955
0
VERTEX
8
0
6
CONTINUOUS
62
252
70
192
10
1.700000
20
-20.402071
30
23.584052
0
VERTEX
8
0
6
CONTINUOUS
62
252
70
192
10
1.700000
20
-20.265861
30
24.356536
0
VERTEX
8
0
6
CONTINUOUS
62
252
70
192
10
1.700000
20
-20.265861
30
25.140938
0
VERTEX
8
0
6
CONTINUOUS
62
252
70
192
10
1.700000
20
-20.402071
30
25.913423
0
VERTEX
8
0
6
CONTINUOUS
62
252
70
192
10
1.700000
20
-20.670352
30
26.650520
0
VERTEX
8
0
6
CONTINUOUS
62
252
70
192
10
1.700000
20
-21.062553
30
27.329831
0
VERTEX
8
0
6
CONTINUOUS
62
252
70
192
10
1.700000
20
-21.566757
30
27.930718
0
VERTEX
8
0
6
CONTINUOUS
62
252
70
128
10
0.000000
20
0.000000
30
0.000000
71
38
72
1
73
37
0
VERTEX
8
0
6
CONTINUOUS
62
252
70
128
10
0.000000
20
0.000000
30
0.000000
71
37
72
1
73
2
0
VERTEX
8
0
6
CONTINUOUS
62
252
70
128
10
0.000000
20
0.000000
30
0.000000
71
37
72
2
73
36
0
VERTEX
8
0
6
CONTINUOUS
62
252
70
128
10
0.000000
20
0.000000
30
0.000000
71
36
72
2
73
3
0
VERTEX
8
0
6
CONTINUOUS
62
252
70
128
10
0.000000
20
0.000000
30
0.000000
71
36
72
3
73
35
0
VERTEX
8
0
6
CONTINUOUS
62
252
70
128
10
0.000000
20
0.000000
30
0.000000
71
35
72
3
73
4
0
VERTEX
8
0
6
CONTINUOUS
62
252
70
128
10
0.000000
20
0.000000
30
0.000000
71
35
72
4
73
34
0
VERTEX
8
0
6
CONTINUOUS
62
252
70
128
10
0.000000
20
0.000000
30
0.000000
71
34
72
4
73
5
0
VERTEX
8
0
6
CONTINUOUS
62
252
70
128
10
0.000000
20
0.000000
30
0.000000
71
34
72
5
73
33
0
VERTEX
8
0
6
CONTINUOUS
62
252
70
128
10
0.000000
20
0.000000
30
0.000000
71
33
72
5
73
6
0
VERTEX
8
0
6
CONTINUOUS
62
252
70
128
10
0.000000
20
0.000000
30
0.000000
71
33
72
6
73
32
0
VERTEX
8
0
6
CONTINUOUS
62
252
70
128
10
0.000000
20
0.000000
30
0.000000
71
32
72
6
73
7
0
VERTEX
8
0
6
CONTINUOUS
62
252
70
128
10
0.000000
20
0.000000
30
0.000000
71
32
72
7
73
31
0
VERTEX
8
0
6
CONTINUOUS
62
252
70
128
10
0.000000
20
0.000000
30
0.000000
71
31
72
7
73
8
0
VERTEX
8
0
6
CONTINUOUS
62
252
70
128
10
0.000000
20
0.000000
30
0.000000
71
31
72
8
73
30
0
VERTEX
8
0
6
CONTINUOUS
62
252
70
128
10
0.000000
20
0.000000
30
0.000000
71
30
72
8
73
9
0
VERTEX
8
0
6
CONTINUOUS
62
252
70
128
10
0.000000
20
0.000000
30
0.000000
71
30
72
9
73
29
0
VERTEX
8
0
6
CONTINUOUS
62
252
70
128
10
0.000000
20
0.000000
30
0.000000
71
29
72
9
73
10
0
VERTEX
8
0
6
CONTINUOUS
62
252
70
128
10
0.000000
20
0.000000
30
0.000000
71
29
72
10
73
28
0
VERTEX
8
0
6
CONTINUOUS
62
252
70
128
10
0.000000
20
0.000000
30
0.000000
71
28
72
10
73
11
0
VERTEX
8
0
6
CONTINUOUS
62
252
70
128
10
0.000000
20
0.000000
30
0.000000
71
28
72
11
73
12
0
VERTEX
8
0
6
CONTINUOUS
62
252
70
128
10
0.000000
20
0.000000
30
0.000000
71
28
72
12
73
27
0
VERTEX
8
0
6
CONTINUOUS
62
252
70
128
10
0.000000
20
0.000000
30
0.000000
71
27
72
12
73
13
0
VERTEX
8
0
6
CONTINUOUS
62
252
70
128
10
0.000000
20
0.000000
30
0.000000
71
27
72
13
73
26
0
VERTEX
8
0
6
CONTINUOUS
62
252
70
128
10
0.000000
20
0.000000
30
0.000000
71
26
72
13
73
25
0
VERTEX
8
0
6
CONTINUOUS
62
252
70
128
10
0.000000
20
0.000000
30
0.000000
71
25
72
13
73
14
0
VERTEX
8
0
6
CONTINUOUS
62
252
70
128
10
0.000000
20
0.000000
30
0.000000
71
25
72
14
73
24
0
VERTEX
8
0
6
CONTINUOUS
62
252
70
128
10
0.000000
20
0.000000
30
0.000000
71
24
72
14
73
15
0
VERTEX
8
0
6
CONTINUOUS
62
252
70
128
10
0.000000
20
0.000000
30
0.000000
71
24
72
15
73
16
0
VERTEX
8
0
6
CONTINUOUS
62
252
70
128
10
0.000000
20
0.000000
30
0.000000
71
24
72
16
73
23
0
VERTEX
8
0
6
CONTINUOUS
62
252
70
128
10
0.000000
20
0.000000
30
0.000000
71
23
72
16
73
17
0
VERTEX
8
0
6
CONTINUOUS
62
252
70
128
10
0.000000
20
0.000000
30
0.000000
71
23
72
17
73
22
0
VERTEX
8
0
6
CONTINUOUS
62
252
70
128
10
0.000000
20
0.000000
30
0.000000
71
22
72
17
73
21
0
VERTEX
8
0
6
CONTINUOUS
62
252
70
128
10
0.000000
20
0.000000
30
0.000000
71
21
72
17
73
18
0
VERTEX
8
0
6
CONTINUOUS
62
252
70
128
10
0.000000
20
0.000000
30
0.000000
71
21
72
18
73
20
0
VERTEX
8
0
6
CONTINUOUS
62
252
70
128
10
0.000000
20
0.000000
30
0.000000
71
20
72
18
73
19
0
SEQEND
0
POLYLINE
66
1
8
0
6
CONTINUOUS
62
252
70
64
75
0
10
0.000000
20
0.000000
30
0.000000
0
VERTEX
8
0
6
CONTINUOUS
62
252
70
192
10
1.200000
20
-27.082190
30
27.082190
0
VERTEX
8
0
6
CONTINUOUS
62
252
70
192
10
1.200000
20
-26.641540
30
27.451939
0
VERTEX
8
0
6
CONTINUOUS
62
252
70
192
10
1.200000
20
-26.143378
30
27.739553
0
VERTEX
8
0
6
CONTINUOUS
62
252
70
192
10
1.200000
20
-25.602840
30
27.936293
0
VERTEX
8
0
6
CONTINUOUS
62
252
70
192
10
1.200000
20
-25.036351
30
28.036180
0
VERTEX
8
0
6
CONTINUOUS
62
252
70
192
10
1.200000
20
-24.461123
30
28.036180
0
VERTEX
8
0
6
CONTINUOUS
62
252
70
192
10
1.200000
20
-23.894634
30
27.936293
0
VERTEX
8
0
6
CONTINUOUS
62
252
70
192
10
1.200000
20
-23.354097
30
27.739553
0
VERTEX
8
0
6
CONTINUOUS
62
252
70
192
10
1.200000
20
-22.855935
30
27.451939
0
VERTEX
8
0
6
CONTINUOUS
62
252
70
192
10
1.200000
20
-22.415285
30
27.082190
0
VERTEX
8
0
6
CONTINUOUS
62
252
70
192
10
1.200000
20
-22.045536
30
26.641540
0
VERTEX
8
0
6
CONTINUOUS
62
252
70
192
10
1.200000
20
-21.757922
30
26.143378
0
VERTEX
8
0
6
CONTINUOUS
62
252
70
192
10
1.200000
20
-21.561182
30
25.602840
0
VERTEX
8
0
6
CONTINUOUS
62
252
70
192
10
1.200000
20
-21.461295
30
25.036351
0
VERTEX
8
0
6
CONTINUOUS
62
252
70
192
10
1.200000
20
-21.461295
30
24.461123
0
VERTEX
8
0
6
CONTINUOUS
62
252
70
192
10
1.200000
20
-21.561182
30
23.894634
0
VERTEX
8
0
6
CONTINUOUS
62
252
70
192
10
1.200000
20
-21.757922
30
23.354097
0
VERTEX
8
0
6
CONTINUOUS
62
252
70
192
10
1.200000
20
-22.045536
30
22.855935
0
VERTEX
8
0
6
CONTINUOUS
62
252
70
192
10
1.200000
20
-22.415285
30
22.415285
0
VERTEX
8
0
6
CONTINUOUS
62
252
70
192
10
1.200000
20
-22.855935
30
22.045536
0
VERTEX
8
0
6
CONTINUOUS
62
252
70
192
10
1.200000
20
-23.354097
30
21.757922
0
VERTEX
8
0
6
CONTINUOUS
62
252
70
192
10
1.200000
20
-23.894634
30
21.561182
0
VERTEX
8
0
6
CONTINUOUS
62
252
70
192
10
1.200000
20
-24.461123
30
21.461295
0
VERTEX
8
0
6
CONTINUOUS
62
252
70
192
10
1.200000
20
-25.036351
30
21.461295
0
VERTEX
8
0
6
CONTINUOUS
62
252
70
192
10
1.200000
20
-25.602840
30
21.561182
0
VERTEX
8
0
6
CONTINUOUS
62
252
70
192
10
1.200000
20
-26.143378
30
21.757922
0
VERTEX
8
0
6
CONTINUOUS
62
252
70
192
10
1.200000
20
-26.641540
30
22.045536
0
VERTEX
8
0
6
CONTINUOUS
62
252
70
192
10
1.200000
20
-27.082190
30
22.415285
0
VERTEX
8
0
6
CONTINUOUS
62
252
70
192
10
1.200000
20
-27.451939
30
22.855935
0
VERTEX
8
0
6
CONTINUOUS
62
252
70
192
10
1.200000
20
-27.739553
30
23.354097
0
VERTEX
8
0
6
CONTINUOUS
62
252
70
192
10
1.200000
20
-27.936293
30
23.894634
0
VERTEX
8
0
6
CONTINUOUS
62
252
70
192
10
1.200000
20
-28.036180
30
24.461123
0
VERTEX
8
0
6
CONTINUOUS
62
252
70
192
10
1.200000
20
-28.036180
30
25.036351
0
VERTEX
8
0
6
CONTINUOUS
62
252
70
192
10
1.200000
20
-27.936293
30
25.602840
0
VERTEX
8
0
6
CONTINUOUS
62
252
70
192
10
1.200000
20
-27.739553
30
26.143378
0
VERTEX
8
0
6
CONTINUOUS
62
252
70
192
10
1.200000
20
-27.451939
30
26.641540
0
VERTEX
8
0
6
CONTINUOUS
62
252
70
192
10
1.200000
20
-23.936039
30
30.300000
0
VERTEX
8
0
6
CONTINUOUS
62
252
70
192
10
1.200000
20
-24.836100
30
30.300000
0
VERTEX
8
0
6
CONTINUOUS
62
252
70
192
10
1.200000
20
-25.784896
30
30.216991
0
VERTEX
8
0
6
CONTINUOUS
62
252
70
192
10
1.200000
20
-26.704864
30
29.970487
0
VERTEX
8
0
6
CONTINUOUS
62
252
70
192
10
1.200000
20
-27.568050
30
29.567976
0
VERTEX
8
0
6
CONTINUOUS
62
252
70
192
10
1.200000
20
-28.348227
30
29.021690
0
VERTEX
8
0
6
CONTINUOUS
62
252
70
192
10
1.200000
20
-29.021690
30
28.348227
0
VERTEX
8
0
6
CONTINUOUS
62
252
70
192
10
1.200000
20
-29.567976
30
27.568050
0
VERTEX
8
0
6
CONTINUOUS
62
252
70
192
10
1.200000
20
-29.970487
30
26.704864
0
VERTEX
8
0
6
CONTINUOUS
62
252
70
192
10
1.200000
20
-30.216991
30
25.784896
0
VERTEX
8
0
6
CONTINUOUS
62
252
70
192
10
1.200000
20
-30.300000
30
24.836100
0
VERTEX
8
0
6
CONTINUOUS
62
252
70
192
10
1.200000
20
-30.300000
30
23.936039
0
VERTEX
8
0
6
CONTINUOUS
62
252
70
192
10
1.200000
20
-27.930718
30
21.566757
0
VERTEX
8
0
6
CONTINUOUS
62
252
70
192
10
1.200000
20
-27.329831
30
21.062553
0
VERTEX
8
0
6
CONTINUOUS
62
252
70
192
10
1.200000
20
-26.650520
30
20.670352
0
VERTEX
8
0
6
CONTINUOUS
62
252
70
192
10
1.200000
20
-25.913423
30
20.402071
0
VERTEX
8
0
6
CONTINUOUS
62
252
70
192
10
1.200000
20
-25.140938
30
20.265861
0
VERTEX
8
0
6
CONTINUOUS
62
252
70
192
10
1.200000
20
-24.356536
30
20.265861
0
VERTEX
8
0
6
CONTINUOUS
62
252
70
192
10
1.200000
20
-23.584052
30
20.402071
0
VERTEX
8
0
6
CONTINUOUS
62
252
70
192
10
1.200000
20
-22.846955
30
20.670352
0
VERTEX
8
0
6
CONTINUOUS
62
252
70
192
10
1.200000
20
-22.167643
30
21.062553
0
VERTEX
8
0
6
CONTINUOUS
62
252
70
192
10
1.200000
20
-21.566757
30
21.566757
0
VERTEX
8
0
6
CONTINUOUS
62
252
70
192
10
1.200000
20
-21.062553
30
22.167643
0
VERTEX
8
0
6
CONTINUOUS
62
252
70
192
10
1.200000
20
-20.670352
30
22.846955
0
VERTEX
8
0
6
CONTINUOUS
62
252
70
192
10
1.200000
20
-20.402071
30
23.584052
0
VERTEX
8
0
6
CONTINUOUS
62
252
70
192
10
1.200000
20
-20.265861
30
24.356536
0
VERTEX
8
0
6
CONTINUOUS
62
252
70
192
10
1.200000
20
-20.265861
30
25.140938
0
VERTEX
8
0
6
CONTINUOUS
62
252
70
192
10
1.200000
20
-20.402071
30
25.913423
0
VERTEX
8
0
6
CONTINUOUS
62
252
70
192
10
1.200000
20
-20.670352
30
26.650520
0
VERTEX
8
0
6
CONTINUOUS
62
252
70
192
10
1.200000
20
-21.062553
30
27.329831
0
VERTEX
8
0
6
CONTINUOUS
62
252
70
192
10
1.200000
20
-21.566757
30
27.930718
0
VERTEX
8
0
6
CONTINUOUS
62
252
70
128
10
0.000000
20
0.000000
30
0.000000
71
2
72
42
73
1
0
VERTEX
8
0
6
CONTINUOUS
62
252
70
128
10
0.000000
20
0.000000
30
0.000000
71
1
72
42
73
43
0
VERTEX
8
0
6
CONTINUOUS
62
252
70
128
10
0.000000
20
0.000000
30
0.000000
71
1
72
43
73
36
0
VERTEX
8
0
6
CONTINUOUS
62
252
70
128
10
0.000000
20
0.000000
30
0.000000
71
36
72
43
73
44
0
VERTEX
8
0
6
CONTINUOUS
62
252
70
128
10
0.000000
20
0.000000
30
0.000000
71
36
72
44
73
35
0
VERTEX
8
0
6
CONTINUOUS
62
252
70
128
10
0.000000
20
0.000000
30
0.000000
71
35
72
44
73
45
0
VERTEX
8
0
6
CONTINUOUS
62
252
70
128
10
0.000000
20
0.000000
30
0.000000
71
35
72
45
73
34
0
VERTEX
8
0
6
CONTINUOUS
62
252
70
128
10
0.000000
20
0.000000
30
0.000000
71
34
72
45
73
46
0
VERTEX
8
0
6
CONTINUOUS
62
252
70
128
10
0.000000
20
0.000000
30
0.000000
71
34
72
46
73
33
0
VERTEX
8
0
6
CONTINUOUS
62
252
70
128
10
0.000000
20
0.000000
30
0.000000
71
33
72
46
73
47
0
VERTEX
8
0
6
CONTINUOUS
62
252
70
128
10
0.000000
20
0.000000
30
0.000000
71
33
72
47
73
32
0
VERTEX
8
0
6
CONTINUOUS
62
252
70
128
10
0.000000
20
0.000000
30
0.000000
71
32
72
47
73
48
0
VERTEX
8
0
6
CONTINUOUS
62
252
70
128
10
0.000000
20
0.000000
30
0.000000
71
32
72
48
73
31
0
VERTEX
8
0
6
CONTINUOUS
62
252
70
128
10
0.000000
20
0.000000
30
0.000000
71
31
72
48
73
30
0
VERTEX
8
0
6
CONTINUOUS
62
252
70
128
10
0.000000
20
0.000000
30
0.000000
71
30
72
48
73
49
0
VERTEX
8
0
6
CONTINUOUS
62
252
70
128
10
0.000000
20
0.000000
30
0.000000
71
30
72
49
73
29
0
VERTEX
8
0
6
CONTINUOUS
62
252
70
128
10
0.000000
20
0.000000
30
0.000000
71
29
72
49
73
28
0
VERTEX
8
0
6
CONTINUOUS
62
252
70
128
10
0.000000
20
0.000000
30
0.000000
71
28
72
49
73
50
0
VERTEX
8
0
6
CONTINUOUS
62
252
70
128
10
0.000000
20
0.000000
30
0.000000
71
28
72
50
73
27
0
VERTEX
8
0
6
CONTINUOUS
62
252
70
128
10
0.000000
20
0.000000
30
0.000000
71
27
72
50
73
51
0
VERTEX
8
0
6
CONTINUOUS
62
252
70
128
10
0.000000
20
0.000000
30
0.000000
71
27
72
51
73
26
0
VERTEX
8
0
6
CONTINUOUS
62
252
70
128
10
0.000000
20
0.000000
30
0.000000
71
26
72
51
73
52
0
VERTEX
8
0
6
CONTINUOUS
62
252
70
128
10
0.000000
20
0.000000
30
0.000000
71
26
72
52
73
25
0
VERTEX
8
0
6
CONTINUOUS
62
252
70
128
10
0.000000
20
0.000000
30
0.000000
71
25
72
52
73
53
0
VERTEX
8
0
6
CONTINUOUS
62
252
70
128
10
0.000000
20
0.000000
30
0.000000
71
25
72
53
73
24
0
VERTEX
8
0
6
CONTINUOUS
62
252
70
128
10
0.000000
20
0.000000
30
0.000000
71
24
72
53
73
54
0
VERTEX
8
0
6
CONTINUOUS
62
252
70
128
10
0.000000
20
0.000000
30
0.000000
71
24
72
54
73
23
0
VERTEX
8
0
6
CONTINUOUS
62
252
70
128
10
0.000000
20
0.000000
30
0.000000
71
23
72
54
73
55
0
VERTEX
8
0
6
CONTINUOUS
62
252
70
128
10
0.000000
20
0.000000
30
0.000000
71
23
72
55
73
22
0
VERTEX
8
0
6
CONTINUOUS
62
252
70
128
10
0.000000
20
0.000000
30
0.000000
71
22
72
55
73
56
0
VERTEX
8
0
6
CONTINUOUS
62
252
70
128
10
0.000000
20
0.000000
30
0.000000
71
22
72
56
73
21
0
VERTEX
8
0
6
CONTINUOUS
62
252
70
128
10
0.000000
20
0.000000
30
0.000000
71
21
72
56
73
57
0
VERTEX
8
0
6
CONTINUOUS
62
252
70
128
10
0.000000
20
0.000000
30
0.000000
71
21
72
57
73
20
0
VERTEX
8
0
6
CONTINUOUS
62
252
70
128
10
0.000000
20
0.000000
30
0.000000
71
20
72
57
73
58
0
VERTEX
8
0
6
CONTINUOUS
62
252
70
128
10
0.000000
20
0.000000
30
0.000000
71
20
72
58
73
19
0
VERTEX
8
0
6
CONTINUOUS
62
252
70
128
10
0.000000
20
0.000000
30
0.000000
71
19
72
58
73
18
0
VERTEX
8
0
6
CONTINUOUS
62
252
70
128
10
0.000000
20
0.000000
30
0.000000
71
18
72
58
73
59
0
VERTEX
8
0
6
CONTINUOUS
62
252
70
128
10
0.000000
20
0.000000
30
0.000000
71
18
72
59
73
17
0
VERTEX
8
0
6
CONTINUOUS
62
252
70
128
10
0.000000
20
0.000000
30
0.000000
71
17
72
59
73
60
0
VERTEX
8
0
6
CONTINUOUS
62
252
70
128
10
0.000000
20
0.000000
30
0.000000
71
17
72
60
73
16
0
VERTEX
8
0
6
CONTINUOUS
62
252
70
128
10
0.000000
20
0.000000
30
0.000000
71
16
72
60
73
61
0
VERTEX
8
0
6
CONTINUOUS
62
252
70
128
10
0.000000
20
0.000000
30
0.000000
71
16
72
61
73
15
0
VERTEX
8
0
6
CONTINUOUS
62
252
70
128
10
0.000000
20
0.000000
30
0.000000
71
15
72
61
73
62
0
VERTEX
8
0
6
CONTINUOUS
62
252
70
128
10
0.000000
20
0.000000
30
0.000000
71
15
72
62
73
14
0
VERTEX
8
0
6
CONTINUOUS
62
252
70
128
10
0.000000
20
0.000000
30
0.000000
71
14
72
62
73
63
0
VERTEX
8
0
6
CONTINUOUS
62
252
70
128
10
0.000000
20
0.000000
30
0.000000
71
14
72
63
73
13
0
VERTEX
8
0
6
CONTINUOUS
62
252
70
128
10
0.000000
20
0.000000
30
0.000000
71
13
72
63
73
64
0
VERTEX
8
0
6
CONTINUOUS
62
252
70
128
10
0.000000
20
0.000000
30
0.000000
71
13
72
64
73
12
0
VERTEX
8
0
6
CONTINUOUS
62
252
70
128
10
0.000000
20
0.000000
30
0.000000
71
12
72
64
73
65
0
VERTEX
8
0
6
CONTINUOUS
62
252
70
128
10
0.000000
20
0.000000
30
0.000000
71
12
72
65
73
11
0
VERTEX
8
0
6
CONTINUOUS
62
252
70
128
10
0.000000
20
0.000000
30
0.000000
71
11
72
65
73
66
0
VERTEX
8
0
6
CONTINUOUS
62
252
70
128
10
0.000000
20
0.000000
30
0.000000
71
11
72
66
73
10
0
VERTEX
8
0
6
CONTINUOUS
62
252
70
128
10
0.000000
20
0.000000
30
0.000000
71
10
72
66
73
67
0
VERTEX
8
0
6
CONTINUOUS
62
252
70
128
10
0.000000
20
0.000000
30
0.000000
71
10
72
67
73
9
0
VERTEX
8
0
6
CONTINUOUS
62
252
70
128
10
0.000000
20
0.000000
30
0.000000
71
9
72
67
73
8
0
VERTEX
8
0
6
CONTINUOUS
62
252
70
128
10
0.000000
20
0.000000
30
0.000000
71
8
72
67
73
37
0
VERTEX
8
0
6
CONTINUOUS
62
252
70
128
10
0.000000
20
0.000000
30
0.000000
71
8
72
37
73
7
0
VERTEX
8
0
6
CONTINUOUS
62
252
70
128
10
0.000000
20
0.000000
30
0.000000
71
7
72
37
73
6
0
VERTEX
8
0
6
CONTINUOUS
62
252
70
128
10
0.000000
20
0.000000
30
0.000000
71
6
72
37
73
38
0
VERTEX
8
0
6
CONTINUOUS
62
252
70
128
10
0.000000
20
0.000000
30
0.000000
71
6
72
38
73
5
0
VERTEX
8
0
6
CONTINUOUS
62
252
70
128
10
0.000000
20
0.000000
30
0.000000
71
5
72
38
73
39
0
VERTEX
8
0
6
CONTINUOUS
62
252
70
128
10
0.000000
20
0.000000
30
0.000000
71
5
72
39
73
4
0
VERTEX
8
0
6
CONTINUOUS
62
252
70
128
10
0.000000
20
0.000000
30
0.000000
71
4
72
39
73
40
0
VERTEX
8
0
6
CONTINUOUS
62
252
70
128
10
0.000000
20
0.000000
30
0.000000
71
4
72
40
73
3
0
VERTEX
8
0
6
CONTINUOUS
62
252
70
128
10
0.000000
20
0.000000
30
0.000000
71
3
72
40
73
41
0
VERTEX
8
0
6
CONTINUOUS
62
252
70
128
10
0.000000
20
0.000000
30
0.000000
71
3
72
41
73
2
0
VERTEX
8
0
6
CONTINUOUS
62
252
70
128
10
0.000000
20
0.000000
30
0.000000
71
2
72
41
73
42
0
SEQEND
0
POLYLINE
66
1
8
0
6
CONTINUOUS
62
252
70
64
75
0
10
0.000000
20
0.000000
30
0.000000
0
VERTEX
8
0
6
CONTINUOUS
62
252
70
192
10
1.700000
20
-23.936039
30
30.300000
0
VERTEX
8
0
6
CONTINUOUS
62
252
70
192
10
1.700000
20
-21.566757
30
27.930718
0
VERTEX
8
0
6
CONTINUOUS
62
252
70
192
10
1.700000
20
-21.062553
30
27.329831
0
VERTEX
8
0
6
CONTINUOUS
62
252
70
192
10
1.700000
20
-20.670352
30
26.650520
0
VERTEX
8
0
6
CONTINUOUS
62
252
70
192
10
1.700000
20
-20.402071
30
25.913423
0
VERTEX
8
0
6
CONTINUOUS
62
252
70
192
10
1.700000
20
-20.265861
30
25.140938
0
VERTEX
8
0
6
CONTINUOUS
62
252
70
192
10
1.700000
20
-20.265861
30
24.356536
0
VERTEX
8
0
6
CONTINUOUS
62
252
70
192
10
1.700000
20
-20.402071
30
23.584052
0
VERTEX
8
0
6
CONTINUOUS
62
252
70
192
10
1.700000
20
-20.670352
30
22.846955
0
VERTEX
8
0
6
CONTINUOUS
62
252
70
192
10
1.700000
20
-21.062553
30
22.167643
0
VERTEX
8
0
6
CONTINUOUS
62
252
70
192
10
1.700000
20
-21.566757
30
21.566757
0
VERTEX
8
0
6
CONTINUOUS
62
252
70
192
10
1.700000
20
-22.167643
30
21.062553
0
VERTEX
8
0
6
CONTINUOUS
62
252
70
192
10
1.700000
20
-22.846955
30
20.670352
0
VERTEX
8
0
6
CONTINUOUS
62
252
70
192
10
1.700000
20
-23.584052
30
20.402071
0
VERTEX
8
0
6
CONTINUOUS
62
252
70
192
10
1.700000
20
-24.356536
30
20.265861
0
VERTEX
8
0
6
CONTINUOUS
62
252
70
192
10
1.700000
20
-25.140938
30
20.265861
0
VERTEX
8
0
6
CONTINUOUS
62
252
70
192
10
1.700000
20
-25.913423
30
20.402071
0
VERTEX
8
0
6
CONTINUOUS
62
252
70
192
10
1.700000
20
-26.650520
30
20.670352
0
VERTEX
8
0
6
CONTINUOUS
62
252
70
192
10
1.700000
20
-27.329831
30
21.062553
0
VERTEX
8
0
6
CONTINUOUS
62
252
70
192
10
1.700000
20
-27.930718
30
21.566757
0
VERTEX
8
0
6
CONTINUOUS
62
252
70
192
10
1.700000
20
-30.300000
30
23.936039
0
VERTEX
8
0
6
CONTINUOUS
62
252
70
192
10
1.700000
20
-30.300000
30
12.633500
0
VERTEX
8
0
6
CONTINUOUS
62
252
70
192
10
1.700000
20
-12.633500
30
30.300000
0
VERTEX
8
0
6
CONTINUOUS
62
252
70
128
10
0.000000
20
0.000000
30
0.000000
71
1
72
2
73
23
0
VERTEX
8
0
6
CONTINUOUS
62
252
70
128
10
0.000000
20
0.000000
30
0.000000
71
23
72
2
73
3
0
VERTEX
8
0
6
CONTINUOUS
62
252
70
128
10
0.000000
20
0.000000
30
0.000000
71
23
72
3
73
4
0
VERTEX
8
0
6
CONTINUOUS
62
252
70
128
10
0.000000
20
0.000000
30
0.000000
71
4
72
5
73
23
0
VERTEX
8
0
6
CONTINUOUS
62
252
70
128
10
0.000000
20
0.000000
30
0.000000
71
23
72
5
73
6
0
VERTEX
8
0
6
CONTINUOUS
62
252
70
128
10
0.000000
20
0.000000
30
0.000000
71
23
72
6
73
7
0
VERTEX
8
0
6
CONTINUOUS
62
252
70
128
10
0.000000
20
0.000000
30
0.000000
71
7
72
8
73
23
0
VERTEX
8
0
6
CONTINUOUS
62
252
70
128
10
0.000000
20
0.000000
30
0.000000
71
23
72
8
73
9
0
VERTEX
8
0
6
CONTINUOUS
62
252
70
128
10
0.000000
20
0.000000
30
0.000000
71
23
72
9
73
10
0
VERTEX
8
0
6
CONTINUOUS
62
252
70
128
10
0.000000
20
0.000000
30
0.000000
71
10
72
11
73
23
0
VERTEX
8
0
6
CONTINUOUS
62
252
70
128
10
0.000000
20
0.000000
30
0.000000
71
23
72
11
73
22
0
VERTEX
8
0
6
CONTINUOUS
62
252
70
128
10
0.000000
20
0.000000
30
0.000000
71
22
72
11
73
12
0
VERTEX
8
0
6
CONTINUOUS
62
252
70
128
10
0.000000
20
0.000000
30
0.000000
71
22
72
12
73
13
0
VERTEX
8
0
6
CONTINUOUS
62
252
70
128
10
0.000000
20
0.000000
30
0.000000
71
13
72
14
73
22
0
VERTEX
8
0
6
CONTINUOUS
62
252
70
128
10
0.000000
20
0.000000
30
0.000000
71
22
72
14
73
15
0
VERTEX
8
0
6
CONTINUOUS
62
252
70
128
10
0.000000
20
0.000000
30
0.000000
71
22
72
15
73
16
0
VERTEX
8
0
6
CONTINUOUS
62
252
70
128
10
0.000000
20
0.000000
30
0.000000
71
16
72
17
73
22
0
VERTEX
8
0
6
CONTINUOUS
62
252
70
128
10
0.000000
20
0.000000
30
0.000000
71
22
72
17
73
18
0
VERTEX
8
0
6
CONTINUOUS
62
252
70
128
10
0.000000
20
0.000000
30
0.000000
71
22
72
18
73
19
0
VERTEX
8
0
6
CONTINUOUS
62
252
70
128
10
0.000000
20
0.000000
30
0.000000
71
19
72
20
73
22
0
VERTEX
8
0
6
CONTINUOUS
62
252
70
128
10
0.000000
20
0.000000
30
0.000000
71
22
72
20
73
21
0
SEQEND
0
POLYLINE
66
1
8
0
6
CONTINUOUS
62
252
70
64
75
0
10
0.000000
20
0.000000
30
0.000000
0
VERTEX
8
0
6
CONTINUOUS
62
252
70
192
10
1.700000
20
30.300000
30
23.936039
0
VERTEX
8
0
6
CONTINUOUS
62
252
70
192
10
1.200000
20
30.300000
30
23.936039
0
VERTEX
8
0
6
CONTINUOUS
62
252
70
192
10
1.200000
20
27.930718
30
21.566757
0
VERTEX
8
0
6
CONTINUOUS
62
252
70
192
10
1.700000
20
27.930718
30
21.566757
0
VERTEX
8
0
6
CONTINUOUS
62
252
70
128
10
0.000000
20
0.000000
30
0.000000
71
2
72
3
73
1
0
VERTEX
8
0
6
CONTINUOUS
62
252
70
128
10
0.000000
20
0.000000
30
0.000000
71
1
72
3
73
4
0
SEQEND
0
POLYLINE
66
1
8
0
6
CONTINUOUS
62
252
70
64
75
0
10
0.000000
20
0.000000
30
0.000000
0
VERTEX
8
0
6
CONTINUOUS
62
252
70
192
10
1.200000
20
23.936039
30
30.300000
0
VERTEX
8
0
6
CONTINUOUS
62
252
70
192
10
1.700000
20
23.936039
30
30.300000
0
VERTEX
8
0
6
CONTINUOUS
62
252
70
192
10
1.700000
20
21.566757
30
27.930718
0
VERTEX
8
0
6
CONTINUOUS
62
252
70
192
10
1.200000
20
21.566757
30
27.930718
0
VERTEX
8
0
6
CONTINUOUS
62
252
70
128
10
0.000000
20
0.000000
30
0.000000
71
1
72
2
73
4
0
VERTEX
8
0
6
CONTINUOUS
62
252
70
128
10
0.000000
20
0.000000
30
0.000000
71
4
72
2
73
3
0
SEQEND
0
POLYLINE
66
1
8
0
6
CONTINUOUS
62
252
70
64
75
0
10
0.000000
20
0.000000
30
0.000000
0
VERTEX
8
0
6
CONTINUOUS
62
252
70
192
10
1.200000
20
27.930718
30
21.566757
0
VERTEX
8
0
6
CONTINUOUS
62
252
70
192
10
1.200000
20
27.329831
30
21.062553
0
VERTEX
8
0
6
CONTINUOUS
62
252
70
192
10
1.200000
20
26.650520
30
20.670352
0
VERTEX
8
0
6
CONTINUOUS
62
252
70
192
10
1.200000
20
25.913423
30
20.402071
0
VERTEX
8
0
6
CONTINUOUS
62
252
70
192
10
1.200000
20
25.140938
30
20.265861
0
VERTEX
8
0
6
CONTINUOUS
62
252
70
192
10
1.200000
20
24.356536
30
20.265861
0
VERTEX
8
0
6
CONTINUOUS
62
252
70
192
10
1.200000
20
23.584052
30
20.402071
0
VERTEX
8
0
6
CONTINUOUS
62
252
70
192
10
1.200000
20
22.846955
30
20.670352
0
VERTEX
8
0
6
CONTINUOUS
62
252
70
192
10
1.200000
20
22.167643
30
21.062553
0
VERTEX
8
0
6
CONTINUOUS
62
252
70
192
10
1.200000
20
21.566757
30
21.566757
0
VERTEX
8
0
6
CONTINUOUS
62
252
70
192
10
1.200000
20
21.062553
30
22.167643
0
VERTEX
8
0
6
CONTINUOUS
62
252
70
192
10
1.200000
20
20.670352
30
22.846955
0
VERTEX
8
0
6
CONTINUOUS
62
252
70
192
10
1.200000
20
20.402071
30
23.584052
0
VERTEX
8
0
6
CONTINUOUS
62
252
70
192
10
1.200000
20
20.265861
30
24.356536
0
VERTEX
8
0
6
CONTINUOUS
62
252
70
192
10
1.200000
20
20.265861
30
25.140938
0
VERTEX
8
0
6
CONTINUOUS
62
252
70
192
10
1.200000
20
20.402071
30
25.913423
0
VERTEX
8
0
6
CONTINUOUS
62
252
70
192
10
1.200000
20
20.670352
30
26.650520
0
VERTEX
8
0
6
CONTINUOUS
62
252
70
192
10
1.200000
20
21.062553
30
27.329831
0
VERTEX
8
0
6
CONTINUOUS
62
252
70
192
10
1.200000
20
21.566757
30
27.930718
0
VERTEX
8
0
6
CONTINUOUS
62
252
70
192
10
1.700000
20
21.566757
30
27.930718
0
VERTEX
8
0
6
CONTINUOUS
62
252
70
192
10
1.700000
20
21.062553
30
27.329831
0
VERTEX
8
0
6
CONTINUOUS
62
252
70
192
10
1.700000
20
20.670352
30
26.650520
0
VERTEX
8
0
6
CONTINUOUS
62
252
70
192
10
1.700000
20
20.402071
30
25.913423
0
VERTEX
8
0
6
CONTINUOUS
62
252
70
192
10
1.700000
20
20.265861
30
25.140938
0
VERTEX
8
0
6
CONTINUOUS
62
252
70
192
10
1.700000
20
20.265861
30
24.356536
0
VERTEX
8
0
6
CONTINUOUS
62
252
70
192
10
1.700000
20
20.402071
30
23.584052
0
VERTEX
8
0
6
CONTINUOUS
62
252
70
192
10
1.700000
20
20.670352
30
22.846955
0
VERTEX
8
0
6
CONTINUOUS
62
252
70
192
10
1.700000
20
21.062553
30
22.167643
0
VERTEX
8
0
6
CONTINUOUS
62
252
70
192
10
1.700000
20
21.566757
30
21.566757
0
VERTEX
8
0
6
CONTINUOUS
62
252
70
192
10
1.700000
20
22.167643
30
21.062553
0
VERTEX
8
0
6
CONTINUOUS
62
252
70
192
10
1.700000
20
22.846955
30
20.670352
0
VERTEX
8
0
6
CONTINUOUS
62
252
70
192
10
1.700000
20
23.584052
30
20.402071
0
VERTEX
8
0
6
CONTINUOUS
62
252
70
192
10
1.700000
20
24.356536
30
20.265861
0
VERTEX
8
0
6
CONTINUOUS
62
252
70
192
10
1.700000
20
25.140938
30
20.265861
0
VERTEX
8
0
6
CONTINUOUS
62
252
70
192
10
1.700000
20
25.913423
30
20.402071
0
VERTEX
8
0
6
CONTINUOUS
62
252
70
192
10
1.700000
20
26.650520
30
20.670352
0
VERTEX
8
0
6
CONTINUOUS
62
252
70
192
10
1.700000
20
27.329831
30
21.062553
0
VERTEX
8
0
6
CONTINUOUS
62
252
70
192
10
1.700000
20
27.930718
30
21.566757
0
VERTEX
8
0
6
CONTINUOUS
62
252
70
128
10
0.000000
20
0.000000
30
0.000000
71
38
72
1
73
37
0
VERTEX
8
0
6
CONTINUOUS
62
252
70
128
10
0.000000
20
0.000000
30
0.000000
71
37
72
1
73
2
0
VERTEX
8
0
6
CONTINUOUS
62
252
70
128
10
0.000000
20
0.000000
30
0.000000
71
37
72
2
73
36
0
VERTEX
8
0
6
CONTINUOUS
62
252
70
128
10
0.000000
20
0.000000
30
0.000000
71
36
72
2
73
3
0
VERTEX
8
0
6
CONTINUOUS
62
252
70
128
10
0.000000
20
0.000000
30
0.000000
71
36
72
3
73
35
0
VERTEX
8
0
6
CONTINUOUS
62
252
70
128
10
0.000000
20
0.000000
30
0.000000
71
35
72
3
73
4
0
VERTEX
8
0
6
CONTINUOUS
62
252
70
128
10
0.000000
20
0.000000
30
0.000000
71
35
72
4
73
34
0
VERTEX
8
0
6
CONTINUOUS
62
252
70
128
10
0.000000
20
0.000000
30
0.000000
71
34
72
4
73
5
0
VERTEX
8
0
6
CONTINUOUS
62
252
70
128
10
0.000000
20
0.000000
30
0.000000
71
34
72
5
73
33
0
VERTEX
8
0
6
CONTINUOUS
62
252
70
128
10
0.000000
20
0.000000
30
0.000000
71
33
72
5
73
6
0
VERTEX
8
0
6
CONTINUOUS
62
252
70
128
10
0.000000
20
0.000000
30
0.000000
71
33
72
6
73
32
0
VERTEX
8
0
6
CONTINUOUS
62
252
70
128
10
0.000000
20
0.000000
30
0.000000
71
32
72
6
73
7
0
VERTEX
8
0
6
CONTINUOUS
62
252
70
128
10
0.000000
20
0.000000
30
0.000000
71
32
72
7
73
31
0
VERTEX
8
0
6
CONTINUOUS
62
252
70
128
10
0.000000
20
0.000000
30
0.000000
71
31
72
7
73
8
0
VERTEX
8
0
6
CONTINUOUS
62
252
70
128
10
0.000000
20
0.000000
30
0.000000
71
31
72
8
73
30
0
VERTEX
8
0
6
CONTINUOUS
62
252
70
128
10
0.000000
20
0.000000
30
0.000000
71
30
72
8
73
9
0
VERTEX
8
0
6
CONTINUOUS
62
252
70
128
10
0.000000
20
0.000000
30
0.000000
71
30
72
9
73
29
0
VERTEX
8
0
6
CONTINUOUS
62
252
70
128
10
0.000000
20
0.000000
30
0.000000
71
29
72
9
73
10
0
VERTEX
8
0
6
CONTINUOUS
62
252
70
128
10
0.000000
20
0.000000
30
0.000000
71
29
72
10
73
28
0
VERTEX
8
0
6
CONTINUOUS
62
252
70
128
10
0.000000
20
0.000000
30
0.000000
71
28
72
10
73
11
0
VERTEX
8
0
6
CONTINUOUS
62
252
70
128
10
0.000000
20
0.000000
30
0.000000
71
28
72
11
73
12
0
VERTEX
8
0
6
CONTINUOUS
62
252
70
128
10
0.000000
20
0.000000
30
0.000000
71
28
72
12
73
27
0
VERTEX
8
0
6
CONTINUOUS
62
252
70
128
10
0.000000
20
0.000000
30
0.000000
71
27
72
12
73
13
0
VERTEX
8
0
6
CONTINUOUS
62
252
70
128
10
0.000000
20
0.000000
30
0.000000
71
27
72
13
73
26
0
VERTEX
8
0
6
CONTINUOUS
62
252
70
128
10
0.000000
20
0.000000
30
0.000000
71
26
72
13
73
25
0
VERTEX
8
0
6
CONTINUOUS
62
252
70
128
10
0.000000
20
0.000000
30
0.000000
71
25
72
13
73
14
0
VERTEX
8
0
6
CONTINUOUS
62
252
70
128
10
0.000000
20
0.000000
30
0.000000
71
25
72
14
73
24
0
VERTEX
8
0
6
CONTINUOUS
62
252
70
128
10
0.000000
20
0.000000
30
0.000000
71
24
72
14
73
15
0
VERTEX
8
0
6
CONTINUOUS
62
252
70
128
10
0.000000
20
0.000000
30
0.000000
71
24
72
15
73
16
0
VERTEX
8
0
6
CONTINUOUS
62
252
70
128
10
0.000000
20
0.000000
30
0.000000
71
24
72
16
73
23
0
VERTEX
8
0
6
CONTINUOUS
62
252
70
128
10
0.000000
20
0.000000
30
0.000000
71
23
72
16
73
17
0
VERTEX
8
0
6
CONTINUOUS
62
252
70
128
10
0.000000
20
0.000000
30
0.000000
71
23
72
17
73
22
0
VERTEX
8
0
6
CONTINUOUS
62
252
70
128
10
0.000000
20
0.000000
30
0.000000
71
22
72
17
73
21
0
VERTEX
8
0
6
CONTINUOUS
62
252
70
128
10
0.000000
20
0.000000
30
0.000000
71
21
72
17
73
18
0
VERTEX
8
0
6
CONTINUOUS
62
252
70
128
10
0.000000
20
0.000000
30
0.000000
71
21
72
18
73
20
0
VERTEX
8
0
6
CONTINUOUS
62
252
70
128
10
0.000000
20
0.000000
30
0.000000
71
20
72
18
73
19
0
SEQEND
0
POLYLINE
66
1
8
0
6
CONTINUOUS
62
252
70
64
75
0
10
0.000000
20
0.000000
30
0.000000
0
VERTEX
8
0
6
CONTINUOUS
62
252
70
192
10
1.200000
20
27.082190
30
27.082190
0
VERTEX
8
0
6
CONTINUOUS
62
252
70
192
10
1.200000
20
27.451939
30
26.641540
0
VERTEX
8
0
6
CONTINUOUS
62
252
70
192
10
1.200000
20
27.739553
30
26.143378
0
VERTEX
8
0
6
CONTINUOUS
62
252
70
192
10
1.200000
20
27.936293
30
25.602840
0
VERTEX
8
0
6
CONTINUOUS
62
252
70
192
10
1.200000
20
28.036180
30
25.036351
0
VERTEX
8
0
6
CONTINUOUS
62
252
70
192
10
1.200000
20
28.036180
30
24.461123
0
VERTEX
8
0
6
CONTINUOUS
62
252
70
192
10
1.200000
20
27.936293
30
23.894634
0
VERTEX
8
0
6
CONTINUOUS
62
252
70
192
10
1.200000
20
27.739553
30
23.354097
0
VERTEX
8
0
6
CONTINUOUS
62
252
70
192
10
1.200000
20
27.451939
30
22.855935
0
VERTEX
8
0
6
CONTINUOUS
62
252
70
192
10
1.200000
20
27.082190
30
22.415285
0
VERTEX
8
0
6
CONTINUOUS
62
252
70
192
10
1.200000
20
26.641540
30
22.045536
0
VERTEX
8
0
6
CONTINUOUS
62
252
70
192
10
1.200000
20
26.143378
30
21.757922
0
VERTEX
8
0
6
CONTINUOUS
62
252
70
192
10
1.200000
20
25.602840
30
21.561182
0
VERTEX
8
0
6
CONTINUOUS
62
252
70
192
10
1.200000
20
25.036351
30
21.461295
0
VERTEX
8
0
6
CONTINUOUS
62
252
70
192
10
1.200000
20
24.461123
30
21.461295
0
VERTEX
8
0
6
CONTINUOUS
62
252
70
192
10
1.200000
20
23.894634
30
21.561182
0
VERTEX
8
0
6
CONTINUOUS
62
252
70
192
10
1.200000
20
23.354097
30
21.757922
0
VERTEX
8
0
6
CONTINUOUS
62
252
70
192
10
1.200000
20
22.855935
30
22.045536
0
VERTEX
8
0
6
CONTINUOUS
62
252
70
192
10
1.200000
20
22.415285
30
22.415285
0
VERTEX
8
0
6
CONTINUOUS
62
252
70
192
10
1.200000
20
22.045536
30
22.855935
0
VERTEX
8
0
6
CONTINUOUS
62
252
70
192
10
1.200000
20
21.757922
30
23.354097
0
VERTEX
8
0
6
CONTINUOUS
62
252
70
192
10
1.200000
20
21.561182
30
23.894634
0
VERTEX
8
0
6
CONTINUOUS
62
252
70
192
10
1.200000
20
21.461295
30
24.461123
0
VERTEX
8
0
6
CONTINUOUS
62
252
70
192
10
1.200000
20
21.461295
30
25.036351
0
VERTEX
8
0
6
CONTINUOUS
62
252
70
192
10
1.200000
20
21.561182
30
25.602840
0
VERTEX
8
0
6
CONTINUOUS
62
252
70
192
10
1.200000
20
21.757922
30
26.143378
0
VERTEX
8
0
6
CONTINUOUS
62
252
70
192
10
1.200000
20
22.045536
30
26.641540
0
VERTEX
8
0
6
CONTINUOUS
62
252
70
192
10
1.200000
20
22.415285
30
27.082190
0
VERTEX
8
0
6
CONTINUOUS
62
252
70
192
10
1.200000
20
22.855935
30
27.451939
0
VERTEX
8
0
6
CONTINUOUS
62
252
70
192
10
1.200000
20
23.354097
30
27.739553
0
VERTEX
8
0
6
CONTINUOUS
62
252
70
192
10
1.200000
20
23.894634
30
27.936293
0
VERTEX
8
0
6
CONTINUOUS
62
252
70
192
10
1.200000
20
24.461123
30
28.036180
0
VERTEX
8
0
6
CONTINUOUS
62
252
70
192
10
1.200000
20
25.036351
30
28.036180
0
VERTEX
8
0
6
CONTINUOUS
62
252
70
192
10
1.200000
20
25.602840
30
27.936293
0
VERTEX
8
0
6
CONTINUOUS
62
252
70
192
10
1.200000
20
26.143378
30
27.739553
0
VERTEX
8
0
6
CONTINUOUS
62
252
70
192
10
1.200000
20
26.641540
30
27.451939
0
VERTEX
8
0
6
CONTINUOUS
62
252
70
192
10
1.200000
20
30.300000
30
23.936039
0
VERTEX
8
0
6
CONTINUOUS
62
252
70
192
10
1.200000
20
30.300000
30
24.836100
0
VERTEX
8
0
6
CONTINUOUS
62
252
70
192
10
1.200000
20
30.216991
30
25.784896
0
VERTEX
8
0
6
CONTINUOUS
62
252
70
192
10
1.200000
20
29.970487
30
26.704864
0
VERTEX
8
0
6
CONTINUOUS
62
252
70
192
10
1.200000
20
29.567976
30
27.568050
0
VERTEX
8
0
6
CONTINUOUS
62
252
70
192
10
1.200000
20
29.021690
30
28.348227
0
VERTEX
8
0
6
CONTINUOUS
62
252
70
192
10
1.200000
20
28.348227
30
29.021690
0
VERTEX
8
0
6
CONTINUOUS
62
252
70
192
10
1.200000
20
27.568050
30
29.567976
0
VERTEX
8
0
6
CONTINUOUS
62
252
70
192
10
1.200000
20
26.704864
30
29.970487
0
VERTEX
8
0
6
CONTINUOUS
62
252
70
192
10
1.200000
20
25.784896
30
30.216991
0
VERTEX
8
0
6
CONTINUOUS
62
252
70
192
10
1.200000
20
24.836100
30
30.300000
0
VERTEX
8
0
6
CONTINUOUS
62
252
70
192
10
1.200000
20
23.936039
30
30.300000
0
VERTEX
8
0
6
CONTINUOUS
62
252
70
192
10
1.200000
20
21.566757
30
27.930718
0
VERTEX
8
0
6
CONTINUOUS
62
252
70
192
10
1.200000
20
21.062553
30
27.329831
0
VERTEX
8
0
6
CONTINUOUS
62
252
70
192
10
1.200000
20
20.670352
30
26.650520
0
VERTEX
8
0
6
CONTINUOUS
62
252
70
192
10
1.200000
20
20.402071
30
25.913423
0
VERTEX
8
0
6
CONTINUOUS
62
252
70
192
10
1.200000
20
20.265861
30
25.140938
0
VERTEX
8
0
6
CONTINUOUS
62
252
70
192
10
1.200000
20
20.265861
30
24.356536
0
VERTEX
8
0
6
CONTINUOUS
62
252
70
192
10
1.200000
20
20.402071
30
23.584052
0
VERTEX
8
0
6
CONTINUOUS
62
252
70
192
10
1.200000
20
20.670352
30
22.846955
0
VERTEX
8
0
6
CONTINUOUS
62
252
70
192
10
1.200000
20
21.062553
30
22.167643
0
VERTEX
8
0
6
CONTINUOUS
62
252
70
192
10
1.200000
20
21.566757
30
21.566757
0
VERTEX
8
0
6
CONTINUOUS
62
252
70
192
10
1.200000
20
22.167643
30
21.062553
0
VERTEX
8
0
6
CONTINUOUS
62
252
70
192
10
1.200000
20
22.846955
30
20.670352
0
VERTEX
8
0
6
CONTINUOUS
62
252
70
192
10
1.200000
20
23.584052
30
20.402071
0
VERTEX
8
0
6
CONTINUOUS
62
252
70
192
10
1.200000
20
24.356536
30
20.265861
0
VERTEX
8
0
6
CONTINUOUS
62
252
70
192
10
1.200000
20
25.140938
30
20.265861
0
VERTEX
8
0
6
CONTINUOUS
62
252
70
192
10
1.200000
20
25.913423
30
20.402071
0
VERTEX
8
0
6
CONTINUOUS
62
252
70
192
10
1.200000
20
26.650520
30
20.670352
0
VERTEX
8
0
6
CONTINUOUS
62
252
70
192
10
1.200000
20
27.329831
30
21.062553
0
VERTEX
8
0
6
CONTINUOUS
62
252
70
192
10
1.200000
20
27.930718
30
21.566757
0
VERTEX
8
0
6
CONTINUOUS
62
252
70
128
10
0.000000
20
0.000000
30
0.000000
71
2
72
42
73
1
0
VERTEX
8
0
6
CONTINUOUS
62
252
70
128
10
0.000000
20
0.000000
30
0.000000
71
1
72
42
73
43
0
VERTEX
8
0
6
CONTINUOUS
62
252
70
128
10
0.000000
20
0.000000
30
0.000000
71
1
72
43
73
36
0
VERTEX
8
0
6
CONTINUOUS
62
252
70
128
10
0.000000
20
0.000000
30
0.000000
71
36
72
43
73
44
0
VERTEX
8
0
6
CONTINUOUS
62
252
70
128
10
0.000000
20
0.000000
30
0.000000
71
36
72
44
73
35
0
VERTEX
8
0
6
CONTINUOUS
62
252
70
128
10
0.000000
20
0.000000
30
0.000000
71
35
72
44
73
45
0
VERTEX
8
0
6
CONTINUOUS
62
252
70
128
10
0.000000
20
0.000000
30
0.000000
71
35
72
45
73
34
0
VERTEX
8
0
6
CONTINUOUS
62
252
70
128
10
0.000000
20
0.000000
30
0.000000
71
34
72
45
73
46
0
VERTEX
8
0
6
CONTINUOUS
62
252
70
128
10
0.000000
20
0.000000
30
0.000000
71
34
72
46
73
33
0
VERTEX
8
0
6
CONTINUOUS
62
252
70
128
10
0.000000
20
0.000000
30
0.000000
71
33
72
46
73
47
0
VERTEX
8
0
6
CONTINUOUS
62
252
70
128
10
0.000000
20
0.000000
30
0.000000
71
33
72
47
73
32
0
VERTEX
8
0
6
CONTINUOUS
62
252
70
128
10
0.000000
20
0.000000
30
0.000000
71
32
72
47
73
48
0
VERTEX
8
0
6
CONTINUOUS
62
252
70
128
10
0.000000
20
0.000000
30
0.000000
71
32
72
48
73
31
0
VERTEX
8
0
6
CONTINUOUS
62
252
70
128
10
0.000000
20
0.000000
30
0.000000
71
31
72
48
73
30
0
VERTEX
8
0
6
CONTINUOUS
62
252
70
128
10
0.000000
20
0.000000
30
0.000000
71
30
72
48
73
49
0
VERTEX
8
0
6
CONTINUOUS
62
252
70
128
10
0.000000
20
0.000000
30
0.000000
71
30
72
49
73
29
0
VERTEX
8
0
6
CONTINUOUS
62
252
70
128
10
0.000000
20
0.000000
30
0.000000
71
29
72
49
73
28
0
VERTEX
8
0
6
CONTINUOUS
62
252
70
128
10
0.000000
20
0.000000
30
0.000000
71
28
72
49
73
50
0
VERTEX
8
0
6
CONTINUOUS
62
252
70
128
10
0.000000
20
0.000000
30
0.000000
71
28
72
50
73
27
0
VERTEX
8
0
6
CONTINUOUS
62
252
70
128
10
0.000000
20
0.000000
30
0.000000
71
27
72
50
73
51
0
VERTEX
8
0
6
CONTINUOUS
62
252
70
128
10
0.000000
20
0.000000
30
0.000000
71
27
72
51
73
26
0
VERTEX
8
0
6
CONTINUOUS
62
252
70
128
10
0.000000
20
0.000000
30
0.000000
71
26
72
51
73
52
0
VERTEX
8
0
6
CONTINUOUS
62
252
70
128
10
0.000000
20
0.000000
30
0.000000
71
26
72
52
73
25
0
VERTEX
8
0
6
CONTINUOUS
62
252
70
128
10
0.000000
20
0.000000
30
0.000000
71
25
72
52
73
53
0
VERTEX
8
0
6
CONTINUOUS
62
252
70
128
10
0.000000
20
0.000000
30
0.000000
71
25
72
53
73
24
0
VERTEX
8
0
6
CONTINUOUS
62
252
70
128
10
0.000000
20
0.000000
30
0.000000
71
24
72
53
73
54
0
VERTEX
8
0
6
CONTINUOUS
62
252
70
128
10
0.000000
20
0.000000
30
0.000000
71
24
72
54
73
23
0
VERTEX
8
0
6
CONTINUOUS
62
252
70
128
10
0.000000
20
0.000000
30
0.000000
71
23
72
54
73
55
0
VERTEX
8
0
6
CONTINUOUS
62
252
70
128
10
0.000000
20
0.000000
30
0.000000
71
23
72
55
73
22
0
VERTEX
8
0
6
CONTINUOUS
62
252
70
128
10
0.000000
20
0.000000
30
0.000000
71
22
72
55
73
56
0
VERTEX
8
0
6
CONTINUOUS
62
252
70
128
10
0.000000
20
0.000000
30
0.000000
71
22
72
56
73
21
0
VERTEX
8
0
6
CONTINUOUS
62
252
70
128
10
0.000000
20
0.000000
30
0.000000
71
21
72
56
73
57
0
VERTEX
8
0
6
CONTINUOUS
62
252
70
128
10
0.000000
20
0.000000
30
0.000000
71
21
72
57
73
20
0
VERTEX
8
0
6
CONTINUOUS
62
252
70
128
10
0.000000
20
0.000000
30
0.000000
71
20
72
57
73
58
0
VERTEX
8
0
6
CONTINUOUS
62
252
70
128
10
0.000000
20
0.000000
30
0.000000
71
20
72
58
73
19
0
VERTEX
8
0
6
CONTINUOUS
62
252
70
128
10
0.000000
20
0.000000
30
0.000000
71
19
72
58
73
18
0
VERTEX
8
0
6
CONTINUOUS
62
252
70
128
10
0.000000
20
0.000000
30
0.000000
71
18
72
58
73
59
0
VERTEX
8
0
6
CONTINUOUS
62
252
70
128
10
0.000000
20
0.000000
30
0.000000
71
18
72
59
73
17
0
VERTEX
8
0
6
CONTINUOUS
62
252
70
128
10
0.000000
20
0.000000
30
0.000000
71
17
72
59
73
60
0
VERTEX
8
0
6
CONTINUOUS
62
252
70
128
10
0.000000
20
0.000000
30
0.000000
71
17
72
60
73
16
0
VERTEX
8
0
6
CONTINUOUS
62
252
70
128
10
0.000000
20
0.000000
30
0.000000
71
16
72
60
73
61
0
VERTEX
8
0
6
CONTINUOUS
62
252
70
128
10
0.000000
20
0.000000
30
0.000000
71
16
72
61
73
15
0
VERTEX
8
0
6
CONTINUOUS
62
252
70
128
10
0.000000
20
0.000000
30
0.000000
71
15
72
61
73
62
0
VERTEX
8
0
6
CONTINUOUS
62
252
70
128
10
0.000000
20
0.000000
30
0.000000
71
15
72
62
73
14
0
VERTEX
8
0
6
CONTINUOUS
62
252
70
128
10
0.000000
20
0.000000
30
0.000000
71
14
72
62
73
63
0
VERTEX
8
0
6
CONTINUOUS
62
252
70
128
10
0.000000
20
0.000000
30
0.000000
71
14
72
63
73
13
0
VERTEX
8
0
6
CONTINUOUS
62
252
70
128
10
0.000000
20
0.000000
30
0.000000
71
13
72
63
73
64
0
VERTEX
8
0
6
CONTINUOUS
62
252
70
128
10
0.000000
20
0.000000
30
0.000000
71
13
72
64
73
12
0
VERTEX
8
0
6
CONTINUOUS
62
252
70
128
10
0.000000
20
0.000000
30
0.000000
71
12
72
64
73
65
0
VERTEX
8
0
6
CONTINUOUS
62
252
70
128
10
0.000000
20
0.000000
30
0.000000
71
12
72
65
73
11
0
VERTEX
8
0
6
CONTINUOUS
62
252
70
128
10
0.000000
20
0.000000
30
0.000000
71
11
72
65
73
66
0
VERTEX
8
0
6
CONTINUOUS
62
252
70
128
10
0.000000
20
0.000000
30
0.000000
71
11
72
66
73
10
0
VERTEX
8
0
6
CONTINUOUS
62
252
70
128
10
0.000000
20
0.000000
30
0.000000
71
10
72
66
73
67
0
VERTEX
8
0
6
CONTINUOUS
62
252
70
128
10
0.000000
20
0.000000
30
0.000000
71
10
72
67
73
9
0
VERTEX
8
0
6
CONTINUOUS
62
252
70
128
10
0.000000
20
0.000000
30
0.000000
71
9
72
67
73
8
0
VERTEX
8
0
6
CONTINUOUS
62
252
70
128
10
0.000000
20
0.000000
30
0.000000
71
8
72
67
73
37
0
VERTEX
8
0
6
CONTINUOUS
62
252
70
128
10
0.000000
20
0.000000
30
0.000000
71
8
72
37
73
7
0
VERTEX
8
0
6
CONTINUOUS
62
252
70
128
10
0.000000
20
0.000000
30
0.000000
71
7
72
37
73
6
0
VERTEX
8
0
6
CONTINUOUS
62
252
70
128
10
0.000000
20
0.000000
30
0.000000
71
6
72
37
73
38
0
VERTEX
8
0
6
CONTINUOUS
62
252
70
128
10
0.000000
20
0.000000
30
0.000000
71
6
72
38
73
5
0
VERTEX
8
0
6
CONTINUOUS
62
252
70
128
10
0.000000
20
0.000000
30
0.000000
71
5
72
38
73
39
0
VERTEX
8
0
6
CONTINUOUS
62
252
70
128
10
0.000000
20
0.000000
30
0.000000
71
5
72
39
73
4
0
VERTEX
8
0
6
CONTINUOUS
62
252
70
128
10
0.000000
20
0.000000
30
0.000000
71
4
72
39
73
40
0
VERTEX
8
0
6
CONTINUOUS
62
252
70
128
10
0.000000
20
0.000000
30
0.000000
71
4
72
40
73
3
0
VERTEX
8
0
6
CONTINUOUS
62
252
70
128
10
0.000000
20
0.000000
30
0.000000
71
3
72
40
73
41
0
VERTEX
8
0
6
CONTINUOUS
62
252
70
128
10
0.000000
20
0.000000
30
0.000000
71
3
72
41
73
2
0
VERTEX
8
0
6
CONTINUOUS
62
252
70
128
10
0.000000
20
0.000000
30
0.000000
71
2
72
41
73
42
0
SEQEND
0
POLYLINE
66
1
8
0
6
CONTINUOUS
62
252
70
64
75
0
10
0.000000
20
0.000000
30
0.000000
0
VERTEX
8
0
6
CONTINUOUS
62
252
70
192
10
1.200000
20
30.300000
30
24.836100
0
VERTEX
8
0
6
CONTINUOUS
62
252
70
192
10
1.200000
20
30.300000
30
23.936039
0
VERTEX
8
0
6
CONTINUOUS
62
252
70
192
10
1.700000
20
30.300000
30
23.936039
0
VERTEX
8
0
6
CONTINUOUS
62
252
70
192
10
1.700000
20
30.300000
30
12.633500
0
VERTEX
8
0
6
CONTINUOUS
62
252
70
192
10
1.700000
20
30.300000
30
-12.633500
0
VERTEX
8
0
6
CONTINUOUS
62
252
70
192
10
1.700000
20
30.300000
30
-23.936039
0
VERTEX
8
0
6
CONTINUOUS
62
252
70
192
10
1.200000
20
30.300000
30
-23.936039
0
VERTEX
8
0
6
CONTINUOUS
62
252
70
192
10
1.200000
20
30.300000
30
-24.836100
0
VERTEX
8
0
6
CONTINUOUS
62
252
70
192
10
0.000000
20
30.300000
30
-24.836100
0
VERTEX
8
0
6
CONTINUOUS
62
252
70
192
10
-0.000000
20
30.300000
30
24.836100
0
VERTEX
8
0
6
CONTINUOUS
62
252
70
128
10
0.000000
20
0.000000
30
0.000000
71
1
72
2
73
10
0
VERTEX
8
0
6
CONTINUOUS
62
252
70
128
10
0.000000
20
0.000000
30
0.000000
71
10
72
2
73
9
0
VERTEX
8
0
6
CONTINUOUS
62
252
70
128
10
0.000000
20
0.000000
30
0.000000
71
9
72
2
73
7
0
VERTEX
8
0
6
CONTINUOUS
62
252
70
128
10
0.000000
20
0.000000
30
0.000000
71
9
72
7
73
8
0
VERTEX
8
0
6
CONTINUOUS
62
252
70
128
10
0.000000
20
0.000000
30
0.000000
71
3
72
4
73
2
0
VERTEX
8
0
6
CONTINUOUS
62
252
70
128
10
0.000000
20
0.000000
30
0.000000
71
2
72
4
73
5
0
VERTEX
8
0
6
CONTINUOUS
62
252
70
128
10
0.000000
20
0.000000
30
0.000000
71
2
72
5
73
7
0
VERTEX
8
0
6
CONTINUOUS
62
252
70
128
10
0.000000
20
0.000000
30
0.000000
71
7
72
5
73
6
0
SEQEND
0
POLYLINE
66
1
8
0
6
CONTINUOUS
62
252
70
64
75
0
10
0.000000
20
0.000000
30
0.000000
0
VERTEX
8
0
6
CONTINUOUS
62
252
70
192
10
1.700000
20
30.300000
30
23.936039
0
VERTEX
8
0
6
CONTINUOUS
62
252
70
192
10
1.700000
20
27.930718
30
21.566757
0
VERTEX
8
0
6
CONTINUOUS
62
252
70
192
10
1.700000
20
27.329831
30
21.062553
0
VERTEX
8
0
6
CONTINUOUS
62
252
70
192
10
1.700000
20
26.650520
30
20.670352
0
VERTEX
8
0
6
CONTINUOUS
62
252
70
192
10
1.700000
20
25.913423
30
20.402071
0
VERTEX
8
0
6
CONTINUOUS
62
252
70
192
10
1.700000
20
25.140938
30
20.265861
0
VERTEX
8
0
6
CONTINUOUS
62
252
70
192
10
1.700000
20
24.356536
30
20.265861
0
VERTEX
8
0
6
CONTINUOUS
62
252
70
192
10
1.700000
20
23.584052
30
20.402071
0
VERTEX
8
0
6
CONTINUOUS
62
252
70
192
10
1.700000
20
22.846955
30
20.670352
0
VERTEX
8
0
6
CONTINUOUS
62
252
70
192
10
1.700000
20
22.167643
30
21.062553
0
VERTEX
8
0
6
CONTINUOUS
62
252
70
192
10
1.700000
20
21.566757
30
21.566757
0
VERTEX
8
0
6
CONTINUOUS
62
252
70
192
10
1.700000
20
21.062553
30
22.167643
0
VERTEX
8
0
6
CONTINUOUS
62
252
70
192
10
1.700000
20
20.670352
30
22.846955
0
VERTEX
8
0
6
CONTINUOUS
62
252
70
192
10
1.700000
20
20.402071
30
23.584052
0
VERTEX
8
0
6
CONTINUOUS
62
252
70
192
10
1.700000
20
20.265861
30
24.356536
0
VERTEX
8
0
6
CONTINUOUS
62
252
70
192
10
1.700000
20
20.265861
30
25.140938
0
VERTEX
8
0
6
CONTINUOUS
62
252
70
192
10
1.700000
20
20.402071
30
25.913423
0
VERTEX
8
0
6
CONTINUOUS
62
252
70
192
10
1.700000
20
20.670352
30
26.650520
0
VERTEX
8
0
6
CONTINUOUS
62
252
70
192
10
1.700000
20
21.062553
30
27.329831
0
VERTEX
8
0
6
CONTINUOUS
62
252
70
192
10
1.700000
20
21.566757
30
27.930718
0
VERTEX
8
0
6
CONTINUOUS
62
252
70
192
10
1.700000
20
23.936039
30
30.300000
0
VERTEX
8
0
6
CONTINUOUS
62
252
70
192
10
1.700000
20
12.633500
30
30.300000
0
VERTEX
8
0
6
CONTINUOUS
62
252
70
192
10
1.700000
20
30.300000
30
12.633500
0
VERTEX
8
0
6
CONTINUOUS
62
252
70
128
10
0.000000
20
0.000000
30
0.000000
71
1
72
2
73
23
0
VERTEX
8
0
6
CONTINUOUS
62
252
70
128
10
0.000000
20
0.000000
30
0.000000
71
23
72
2
73
3
0
VERTEX
8
0
6
CONTINUOUS
62
252
70
128
10
0.000000
20
0.000000
30
0.000000
71
23
72
3
73
4
0
VERTEX
8
0
6
CONTINUOUS
62
252
70
128
10
0.000000
20
0.000000
30
0.000000
71
4
72
5
73
23
0
VERTEX
8
0
6
CONTINUOUS
62
252
70
128
10
0.000000
20
0.000000
30
0.000000
71
23
72
5
73
6
0
VERTEX
8
0
6
CONTINUOUS
62
252
70
128
10
0.000000
20
0.000000
30
0.000000
71
23
72
6
73
7
0
VERTEX
8
0
6
CONTINUOUS
62
252
70
128
10
0.000000
20
0.000000
30
0.000000
71
7
72
8
73
23
0
VERTEX
8
0
6
CONTINUOUS
62
252
70
128
10
0.000000
20
0.000000
30
0.000000
71
23
72
8
73
9
0
VERTEX
8
0
6
CONTINUOUS
62
252
70
128
10
0.000000
20
0.000000
30
0.000000
71
23
72
9
73
10
0
VERTEX
8
0
6
CONTINUOUS
62
252
70
128
10
0.000000
20
0.000000
30
0.000000
71
10
72
11
73
23
0
VERTEX
8
0
6
CONTINUOUS
62
252
70
128
10
0.000000
20
0.000000
30
0.000000
71
23
72
11
73
22
0
VERTEX
8
0
6
CONTINUOUS
62
252
70
128
10
0.000000
20
0.000000
30
0.000000
71
22
72
11
73
12
0
VERTEX
8
0
6
CONTINUOUS
62
252
70
128
10
0.000000
20
0.000000
30
0.000000
71
22
72
12
73
13
0
VERTEX
8
0
6
CONTINUOUS
62
252
70
128
10
0.000000
20
0.000000
30
0.000000
71
13
72
14
73
22
0
VERTEX
8
0
6
CONTINUOUS
62
252
70
128
10
0.000000
20
0.000000
30
0.000000
71
22
72
14
73
15
0
VERTEX
8
0
6
CONTINUOUS
62
252
70
128
10
0.000000
20
0.000000
30
0.000000
71
22
72
15
73
16
0
VERTEX
8
0
6
CONTINUOUS
62
252
70
128
10
0.000000
20
0.000000
30
0.000000
71
16
72
17
73
22
0
VERTEX
8
0
6
CONTINUOUS
62
252
70
128
10
0.000000
20
0.000000
30
0.000000
71
22
72
17
73
18
0
VERTEX
8
0
6
CONTINUOUS
62
252
70
128
10
0.000000
20
0.000000
30
0.000000
71
22
72
18
73
19
0
VERTEX
8
0
6
CONTINUOUS
62
252
70
128
10
0.000000
20
0.000000
30
0.000000
71
19
72
20
73
22
0
VERTEX
8
0
6
CONTINUOUS
62
252
70
128
10
0.000000
20
0.000000
30
0.000000
71
22
72
20
73
21
0
SEQEND
0
POLYLINE
66
1
8
0
6
CONTINUOUS
62
252
70
64
75
0
10
0.000000
20
0.000000
30
0.000000
0
VERTEX
8
0
6
CONTINUOUS
62
252
70
192
10
1.700000
20
23.936039
30
-30.300000
0
VERTEX
8
0
6
CONTINUOUS
62
252
70
192
10
1.200000
20
23.936039
30
-30.300000
0
VERTEX
8
0
6
CONTINUOUS
62
252
70
192
10
1.200000
20
21.566757
30
-27.930718
0
VERTEX
8
0
6
CONTINUOUS
62
252
70
192
10
1.700000
20
21.566757
30
-27.930718
0
VERTEX
8
0
6
CONTINUOUS
62
252
70
128
10
0.000000
20
0.000000
30
0.000000
71
2
72
3
73
1
0
VERTEX
8
0
6
CONTINUOUS
62
252
70
128
10
0.000000
20
0.000000
30
0.000000
71
1
72
3
73
4
0
SEQEND
0
POLYLINE
66
1
8
0
6
CONTINUOUS
62
252
70
64
75
0
10
0.000000
20
0.000000
30
0.000000
0
VERTEX
8
0
6
CONTINUOUS
62
252
70
192
10
1.200000
20
30.300000
30
-23.936039
0
VERTEX
8
0
6
CONTINUOUS
62
252
70
192
10
1.700000
20
30.300000
30
-23.936039
0
VERTEX
8
0
6
CONTINUOUS
62
252
70
192
10
1.700000
20
27.930718
30
-21.566757
0
VERTEX
8
0
6
CONTINUOUS
62
252
70
192
10
1.200000
20
27.930718
30
-21.566757
0
VERTEX
8
0
6
CONTINUOUS
62
252
70
128
10
0.000000
20
0.000000
30
0.000000
71
1
72
2
73
4
0
VERTEX
8
0
6
CONTINUOUS
62
252
70
128
10
0.000000
20
0.000000
30
0.000000
71
4
72
2
73
3
0
SEQEND
0
POLYLINE
66
1
8
0
6
CONTINUOUS
62
252
70
64
75
0
10
0.000000
20
0.000000
30
0.000000
0
VERTEX
8
0
6
CONTINUOUS
62
252
70
192
10
1.200000
20
21.566757
30
-27.930718
0
VERTEX
8
0
6
CONTINUOUS
62
252
70
192
10
1.200000
20
21.062553
30
-27.329831
0
VERTEX
8
0
6
CONTINUOUS
62
252
70
192
10
1.200000
20
20.670352
30
-26.650520
0
VERTEX
8
0
6
CONTINUOUS
62
252
70
192
10
1.200000
20
20.402071
30
-25.913423
0
VERTEX
8
0
6
CONTINUOUS
62
252
70
192
10
1.200000
20
20.265861
30
-25.140938
0
VERTEX
8
0
6
CONTINUOUS
62
252
70
192
10
1.200000
20
20.265861
30
-24.356536
0
VERTEX
8
0
6
CONTINUOUS
62
252
70
192
10
1.200000
20
20.402071
30
-23.584052
0
VERTEX
8
0
6
CONTINUOUS
62
252
70
192
10
1.200000
20
20.670352
30
-22.846955
0
VERTEX
8
0
6
CONTINUOUS
62
252
70
192
10
1.200000
20
21.062553
30
-22.167643
0
VERTEX
8
0
6
CONTINUOUS
62
252
70
192
10
1.200000
20
21.566757
30
-21.566757
0
VERTEX
8
0
6
CONTINUOUS
62
252
70
192
10
1.200000
20
22.167643
30
-21.062553
0
VERTEX
8
0
6
CONTINUOUS
62
252
70
192
10
1.200000
20
22.846955
30
-20.670352
0
VERTEX
8
0
6
CONTINUOUS
62
252
70
192
10
1.200000
20
23.584052
30
-20.402071
0
VERTEX
8
0
6
CONTINUOUS
62
252
70
192
10
1.200000
20
24.356536
30
-20.265861
0
VERTEX
8
0
6
CONTINUOUS
62
252
70
192
10
1.200000
20
25.140938
30
-20.265861
0
VERTEX
8
0
6
CONTINUOUS
62
252
70
192
10
1.200000
20
25.913423
30
-20.402071
0
VERTEX
8
0
6
CONTINUOUS
62
252
70
192
10
1.200000
20
26.650520
30
-20.670352
0
VERTEX
8
0
6
CONTINUOUS
62
252
70
192
10
1.200000
20
27.329831
30
-21.062553
0
VERTEX
8
0
6
CONTINUOUS
62
252
70
192
10
1.200000
20
27.930718
30
-21.566757
0
VERTEX
8
0
6
CONTINUOUS
62
252
70
192
10
1.700000
20
27.930718
30
-21.566757
0
VERTEX
8
0
6
CONTINUOUS
62
252
70
192
10
1.700000
20
27.329831
30
-21.062553
0
VERTEX
8
0
6
CONTINUOUS
62
252
70
192
10
1.700000
20
26.650520
30
-20.670352
0
VERTEX
8
0
6
CONTINUOUS
62
252
70
192
10
1.700000
20
25.913423
30
-20.402071
0
VERTEX
8
0
6
CONTINUOUS
62
252
70
192
10
1.700000
20
25.140938
30
-20.265861
0
VERTEX
8
0
6
CONTINUOUS
62
252
70
192
10
1.700000
20
24.356536
30
-20.265861
0
VERTEX
8
0
6
CONTINUOUS
62
252
70
192
10
1.700000
20
23.584052
30
-20.402071
0
VERTEX
8
0
6
CONTINUOUS
62
252
70
192
10
1.700000
20
22.846955
30
-20.670352
0
VERTEX
8
0
6
CONTINUOUS
62
252
70
192
10
1.700000
20
22.167643
30
-21.062553
0
VERTEX
8
0
6
CONTINUOUS
62
252
70
192
10
1.700000
20
21.566757
30
-21.566757
0
VERTEX
8
0
6
CONTINUOUS
62
252
70
192
10
1.700000
20
21.062553
30
-22.167643
0
VERTEX
8
0
6
CONTINUOUS
62
252
70
192
10
1.700000
20
20.670352
30
-22.846955
0
VERTEX
8
0
6
CONTINUOUS
62
252
70
192
10
1.700000
20
20.402071
30
-23.584052
0
VERTEX
8
0
6
CONTINUOUS
62
252
70
192
10
1.700000
20
20.265861
30
-24.356536
0
VERTEX
8
0
6
CONTINUOUS
62
252
70
192
10
1.700000
20
20.265861
30
-25.140938
0
VERTEX
8
0
6
CONTINUOUS
62
252
70
192
10
1.700000
20
20.402071
30
-25.913423
0
VERTEX
8
0
6
CONTINUOUS
62
252
70
192
10
1.700000
20
20.670352
30
-26.650520
0
VERTEX
8
0
6
CONTINUOUS
62
252
70
192
10
1.700000
20
21.062553
30
-27.329831
0
VERTEX
8
0
6
CONTINUOUS
62
252
70
192
10
1.700000
20
21.566757
30
-27.930718
0
VERTEX
8
0
6
CONTINUOUS
62
252
70
128
10
0.000000
20
0.000000
30
0.000000
71
38
72
1
73
37
0
VERTEX
8
0
6
CONTINUOUS
62
252
70
128
10
0.000000
20
0.000000
30
0.000000
71
37
72
1
73
2
0
VERTEX
8
0
6
CONTINUOUS
62
252
70
128
10
0.000000
20
0.000000
30
0.000000
71
37
72
2
73
36
0
VERTEX
8
0
6
CONTINUOUS
62
252
70
128
10
0.000000
20
0.000000
30
0.000000
71
36
72
2
73
3
0
VERTEX
8
0
6
CONTINUOUS
62
252
70
128
10
0.000000
20
0.000000
30
0.000000
71
36
72
3
73
35
0
VERTEX
8
0
6
CONTINUOUS
62
252
70
128
10
0.000000
20
0.000000
30
0.000000
71
35
72
3
73
4
0
VERTEX
8
0
6
CONTINUOUS
62
252
70
128
10
0.000000
20
0.000000
30
0.000000
71
35
72
4
73
34
0
VERTEX
8
0
6
CONTINUOUS
62
252
70
128
10
0.000000
20
0.000000
30
0.000000
71
34
72
4
73
5
0
VERTEX
8
0
6
CONTINUOUS
62
252
70
128
10
0.000000
20
0.000000
30
0.000000
71
34
72
5
73
33
0
VERTEX
8
0
6
CONTINUOUS
62
252
70
128
10
0.000000
20
0.000000
30
0.000000
71
33
72
5
73
6
0
VERTEX
8
0
6
CONTINUOUS
62
252
70
128
10
0.000000
20
0.000000
30
0.000000
71
33
72
6
73
32
0
VERTEX
8
0
6
CONTINUOUS
62
252
70
128
10
0.000000
20
0.000000
30
0.000000
71
32
72
6
73
7
0
VERTEX
8
0
6
CONTINUOUS
62
252
70
128
10
0.000000
20
0.000000
30
0.000000
71
32
72
7
73
31
0
VERTEX
8
0
6
CONTINUOUS
62
252
70
128
10
0.000000
20
0.000000
30
0.000000
71
31
72
7
73
8
0
VERTEX
8
0
6
CONTINUOUS
62
252
70
128
10
0.000000
20
0.000000
30
0.000000
71
31
72
8
73
30
0
VERTEX
8
0
6
CONTINUOUS
62
252
70
128
10
0.000000
20
0.000000
30
0.000000
71
30
72
8
73
9
0
VERTEX
8
0
6
CONTINUOUS
62
252
70
128
10
0.000000
20
0.000000
30
0.000000
71
30
72
9
73
29
0
VERTEX
8
0
6
CONTINUOUS
62
252
70
128
10
0.000000
20
0.000000
30
0.000000
71
29
72
9
73
10
0
VERTEX
8
0
6
CONTINUOUS
62
252
70
128
10
0.000000
20
0.000000
30
0.000000
71
29
72
10
73
28
0
VERTEX
8
0
6
CONTINUOUS
62
252
70
128
10
0.000000
20
0.000000
30
0.000000
71
28
72
10
73
11
0
VERTEX
8
0
6
CONTINUOUS
62
252
70
128
10
0.000000
20
0.000000
30
0.000000
71
28
72
11
73
27
0
VERTEX
8
0
6
CONTINUOUS
62
252
70
128
10
0.000000
20
0.000000
30
0.000000
71
27
72
11
73
12
0
VERTEX
8
0
6
CONTINUOUS
62
252
70
128
10
0.000000
20
0.000000
30
0.000000
71
27
72
12
73
26
0
VERTEX
8
0
6
CONTINUOUS
62
252
70
128
10
0.000000
20
0.000000
30
0.000000
71
26
72
12
73
13
0
VERTEX
8
0
6
CONTINUOUS
62
252
70
128
10
0.000000
20
0.000000
30
0.000000
71
26
72
13
73
25
0
VERTEX
8
0
6
CONTINUOUS
62
252
70
128
10
0.000000
20
0.000000
30
0.000000
71
25
72
13
73
14
0
VERTEX
8
0
6
CONTINUOUS
62
252
70
128
10
0.000000
20
0.000000
30
0.000000
71
25
72
14
73
15
0
VERTEX
8
0
6
CONTINUOUS
62
252
70
128
10
0.000000
20
0.000000
30
0.000000
71
25
72
15
73
24
0
VERTEX
8
0
6
CONTINUOUS
62
252
70
128
10
0.000000
20
0.000000
30
0.000000
71
24
72
15
73
16
0
VERTEX
8
0
6
CONTINUOUS
62
252
70
128
10
0.000000
20
0.000000
30
0.000000
71
24
72
16
73
23
0
VERTEX
8
0
6
CONTINUOUS
62
252
70
128
10
0.000000
20
0.000000
30
0.000000
71
23
72
16
73
17
0
VERTEX
8
0
6
CONTINUOUS
62
252
70
128
10
0.000000
20
0.000000
30
0.000000
71
23
72
17
73
22
0
VERTEX
8
0
6
CONTINUOUS
62
252
70
128
10
0.000000
20
0.000000
30
0.000000
71
22
72
17
73
21
0
VERTEX
8
0
6
CONTINUOUS
62
252
70
128
10
0.000000
20
0.000000
30
0.000000
71
21
72
17
73
18
0
VERTEX
8
0
6
CONTINUOUS
62
252
70
128
10
0.000000
20
0.000000
30
0.000000
71
21
72
18
73
20
0
VERTEX
8
0
6
CONTINUOUS
62
252
70
128
10
0.000000
20
0.000000
30
0.000000
71
20
72
18
73
19
0
SEQEND
0
POLYLINE
66
1
8
0
6
CONTINUOUS
62
252
70
64
75
0
10
0.000000
20
0.000000
30
0.000000
0
VERTEX
8
0
6
CONTINUOUS
62
252
70
192
10
1.200000
20
27.082190
30
-27.082190
0
VERTEX
8
0
6
CONTINUOUS
62
252
70
192
10
1.200000
20
26.641540
30
-27.451939
0
VERTEX
8
0
6
CONTINUOUS
62
252
70
192
10
1.200000
20
26.143378
30
-27.739553
0
VERTEX
8
0
6
CONTINUOUS
62
252
70
192
10
1.200000
20
25.602840
30
-27.936293
0
VERTEX
8
0
6
CONTINUOUS
62
252
70
192
10
1.200000
20
25.036351
30
-28.036180
0
VERTEX
8
0
6
CONTINUOUS
62
252
70
192
10
1.200000
20
24.461123
30
-28.036180
0
VERTEX
8
0
6
CONTINUOUS
62
252
70
192
10
1.200000
20
23.894634
30
-27.936293
0
VERTEX
8
0
6
CONTINUOUS
62
252
70
192
10
1.200000
20
23.354097
30
-27.739553
0
VERTEX
8
0
6
CONTINUOUS
62
252
70
192
10
1.200000
20
22.855935
30
-27.451939
0
VERTEX
8
0
6
CONTINUOUS
62
252
70
192
10
1.200000
20
22.415285
30
-27.082190
0
VERTEX
8
0
6
CONTINUOUS
62
252
70
192
10
1.200000
20
22.045536
30
-26.641540
0
VERTEX
8
0
6
CONTINUOUS
62
252
70
192
10
1.200000
20
21.757922
30
-26.143378
0
VERTEX
8
0
6
CONTINUOUS
62
252
70
192
10
1.200000
20
21.561182
30
-25.602840
0
VERTEX
8
0
6
CONTINUOUS
62
252
70
192
10
1.200000
20
21.461295
30
-25.036351
0
VERTEX
8
0
6
CONTINUOUS
62
252
70
192
10
1.200000
20
21.461295
30
-24.461123
0
VERTEX
8
0
6
CONTINUOUS
62
252
70
192
10
1.200000
20
21.561182
30
-23.894634
0
VERTEX
8
0
6
CONTINUOUS
62
252
70
192
10
1.200000
20
21.757922
30
-23.354097
0
VERTEX
8
0
6
CONTINUOUS
62
252
70
192
10
1.200000
20
22.045536
30
-22.855935
0
VERTEX
8
0
6
CONTINUOUS
62
252
70
192
10
1.200000
20
22.415285
30
-22.415285
0
VERTEX
8
0
6
CONTINUOUS
62
252
70
192
10
1.200000
20
22.855935
30
-22.045536
0
VERTEX
8
0
6
CONTINUOUS
62
252
70
192
10
1.200000
20
23.354097
30
-21.757922
0
VERTEX
8
0
6
CONTINUOUS
62
252
70
192
10
1.200000
20
23.894634
30
-21.561182
0
VERTEX
8
0
6
CONTINUOUS
62
252
70
192
10
1.200000
20
24.461123
30
-21.461295
0
VERTEX
8
0
6
CONTINUOUS
62
252
70
192
10
1.200000
20
25.036351
30
-21.461295
0
VERTEX
8
0
6
CONTINUOUS
62
252
70
192
10
1.200000
20
25.602840
30
-21.561182
0
VERTEX
8
0
6
CONTINUOUS
62
252
70
192
10
1.200000
20
26.143378
30
-21.757922
0
VERTEX
8
0
6
CONTINUOUS
62
252
70
192
10
1.200000
20
26.641540
30
-22.045536
0
VERTEX
8
0
6
CONTINUOUS
62
252
70
192
10
1.200000
20
27.082190
30
-22.415285
0
VERTEX
8
0
6
CONTINUOUS
62
252
70
192
10
1.200000
20
27.451939
30
-22.855935
0
VERTEX
8
0
6
CONTINUOUS
62
252
70
192
10
1.200000
20
27.739553
30
-23.354097
0
VERTEX
8
0
6
CONTINUOUS
62
252
70
192
10
1.200000
20
27.936293
30
-23.894634
0
VERTEX
8
0
6
CONTINUOUS
62
252
70
192
10
1.200000
20
28.036180
30
-24.461123
0
VERTEX
8
0
6
CONTINUOUS
62
252
70
192
10
1.200000
20
28.036180
30
-25.036351
0
VERTEX
8
0
6
CONTINUOUS
62
252
70
192
10
1.200000
20
27.936293
30
-25.602840
0
VERTEX
8
0
6
CONTINUOUS
62
252
70
192
10
1.200000
20
27.739553
30
-26.143378
0
VERTEX
8
0
6
CONTINUOUS
62
252
70
192
10
1.200000
20
27.451939
30
-26.641540
0
VERTEX
8
0
6
CONTINUOUS
62
252
70
192
10
1.200000
20
23.936039
30
-30.300000
0
VERTEX
8
0
6
CONTINUOUS
62
252
70
192
10
1.200000
20
24.836100
30
-30.300000
0
VERTEX
8
0
6
CONTINUOUS
62
252
70
192
10
1.200000
20
25.784896
30
-30.216991
0
VERTEX
8
0
6
CONTINUOUS
62
252
70
192
10
1.200000
20
26.704864
30
-29.970487
0
VERTEX
8
0
6
CONTINUOUS
62
252
70
192
10
1.200000
20
27.568050
30
-29.567976
0
VERTEX
8
0
6
CONTINUOUS
62
252
70
192
10
1.200000
20
28.348227
30
-29.021690
0
VERTEX
8
0
6
CONTINUOUS
62
252
70
192
10
1.200000
20
29.021690
30
-28.348227
0
VERTEX
8
0
6
CONTINUOUS
62
252
70
192
10
1.200000
20
29.567976
30
-27.568050
0
VERTEX
8
0
6
CONTINUOUS
62
252
70
192
10
1.200000
20
29.970487
30
-26.704864
0
VERTEX
8
0
6
CONTINUOUS
62
252
70
192
10
1.200000
20
30.216991
30
-25.784896
0
VERTEX
8
0
6
CONTINUOUS
62
252
70
192
10
1.200000
20
30.300000
30
-24.836100
0
VERTEX
8
0
6
CONTINUOUS
62
252
70
192
10
1.200000
20
30.300000
30
-23.936039
0
VERTEX
8
0
6
CONTINUOUS
62
252
70
192
10
1.200000
20
27.930718
30
-21.566757
0
VERTEX
8
0
6
CONTINUOUS
62
252
70
192
10
1.200000
20
27.329831
30
-21.062553
0
VERTEX
8
0
6
CONTINUOUS
62
252
70
192
10
1.200000
20
26.650520
30
-20.670352
0
VERTEX
8
0
6
CONTINUOUS
62
252
70
192
10
1.200000
20
25.913423
30
-20.402071
0
VERTEX
8
0
6
CONTINUOUS
62
252
70
192
10
1.200000
20
25.140938
30
-20.265861
0
VERTEX
8
0
6
CONTINUOUS
62
252
70
192
10
1.200000
20
24.356536
30
-20.265861
0
VERTEX
8
0
6
CONTINUOUS
62
252
70
192
10
1.200000
20
23.584052
30
-20.402071
0
VERTEX
8
0
6
CONTINUOUS
62
252
70
192
10
1.200000
20
22.846955
30
-20.670352
0
VERTEX
8
0
6
CONTINUOUS
62
252
70
192
10
1.200000
20
22.167643
30
-21.062553
0
VERTEX
8
0
6
CONTINUOUS
62
252
70
192
10
1.200000
20
21.566757
30
-21.566757
0
VERTEX
8
0
6
CONTINUOUS
62
252
70
192
10
1.200000
20
21.062553
30
-22.167643
0
VERTEX
8
0
6
CONTINUOUS
62
252
70
192
10
1.200000
20
20.670352
30
-22.846955
0
VERTEX
8
0
6
CONTINUOUS
62
252
70
192
10
1.200000
20
20.402071
30
-23.584052
0
VERTEX
8
0
6
CONTINUOUS
62
252
70
192
10
1.200000
20
20.265861
30
-24.356536
0
VERTEX
8
0
6
CONTINUOUS
62
252
70
192
10
1.200000
20
20.265861
30
-25.140938
0
VERTEX
8
0
6
CONTINUOUS
62
252
70
192
10
1.200000
20
20.402071
30
-25.913423
0
VERTEX
8
0
6
CONTINUOUS
62
252
70
192
10
1.200000
20
20.670352
30
-26.650520
0
VERTEX
8
0
6
CONTINUOUS
62
252
70
192
10
1.200000
20
21.062553
30
-27.329831
0
VERTEX
8
0
6
CONTINUOUS
62
252
70
192
10
1.200000
20
21.566757
30
-27.930718
0
VERTEX
8
0
6
CONTINUOUS
62
252
70
128
10
0.000000
20
0.000000
30
0.000000
71
2
72
42
73
1
0
VERTEX
8
0
6
CONTINUOUS
62
252
70
128
10
0.000000
20
0.000000
30
0.000000
71
1
72
42
73
43
0
VERTEX
8
0
6
CONTINUOUS
62
252
70
128
10
0.000000
20
0.000000
30
0.000000
71
1
72
43
73
36
0
VERTEX
8
0
6
CONTINUOUS
62
252
70
128
10
0.000000
20
0.000000
30
0.000000
71
36
72
43
73
44
0
VERTEX
8
0
6
CONTINUOUS
62
252
70
128
10
0.000000
20
0.000000
30
0.000000
71
36
72
44
73
35
0
VERTEX
8
0
6
CONTINUOUS
62
252
70
128
10
0.000000
20
0.000000
30
0.000000
71
35
72
44
73
45
0
VERTEX
8
0
6
CONTINUOUS
62
252
70
128
10
0.000000
20
0.000000
30
0.000000
71
35
72
45
73
34
0
VERTEX
8
0
6
CONTINUOUS
62
252
70
128
10
0.000000
20
0.000000
30
0.000000
71
34
72
45
73
46
0
VERTEX
8
0
6
CONTINUOUS
62
252
70
128
10
0.000000
20
0.000000
30
0.000000
71
34
72
46
73
33
0
VERTEX
8
0
6
CONTINUOUS
62
252
70
128
10
0.000000
20
0.000000
30
0.000000
71
33
72
46
73
47
0
VERTEX
8
0
6
CONTINUOUS
62
252
70
128
10
0.000000
20
0.000000
30
0.000000
71
33
72
47
73
32
0
VERTEX
8
0
6
CONTINUOUS
62
252
70
128
10
0.000000
20
0.000000
30
0.000000
71
32
72
47
73
48
0
VERTEX
8
0
6
CONTINUOUS
62
252
70
128
10
0.000000
20
0.000000
30
0.000000
71
32
72
48
73
31
0
VERTEX
8
0
6
CONTINUOUS
62
252
70
128
10
0.000000
20
0.000000
30
0.000000
71
31
72
48
73
30
0
VERTEX
8
0
6
CONTINUOUS
62
252
70
128
10
0.000000
20
0.000000
30
0.000000
71
30
72
48
73
49
0
VERTEX
8
0
6
CONTINUOUS
62
252
70
128
10
0.000000
20
0.000000
30
0.000000
71
30
72
49
73
29
0
VERTEX
8
0
6
CONTINUOUS
62
252
70
128
10
0.000000
20
0.000000
30
0.000000
71
29
72
49
73
28
0
VERTEX
8
0
6
CONTINUOUS
62
252
70
128
10
0.000000
20
0.000000
30
0.000000
71
28
72
49
73
50
0
VERTEX
8
0
6
CONTINUOUS
62
252
70
128
10
0.000000
20
0.000000
30
0.000000
71
28
72
50
73
27
0
VERTEX
8
0
6
CONTINUOUS
62
252
70
128
10
0.000000
20
0.000000
30
0.000000
71
27
72
50
73
51
0
VERTEX
8
0
6
CONTINUOUS
62
252
70
128
10
0.000000
20
0.000000
30
0.000000
71
27
72
51
73
26
0
VERTEX
8
0
6
CONTINUOUS
62
252
70
128
10
0.000000
20
0.000000
30
0.000000
71
26
72
51
73
52
0
VERTEX
8
0
6
CONTINUOUS
62
252
70
128
10
0.000000
20
0.000000
30
0.000000
71
26
72
52
73
25
0
VERTEX
8
0
6
CONTINUOUS
62
252
70
128
10
0.000000
20
0.000000
30
0.000000
71
25
72
52
73
53
0
VERTEX
8
0
6
CONTINUOUS
62
252
70
128
10
0.000000
20
0.000000
30
0.000000
71
25
72
53
73
24
0
VERTEX
8
0
6
CONTINUOUS
62
252
70
128
10
0.000000
20
0.000000
30
0.000000
71
24
72
53
73
54
0
VERTEX
8
0
6
CONTINUOUS
62
252
70
128
10
0.000000
20
0.000000
30
0.000000
71
24
72
54
73
23
0
VERTEX
8
0
6
CONTINUOUS
62
252
70
128
10
0.000000
20
0.000000
30
0.000000
71
23
72
54
73
55
0
VERTEX
8
0
6
CONTINUOUS
62
252
70
128
10
0.000000
20
0.000000
30
0.000000
71
23
72
55
73
22
0
VERTEX
8
0
6
CONTINUOUS
62
252
70
128
10
0.000000
20
0.000000
30
0.000000
71
22
72
55
73
56
0
VERTEX
8
0
6
CONTINUOUS
62
252
70
128
10
0.000000
20
0.000000
30
0.000000
71
22
72
56
73
21
0
VERTEX
8
0
6
CONTINUOUS
62
252
70
128
10
0.000000
20
0.000000
30
0.000000
71
21
72
56
73
57
0
VERTEX
8
0
6
CONTINUOUS
62
252
70
128
10
0.000000
20
0.000000
30
0.000000
71
21
72
57
73
20
0
VERTEX
8
0
6
CONTINUOUS
62
252
70
128
10
0.000000
20
0.000000
30
0.000000
71
20
72
57
73
58
0
VERTEX
8
0
6
CONTINUOUS
62
252
70
128
10
0.000000
20
0.000000
30
0.000000
71
20
72
58
73
19
0
VERTEX
8
0
6
CONTINUOUS
62
252
70
128
10
0.000000
20
0.000000
30
0.000000
71
19
72
58
73
18
0
VERTEX
8
0
6
CONTINUOUS
62
252
70
128
10
0.000000
20
0.000000
30
0.000000
71
18
72
58
73
59
0
VERTEX
8
0
6
CONTINUOUS
62
252
70
128
10
0.000000
20
0.000000
30
0.000000
71
18
72
59
73
17
0
VERTEX
8
0
6
CONTINUOUS
62
252
70
128
10
0.000000
20
0.000000
30
0.000000
71
17
72
59
73
60
0
VERTEX
8
0
6
CONTINUOUS
62
252
70
128
10
0.000000
20
0.000000
30
0.000000
71
17
72
60
73
16
0
VERTEX
8
0
6
CONTINUOUS
62
252
70
128
10
0.000000
20
0.000000
30
0.000000
71
16
72
60
73
61
0
VERTEX
8
0
6
CONTINUOUS
62
252
70
128
10
0.000000
20
0.000000
30
0.000000
71
16
72
61
73
15
0
VERTEX
8
0
6
CONTINUOUS
62
252
70
128
10
0.000000
20
0.000000
30
0.000000
71
15
72
61
73
62
0
VERTEX
8
0
6
CONTINUOUS
62
252
70
128
10
0.000000
20
0.000000
30
0.000000
71
15
72
62
73
14
0
VERTEX
8
0
6
CONTINUOUS
62
252
70
128
10
0.000000
20
0.000000
30
0.000000
71
14
72
62
73
63
0
VERTEX
8
0
6
CONTINUOUS
62
252
70
128
10
0.000000
20
0.000000
30
0.000000
71
14
72
63
73
13
0
VERTEX
8
0
6
CONTINUOUS
62
252
70
128
10
0.000000
20
0.000000
30
0.000000
71
13
72
63
73
64
0
VERTEX
8
0
6
CONTINUOUS
62
252
70
128
10
0.000000
20
0.000000
30
0.000000
71
13
72
64
73
12
0
VERTEX
8
0
6
CONTINUOUS
62
252
70
128
10
0.000000
20
0.000000
30
0.000000
71
12
72
64
73
65
0
VERTEX
8
0
6
CONTINUOUS
62
252
70
128
10
0.000000
20
0.000000
30
0.000000
71
12
72
65
73
11
0
VERTEX
8
0
6
CONTINUOUS
62
252
70
128
10
0.000000
20
0.000000
30
0.000000
71
11
72
65
73
66
0
VERTEX
8
0
6
CONTINUOUS
62
252
70
128
10
0.000000
20
0.000000
30
0.000000
71
11
72
66
73
10
0
VERTEX
8
0
6
CONTINUOUS
62
252
70
128
10
0.000000
20
0.000000
30
0.000000
71
10
72
66
73
67
0
VERTEX
8
0
6
CONTINUOUS
62
252
70
128
10
0.000000
20
0.000000
30
0.000000
71
10
72
67
73
9
0
VERTEX
8
0
6
CONTINUOUS
62
252
70
128
10
0.000000
20
0.000000
30
0.000000
71
9
72
67
73
8
0
VERTEX
8
0
6
CONTINUOUS
62
252
70
128
10
0.000000
20
0.000000
30
0.000000
71
8
72
67
73
37
0
VERTEX
8
0
6
CONTINUOUS
62
252
70
128
10
0.000000
20
0.000000
30
0.000000
71
8
72
37
73
7
0
VERTEX
8
0
6
CONTINUOUS
62
252
70
128
10
0.000000
20
0.000000
30
0.000000
71
7
72
37
73
6
0
VERTEX
8
0
6
CONTINUOUS
62
252
70
128
10
0.000000
20
0.000000
30
0.000000
71
6
72
37
73
38
0
VERTEX
8
0
6
CONTINUOUS
62
252
70
128
10
0.000000
20
0.000000
30
0.000000
71
6
72
38
73
5
0
VERTEX
8
0
6
CONTINUOUS
62
252
70
128
10
0.000000
20
0.000000
30
0.000000
71
5
72
38
73
39
0
VERTEX
8
0
6
CONTINUOUS
62
252
70
128
10
0.000000
20
0.000000
30
0.000000
71
5
72
39
73
4
0
VERTEX
8
0
6
CONTINUOUS
62
252
70
128
10
0.000000
20
0.000000
30
0.000000
71
4
72
39
73
40
0
VERTEX
8
0
6
CONTINUOUS
62
252
70
128
10
0.000000
20
0.000000
30
0.000000
71
4
72
40
73
3
0
VERTEX
8
0
6
CONTINUOUS
62
252
70
128
10
0.000000
20
0.000000
30
0.000000
71
3
72
40
73
41
0
VERTEX
8
0
6
CONTINUOUS
62
252
70
128
10
0.000000
20
0.000000
30
0.000000
71
3
72
41
73
2
0
VERTEX
8
0
6
CONTINUOUS
62
252
70
128
10
0.000000
20
0.000000
30
0.000000
71
2
72
41
73
42
0
SEQEND
0
POLYLINE
66
1
8
0
6
CONTINUOUS
62
252
70
64
75
0
10
0.000000
20
0.000000
30
0.000000
0
VERTEX
8
0
6
CONTINUOUS
62
252
70
192
10
-0.000000
20
-22.500000
30
-30.300000
0
VERTEX
8
0
6
CONTINUOUS
62
252
70
192
10
1.700000
20
-22.500000
30
-30.300000
0
VERTEX
8
0
6
CONTINUOUS
62
252
70
192
10
1.700000
20
-23.936039
30
-30.300000
0
VERTEX
8
0
6
CONTINUOUS
62
252
70
192
10
1.200000
20
-23.936039
30
-30.300000
0
VERTEX
8
0
6
CONTINUOUS
62
252
70
192
10
1.200000
20
-24.836100
30
-30.300000
0
VERTEX
8
0
6
CONTINUOUS
62
252
70
192
10
0.000000
20
-24.836100
30
-30.300000
0
VERTEX
8
0
6
CONTINUOUS
62
252
70
128
10
0.000000
20
0.000000
30
0.000000
71
6
72
1
73
4
0
VERTEX
8
0
6
CONTINUOUS
62
252
70
128
10
0.000000
20
0.000000
30
0.000000
71
4
72
1
73
2
0
VERTEX
8
0
6
CONTINUOUS
62
252
70
128
10
0.000000
20
0.000000
30
0.000000
71
4
72
2
73
3
0
VERTEX
8
0
6
CONTINUOUS
62
252
70
128
10
0.000000
20
0.000000
30
0.000000
71
4
72
5
73
6
0
SEQEND
0
POLYLINE
66
1
8
0
6
CONTINUOUS
62
252
70
64
75
0
10
0.000000
20
0.000000
30
0.000000
0
VERTEX
8
0
6
CONTINUOUS
62
252
70
192
10
1.700000
20
-30.300000
30
-23.936039
0
VERTEX
8
0
6
CONTINUOUS
62
252
70
192
10
1.200000
20
-30.300000
30
-23.936039
0
VERTEX
8
0
6
CONTINUOUS
62
252
70
192
10
1.200000
20
-27.930718
30
-21.566757
0
VERTEX
8
0
6
CONTINUOUS
62
252
70
192
10
1.700000
20
-27.930718
30
-21.566757
0
VERTEX
8
0
6
CONTINUOUS
62
252
70
128
10
0.000000
20
0.000000
30
0.000000
71
1
72
2
73
4
0
VERTEX
8
0
6
CONTINUOUS
62
252
70
128
10
0.000000
20
0.000000
30
0.000000
71
4
72
2
73
3
0
SEQEND
0
POLYLINE
66
1
8
0
6
CONTINUOUS
62
252
70
64
75
0
10
0.000000
20
0.000000
30
0.000000
0
VERTEX
8
0
6
CONTINUOUS
62
252
70
192
10
1.200000
20
-23.936039
30
-30.300000
0
VERTEX
8
0
6
CONTINUOUS
62
252
70
192
10
1.700000
20
-23.936039
30
-30.300000
0
VERTEX
8
0
6
CONTINUOUS
62
252
70
192
10
1.700000
20
-21.566757
30
-27.930718
0
VERTEX
8
0
6
CONTINUOUS
62
252
70
192
10
1.200000
20
-21.566757
30
-27.930718
0
VERTEX
8
0
6
CONTINUOUS
62
252
70
128
10
0.000000
20
0.000000
30
0.000000
71
1
72
2
73
4
0
VERTEX
8
0
6
CONTINUOUS
62
252
70
128
10
0.000000
20
0.000000
30
0.000000
71
4
72
2
73
3
0
SEQEND
0
POLYLINE
66
1
8
0
6
CONTINUOUS
62
252
70
64
75
0
10
0.000000
20
0.000000
30
0.000000
0
VERTEX
8
0
6
CONTINUOUS
62
252
70
192
10
1.200000
20
-27.930718
30
-21.566757
0
VERTEX
8
0
6
CONTINUOUS
62
252
70
192
10
1.200000
20
-27.329831
30
-21.062553
0
VERTEX
8
0
6
CONTINUOUS
62
252
70
192
10
1.200000
20
-26.650520
30
-20.670352
0
VERTEX
8
0
6
CONTINUOUS
62
252
70
192
10
1.200000
20
-25.913423
30
-20.402071
0
VERTEX
8
0
6
CONTINUOUS
62
252
70
192
10
1.200000
20
-25.140938
30
-20.265861
0
VERTEX
8
0
6
CONTINUOUS
62
252
70
192
10
1.200000
20
-24.356536
30
-20.265861
0
VERTEX
8
0
6
CONTINUOUS
62
252
70
192
10
1.200000
20
-23.584052
30
-20.402071
0
VERTEX
8
0
6
CONTINUOUS
62
252
70
192
10
1.200000
20
-22.846955
30
-20.670352
0
VERTEX
8
0
6
CONTINUOUS
62
252
70
192
10
1.200000
20
-22.167643
30
-21.062553
0
VERTEX
8
0
6
CONTINUOUS
62
252
70
192
10
1.200000
20
-21.566757
30
-21.566757
0
VERTEX
8
0
6
CONTINUOUS
62
252
70
192
10
1.200000
20
-21.062553
30
-22.167643
0
VERTEX
8
0
6
CONTINUOUS
62
252
70
192
10
1.200000
20
-20.670352
30
-22.846955
0
VERTEX
8
0
6
CONTINUOUS
62
252
70
192
10
1.200000
20
-20.402071
30
-23.584052
0
VERTEX
8
0
6
CONTINUOUS
62
252
70
192
10
1.200000
20
-20.265861
30
-24.356536
0
VERTEX
8
0
6
CONTINUOUS
62
252
70
192
10
1.200000
20
-20.265861
30
-25.140938
0
VERTEX
8
0
6
CONTINUOUS
62
252
70
192
10
1.200000
20
-20.402071
30
-25.913423
0
VERTEX
8
0
6
CONTINUOUS
62
252
70
192
10
1.200000
20
-20.670352
30
-26.650520
0
VERTEX
8
0
6
CONTINUOUS
62
252
70
192
10
1.200000
20
-21.062553
30
-27.329831
0
VERTEX
8
0
6
CONTINUOUS
62
252
70
192
10
1.200000
20
-21.566757
30
-27.930718
0
VERTEX
8
0
6
CONTINUOUS
62
252
70
192
10
1.700000
20
-21.566757
30
-27.930718
0
VERTEX
8
0
6
CONTINUOUS
62
252
70
192
10
1.700000
20
-21.062553
30
-27.329831
0
VERTEX
8
0
6
CONTINUOUS
62
252
70
192
10
1.700000
20
-20.670352
30
-26.650520
0
VERTEX
8
0
6
CONTINUOUS
62
252
70
192
10
1.700000
20
-20.402071
30
-25.913423
0
VERTEX
8
0
6
CONTINUOUS
62
252
70
192
10
1.700000
20
-20.265861
30
-25.140938
0
VERTEX
8
0
6
CONTINUOUS
62
252
70
192
10
1.700000
20
-20.265861
30
-24.356536
0
VERTEX
8
0
6
CONTINUOUS
62
252
70
192
10
1.700000
20
-20.402071
30
-23.584052
0
VERTEX
8
0
6
CONTINUOUS
62
252
70
192
10
1.700000
20
-20.670352
30
-22.846955
0
VERTEX
8
0
6
CONTINUOUS
62
252
70
192
10
1.700000
20
-21.062553
30
-22.167643
0
VERTEX
8
0
6
CONTINUOUS
62
252
70
192
10
1.700000
20
-21.566757
30
-21.566757
0
VERTEX
8
0
6
CONTINUOUS
62
252
70
192
10
1.700000
20
-22.167643
30
-21.062553
0
VERTEX
8
0
6
CONTINUOUS
62
252
70
192
10
1.700000
20
-22.846955
30
-20.670352
0
VERTEX
8
0
6
CONTINUOUS
62
252
70
192
10
1.700000
20
-23.584052
30
-20.402071
0
VERTEX
8
0
6
CONTINUOUS
62
252
70
192
10
1.700000
20
-24.356536
30
-20.265861
0
VERTEX
8
0
6
CONTINUOUS
62
252
70
192
10
1.700000
20
-25.140938
30
-20.265861
0
VERTEX
8
0
6
CONTINUOUS
62
252
70
192
10
1.700000
20
-25.913423
30
-20.402071
0
VERTEX
8
0
6
CONTINUOUS
62
252
70
192
10
1.700000
20
-26.650520
30
-20.670352
0
VERTEX
8
0
6
CONTINUOUS
62
252
70
192
10
1.700000
20
-27.329831
30
-21.062553
0
VERTEX
8
0
6
CONTINUOUS
62
252
70
192
10
1.700000
20
-27.930718
30
-21.566757
0
VERTEX
8
0
6
CONTINUOUS
62
252
70
128
10
0.000000
20
0.000000
30
0.000000
71
38
72
1
73
37
0
VERTEX
8
0
6
CONTINUOUS
62
252
70
128
10
0.000000
20
0.000000
30
0.000000
71
37
72
1
73
2
0
VERTEX
8
0
6
CONTINUOUS
62
252
70
128
10
0.000000
20
0.000000
30
0.000000
71
37
72
2
73
36
0
VERTEX
8
0
6
CONTINUOUS
62
252
70
128
10
0.000000
20
0.000000
30
0.000000
71
36
72
2
73
3
0
VERTEX
8
0
6
CONTINUOUS
62
252
70
128
10
0.000000
20
0.000000
30
0.000000
71
36
72
3
73
35
0
VERTEX
8
0
6
CONTINUOUS
62
252
70
128
10
0.000000
20
0.000000
30
0.000000
71
35
72
3
73
4
0
VERTEX
8
0
6
CONTINUOUS
62
252
70
128
10
0.000000
20
0.000000
30
0.000000
71
35
72
4
73
34
0
VERTEX
8
0
6
CONTINUOUS
62
252
70
128
10
0.000000
20
0.000000
30
0.000000
71
34
72
4
73
5
0
VERTEX
8
0
6
CONTINUOUS
62
252
70
128
10
0.000000
20
0.000000
30
0.000000
71
34
72
5
73
33
0
VERTEX
8
0
6
CONTINUOUS
62
252
70
128
10
0.000000
20
0.000000
30
0.000000
71
33
72
5
73
6
0
VERTEX
8
0
6
CONTINUOUS
62
252
70
128
10
0.000000
20
0.000000
30
0.000000
71
33
72
6
73
32
0
VERTEX
8
0
6
CONTINUOUS
62
252
70
128
10
0.000000
20
0.000000
30
0.000000
71
32
72
6
73
7
0
VERTEX
8
0
6
CONTINUOUS
62
252
70
128
10
0.000000
20
0.000000
30
0.000000
71
32
72
7
73
31
0
VERTEX
8
0
6
CONTINUOUS
62
252
70
128
10
0.000000
20
0.000000
30
0.000000
71
31
72
7
73
8
0
VERTEX
8
0
6
CONTINUOUS
62
252
70
128
10
0.000000
20
0.000000
30
0.000000
71
31
72
8
73
30
0
VERTEX
8
0
6
CONTINUOUS
62
252
70
128
10
0.000000
20
0.000000
30
0.000000
71
30
72
8
73
9
0
VERTEX
8
0
6
CONTINUOUS
62
252
70
128
10
0.000000
20
0.000000
30
0.000000
71
30
72
9
73
29
0
VERTEX
8
0
6
CONTINUOUS
62
252
70
128
10
0.000000
20
0.000000
30
0.000000
71
29
72
9
73
10
0
VERTEX
8
0
6
CONTINUOUS
62
252
70
128
10
0.000000
20
0.000000
30
0.000000
71
29
72
10
73
28
0
VERTEX
8
0
6
CONTINUOUS
62
252
70
128
10
0.000000
20
0.000000
30
0.000000
71
28
72
10
73
11
0
VERTEX
8
0
6
CONTINUOUS
62
252
70
128
10
0.000000
20
0.000000
30
0.000000
71
28
72
11
73
27
0
VERTEX
8
0
6
CONTINUOUS
62
252
70
128
10
0.000000
20
0.000000
30
0.000000
71
27
72
11
73
12
0
VERTEX
8
0
6
CONTINUOUS
62
252
70
128
10
0.000000
20
0.000000
30
0.000000
71
27
72
12
73
26
0
VERTEX
8
0
6
CONTINUOUS
62
252
70
128
10
0.000000
20
0.000000
30
0.000000
71
26
72
12
73
13
0
VERTEX
8
0
6
CONTINUOUS
62
252
70
128
10
0.000000
20
0.000000
30
0.000000
71
26
72
13
73
25
0
VERTEX
8
0
6
CONTINUOUS
62
252
70
128
10
0.000000
20
0.000000
30
0.000000
71
25
72
13
73
14
0
VERTEX
8
0
6
CONTINUOUS
62
252
70
128
10
0.000000
20
0.000000
30
0.000000
71
25
72
14
73
15
0
VERTEX
8
0
6
CONTINUOUS
62
252
70
128
10
0.000000
20
0.000000
30
0.000000
71
25
72
15
73
24
0
VERTEX
8
0
6
CONTINUOUS
62
252
70
128
10
0.000000
20
0.000000
30
0.000000
71
24
72
15
73
16
0
VERTEX
8
0
6
CONTINUOUS
62
252
70
128
10
0.000000
20
0.000000
30
0.000000
71
24
72
16
73
23
0
VERTEX
8
0
6
CONTINUOUS
62
252
70
128
10
0.000000
20
0.000000
30
0.000000
71
23
72
16
73
17
0
VERTEX
8
0
6
CONTINUOUS
62
252
70
128
10
0.000000
20
0.000000
30
0.000000
71
23
72
17
73
22
0
VERTEX
8
0
6
CONTINUOUS
62
252
70
128
10
0.000000
20
0.000000
30
0.000000
71
22
72
17
73
21
0
VERTEX
8
0
6
CONTINUOUS
62
252
70
128
10
0.000000
20
0.000000
30
0.000000
71
21
72
17
73
18
0
VERTEX
8
0
6
CONTINUOUS
62
252
70
128
10
0.000000
20
0.000000
30
0.000000
71
21
72
18
73
20
0
VERTEX
8
0
6
CONTINUOUS
62
252
70
128
10
0.000000
20
0.000000
30
0.000000
71
20
72
18
73
19
0
SEQEND
0
POLYLINE
66
1
8
0
6
CONTINUOUS
62
252
70
64
75
0
10
0.000000
20
0.000000
30
0.000000
0
VERTEX
8
0
6
CONTINUOUS
62
252
70
192
10
1.200000
20
-27.082190
30
-27.082190
0
VERTEX
8
0
6
CONTINUOUS
62
252
70
192
10
1.200000
20
-27.451939
30
-26.641540
0
VERTEX
8
0
6
CONTINUOUS
62
252
70
192
10
1.200000
20
-27.739553
30
-26.143378
0
VERTEX
8
0
6
CONTINUOUS
62
252
70
192
10
1.200000
20
-27.936293
30
-25.602840
0
VERTEX
8
0
6
CONTINUOUS
62
252
70
192
10
1.200000
20
-28.036180
30
-25.036351
0
VERTEX
8
0
6
CONTINUOUS
62
252
70
192
10
1.200000
20
-28.036180
30
-24.461123
0
VERTEX
8
0
6
CONTINUOUS
62
252
70
192
10
1.200000
20
-27.936293
30
-23.894634
0
VERTEX
8
0
6
CONTINUOUS
62
252
70
192
10
1.200000
20
-27.739553
30
-23.354097
0
VERTEX
8
0
6
CONTINUOUS
62
252
70
192
10
1.200000
20
-27.451939
30
-22.855935
0
VERTEX
8
0
6
CONTINUOUS
62
252
70
192
10
1.200000
20
-27.082190
30
-22.415285
0
VERTEX
8
0
6
CONTINUOUS
62
252
70
192
10
1.200000
20
-26.641540
30
-22.045536
0
VERTEX
8
0
6
CONTINUOUS
62
252
70
192
10
1.200000
20
-26.143378
30
-21.757922
0
VERTEX
8
0
6
CONTINUOUS
62
252
70
192
10
1.200000
20
-25.602840
30
-21.561182
0
VERTEX
8
0
6
CONTINUOUS
62
252
70
192
10
1.200000
20
-25.036351
30
-21.461295
0
VERTEX
8
0
6
CONTINUOUS
62
252
70
192
10
1.200000
20
-24.461123
30
-21.461295
0
VERTEX
8
0
6
CONTINUOUS
62
252
70
192
10
1.200000
20
-23.894634
30
-21.561182
0
VERTEX
8
0
6
CONTINUOUS
62
252
70
192
10
1.200000
20
-23.354097
30
-21.757922
0
VERTEX
8
0
6
CONTINUOUS
62
252
70
192
10
1.200000
20
-22.855935
30
-22.045536
0
VERTEX
8
0
6
CONTINUOUS
62
252
70
192
10
1.200000
20
-22.415285
30
-22.415285
0
VERTEX
8
0
6
CONTINUOUS
62
252
70
192
10
1.200000
20
-22.045536
30
-22.855935
0
VERTEX
8
0
6
CONTINUOUS
62
252
70
192
10
1.200000
20
-21.757922
30
-23.354097
0
VERTEX
8
0
6
CONTINUOUS
62
252
70
192
10
1.200000
20
-21.561182
30
-23.894634
0
VERTEX
8
0
6
CONTINUOUS
62
252
70
192
10
1.200000
20
-21.461295
30
-24.461123
0
VERTEX
8
0
6
CONTINUOUS
62
252
70
192
10
1.200000
20
-21.461295
30
-25.036351
0
VERTEX
8
0
6
CONTINUOUS
62
252
70
192
10
1.200000
20
-21.561182
30
-25.602840
0
VERTEX
8
0
6
CONTINUOUS
62
252
70
192
10
1.200000
20
-21.757922
30
-26.143378
0
VERTEX
8
0
6
CONTINUOUS
62
252
70
192
10
1.200000
20
-22.045536
30
-26.641540
0
VERTEX
8
0
6
CONTINUOUS
62
252
70
192
10
1.200000
20
-22.415285
30
-27.082190
0
VERTEX
8
0
6
CONTINUOUS
62
252
70
192
10
1.200000
20
-22.855935
30
-27.451939
0
VERTEX
8
0
6
CONTINUOUS
62
252
70
192
10
1.200000
20
-23.354097
30
-27.739553
0
VERTEX
8
0
6
CONTINUOUS
62
252
70
192
10
1.200000
20
-23.894634
30
-27.936293
0
VERTEX
8
0
6
CONTINUOUS
62
252
70
192
10
1.200000
20
-24.461123
30
-28.036180
0
VERTEX
8
0
6
CONTINUOUS
62
252
70
192
10
1.200000
20
-25.036351
30
-28.036180
0
VERTEX
8
0
6
CONTINUOUS
62
252
70
192
10
1.200000
20
-25.602840
30
-27.936293
0
VERTEX
8
0
6
CONTINUOUS
62
252
70
192
10
1.200000
20
-26.143378
30
-27.739553
0
VERTEX
8
0
6
CONTINUOUS
62
252
70
192
10
1.200000
20
-26.641540
30
-27.451939
0
VERTEX
8
0
6
CONTINUOUS
62
252
70
192
10
1.200000
20
-30.300000
30
-23.936039
0
VERTEX
8
0
6
CONTINUOUS
62
252
70
192
10
1.200000
20
-30.300000
30
-24.836100
0
VERTEX
8
0
6
CONTINUOUS
62
252
70
192
10
1.200000
20
-30.216991
30
-25.784896
0
VERTEX
8
0
6
CONTINUOUS
62
252
70
192
10
1.200000
20
-29.970487
30
-26.704864
0
VERTEX
8
0
6
CONTINUOUS
62
252
70
192
10
1.200000
20
-29.567976
30
-27.568050
0
VERTEX
8
0
6
CONTINUOUS
62
252
70
192
10
1.200000
20
-29.021690
30
-28.348227
0
VERTEX
8
0
6
CONTINUOUS
62
252
70
192
10
1.200000
20
-28.348227
30
-29.021690
0
VERTEX
8
0
6
CONTINUOUS
62
252
70
192
10
1.200000
20
-27.568050
30
-29.567976
0
VERTEX
8
0
6
CONTINUOUS
62
252
70
192
10
1.200000
20
-26.704864
30
-29.970487
0
VERTEX
8
0
6
CONTINUOUS
62
252
70
192
10
1.200000
20
-25.784896
30
-30.216991
0
VERTEX
8
0
6
CONTINUOUS
62
252
70
192
10
1.200000
20
-24.836100
30
-30.300000
0
VERTEX
8
0
6
CONTINUOUS
62
252
70
192
10
1.200000
20
-23.936039
30
-30.300000
0
VERTEX
8
0
6
CONTINUOUS
62
252
70
192
10
1.200000
20
-21.566757
30
-27.930718
0
VERTEX
8
0
6
CONTINUOUS
62
252
70
192
10
1.200000
20
-21.062553
30
-27.329831
0
VERTEX
8
0
6
CONTINUOUS
62
252
70
192
10
1.200000
20
-20.670352
30
-26.650520
0
VERTEX
8
0
6
CONTINUOUS
62
252
70
192
10
1.200000
20
-20.402071
30
-25.913423
0
VERTEX
8
0
6
CONTINUOUS
62
252
70
192
10
1.200000
20
-20.265861
30
-25.140938
0
VERTEX
8
0
6
CONTINUOUS
62
252
70
192
10
1.200000
20
-20.265861
30
-24.356536
0
VERTEX
8
0
6
CONTINUOUS
62
252
70
192
10
1.200000
20
-20.402071
30
-23.584052
0
VERTEX
8
0
6
CONTINUOUS
62
252
70
192
10
1.200000
20
-20.670352
30
-22.846955
0
VERTEX
8
0
6
CONTINUOUS
62
252
70
192
10
1.200000
20
-21.062553
30
-22.167643
0
VERTEX
8
0
6
CONTINUOUS
62
252
70
192
10
1.200000
20
-21.566757
30
-21.566757
0
VERTEX
8
0
6
CONTINUOUS
62
252
70
192
10
1.200000
20
-22.167643
30
-21.062553
0
VERTEX
8
0
6
CONTINUOUS
62
252
70
192
10
1.200000
20
-22.846955
30
-20.670352
0
VERTEX
8
0
6
CONTINUOUS
62
252
70
192
10
1.200000
20
-23.584052
30
-20.402071
0
VERTEX
8
0
6
CONTINUOUS
62
252
70
192
10
1.200000
20
-24.356536
30
-20.265861
0
VERTEX
8
0
6
CONTINUOUS
62
252
70
192
10
1.200000
20
-25.140938
30
-20.265861
0
VERTEX
8
0
6
CONTINUOUS
62
252
70
192
10
1.200000
20
-25.913423
30
-20.402071
0
VERTEX
8
0
6
CONTINUOUS
62
252
70
192
10
1.200000
20
-26.650520
30
-20.670352
0
VERTEX
8
0
6
CONTINUOUS
62
252
70
192
10
1.200000
20
-27.329831
30
-21.062553
0
VERTEX
8
0
6
CONTINUOUS
62
252
70
192
10
1.200000
20
-27.930718
30
-21.566757
0
VERTEX
8
0
6
CONTINUOUS
62
252
70
128
10
0.000000
20
0.000000
30
0.000000
71
2
72
42
73
1
0
VERTEX
8
0
6
CONTINUOUS
62
252
70
128
10
0.000000
20
0.000000
30
0.000000
71
1
72
42
73
43
0
VERTEX
8
0
6
CONTINUOUS
62
252
70
128
10
0.000000
20
0.000000
30
0.000000
71
1
72
43
73
36
0
VERTEX
8
0
6
CONTINUOUS
62
252
70
128
10
0.000000
20
0.000000
30
0.000000
71
36
72
43
73
44
0
VERTEX
8
0
6
CONTINUOUS
62
252
70
128
10
0.000000
20
0.000000
30
0.000000
71
36
72
44
73
35
0
VERTEX
8
0
6
CONTINUOUS
62
252
70
128
10
0.000000
20
0.000000
30
0.000000
71
35
72
44
73
45
0
VERTEX
8
0
6
CONTINUOUS
62
252
70
128
10
0.000000
20
0.000000
30
0.000000
71
35
72
45
73
34
0
VERTEX
8
0
6
CONTINUOUS
62
252
70
128
10
0.000000
20
0.000000
30
0.000000
71
34
72
45
73
46
0
VERTEX
8
0
6
CONTINUOUS
62
252
70
128
10
0.000000
20
0.000000
30
0.000000
71
34
72
46
73
33
0
VERTEX
8
0
6
CONTINUOUS
62
252
70
128
10
0.000000
20
0.000000
30
0.000000
71
33
72
46
73
47
0
VERTEX
8
0
6
CONTINUOUS
62
252
70
128
10
0.000000
20
0.000000
30
0.000000
71
33
72
47
73
32
0
VERTEX
8
0
6
CONTINUOUS
62
252
70
128
10
0.000000
20
0.000000
30
0.000000
71
32
72
47
73
48
0
VERTEX
8
0
6
CONTINUOUS
62
252
70
128
10
0.000000
20
0.000000
30
0.000000
71
32
72
48
73
31
0
VERTEX
8
0
6
CONTINUOUS
62
252
70
128
10
0.000000
20
0.000000
30
0.000000
71
31
72
48
73
30
0
VERTEX
8
0
6
CONTINUOUS
62
252
70
128
10
0.000000
20
0.000000
30
0.000000
71
30
72
48
73
49
0
VERTEX
8
0
6
CONTINUOUS
62
252
70
128
10
0.000000
20
0.000000
30
0.000000
71
30
72
49
73
29
0
VERTEX
8
0
6
CONTINUOUS
62
252
70
128
10
0.000000
20
0.000000
30
0.000000
71
29
72
49
73
28
0
VERTEX
8
0
6
CONTINUOUS
62
252
70
128
10
0.000000
20
0.000000
30
0.000000
71
28
72
49
73
50
0
VERTEX
8
0
6
CONTINUOUS
62
252
70
128
10
0.000000
20
0.000000
30
0.000000
71
28
72
50
73
27
0
VERTEX
8
0
6
CONTINUOUS
62
252
70
128
10
0.000000
20
0.000000
30
0.000000
71
27
72
50
73
51
0
VERTEX
8
0
6
CONTINUOUS
62
252
70
128
10
0.000000
20
0.000000
30
0.000000
71
27
72
51
73
26
0
VERTEX
8
0
6
CONTINUOUS
62
252
70
128
10
0.000000
20
0.000000
30
0.000000
71
26
72
51
73
52
0
VERTEX
8
0
6
CONTINUOUS
62
252
70
128
10
0.000000
20
0.000000
30
0.000000
71
26
72
52
73
25
0
VERTEX
8
0
6
CONTINUOUS
62
252
70
128
10
0.000000
20
0.000000
30
0.000000
71
25
72
52
73
53
0
VERTEX
8
0
6
CONTINUOUS
62
252
70
128
10
0.000000
20
0.000000
30
0.000000
71
25
72
53
73
24
0
VERTEX
8
0
6
CONTINUOUS
62
252
70
128
10
0.000000
20
0.000000
30
0.000000
71
24
72
53
73
54
0
VERTEX
8
0
6
CONTINUOUS
62
252
70
128
10
0.000000
20
0.000000
30
0.000000
71
24
72
54
73
23
0
VERTEX
8
0
6
CONTINUOUS
62
252
70
128
10
0.000000
20
0.000000
30
0.000000
71
23
72
54
73
55
0
VERTEX
8
0
6
CONTINUOUS
62
252
70
128
10
0.000000
20
0.000000
30
0.000000
71
23
72
55
73
22
0
VERTEX
8
0
6
CONTINUOUS
62
252
70
128
10
0.000000
20
0.000000
30
0.000000
71
22
72
55
73
56
0
VERTEX
8
0
6
CONTINUOUS
62
252
70
128
10
0.000000
20
0.000000
30
0.000000
71
22
72
56
73
21
0
VERTEX
8
0
6
CONTINUOUS
62
252
70
128
10
0.000000
20
0.000000
30
0.000000
71
21
72
56
73
57
0
VERTEX
8
0
6
CONTINUOUS
62
252
70
128
10
0.000000
20
0.000000
30
0.000000
71
21
72
57
73
20
0
VERTEX
8
0
6
CONTINUOUS
62
252
70
128
10
0.000000
20
0.000000
30
0.000000
71
20
72
57
73
58
0
VERTEX
8
0
6
CONTINUOUS
62
252
70
128
10
0.000000
20
0.000000
30
0.000000
71
20
72
58
73
19
0
VERTEX
8
0
6
CONTINUOUS
62
252
70
128
10
0.000000
20
0.000000
30
0.000000
71
19
72
58
73
18
0
VERTEX
8
0
6
CONTINUOUS
62
252
70
128
10
0.000000
20
0.000000
30
0.000000
71
18
72
58
73
59
0
VERTEX
8
0
6
CONTINUOUS
62
252
70
128
10
0.000000
20
0.000000
30
0.000000
71
18
72
59
73
17
0
VERTEX
8
0
6
CONTINUOUS
62
252
70
128
10
0.000000
20
0.000000
30
0.000000
71
17
72
59
73
60
0
VERTEX
8
0
6
CONTINUOUS
62
252
70
128
10
0.000000
20
0.000000
30
0.000000
71
17
72
60
73
16
0
VERTEX
8
0
6
CONTINUOUS
62
252
70
128
10
0.000000
20
0.000000
30
0.000000
71
16
72
60
73
61
0
VERTEX
8
0
6
CONTINUOUS
62
252
70
128
10
0.000000
20
0.000000
30
0.000000
71
16
72
61
73
15
0
VERTEX
8
0
6
CONTINUOUS
62
252
70
128
10
0.000000
20
0.000000
30
0.000000
71
15
72
61
73
62
0
VERTEX
8
0
6
CONTINUOUS
62
252
70
128
10
0.000000
20
0.000000
30
0.000000
71
15
72
62
73
14
0
VERTEX
8
0
6
CONTINUOUS
62
252
70
128
10
0.000000
20
0.000000
30
0.000000
71
14
72
62
73
63
0
VERTEX
8
0
6
CONTINUOUS
62
252
70
128
10
0.000000
20
0.000000
30
0.000000
71
14
72
63
73
13
0
VERTEX
8
0
6
CONTINUOUS
62
252
70
128
10
0.000000
20
0.000000
30
0.000000
71
13
72
63
73
64
0
VERTEX
8
0
6
CONTINUOUS
62
252
70
128
10
0.000000
20
0.000000
30
0.000000
71
13
72
64
73
12
0
VERTEX
8
0
6
CONTINUOUS
62
252
70
128
10
0.000000
20
0.000000
30
0.000000
71
12
72
64
73
65
0
VERTEX
8
0
6
CONTINUOUS
62
252
70
128
10
0.000000
20
0.000000
30
0.000000
71
12
72
65
73
11
0
VERTEX
8
0
6
CONTINUOUS
62
252
70
128
10
0.000000
20
0.000000
30
0.000000
71
11
72
65
73
66
0
VERTEX
8
0
6
CONTINUOUS
62
252
70
128
10
0.000000
20
0.000000
30
0.000000
71
11
72
66
73
10
0
VERTEX
8
0
6
CONTINUOUS
62
252
70
128
10
0.000000
20
0.000000
30
0.000000
71
10
72
66
73
67
0
VERTEX
8
0
6
CONTINUOUS
62
252
70
128
10
0.000000
20
0.000000
30
0.000000
71
10
72
67
73
9
0
VERTEX
8
0
6
CONTINUOUS
62
252
70
128
10
0.000000
20
0.000000
30
0.000000
71
9
72
67
73
8
0
VERTEX
8
0
6
CONTINUOUS
62
252
70
128
10
0.000000
20
0.000000
30
0.000000
71
8
72
67
73
37
0
VERTEX
8
0
6
CONTINUOUS
62
252
70
128
10
0.000000
20
0.000000
30
0.000000
71
8
72
37
73
7
0
VERTEX
8
0
6
CONTINUOUS
62
252
70
128
10
0.000000
20
0.000000
30
0.000000
71
7
72
37
73
6
0
VERTEX
8
0
6
CONTINUOUS
62
252
70
128
10
0.000000
20
0.000000
30
0.000000
71
6
72
37
73
38
0
VERTEX
8
0
6
CONTINUOUS
62
252
70
128
10
0.000000
20
0.000000
30
0.000000
71
6
72
38
73
5
0
VERTEX
8
0
6
CONTINUOUS
62
252
70
128
10
0.000000
20
0.000000
30
0.000000
71
5
72
38
73
39
0
VERTEX
8
0
6
CONTINUOUS
62
252
70
128
10
0.000000
20
0.000000
30
0.000000
71
5
72
39
73
4
0
VERTEX
8
0
6
CONTINUOUS
62
252
70
128
10
0.000000
20
0.000000
30
0.000000
71
4
72
39
73
40
0
VERTEX
8
0
6
CONTINUOUS
62
252
70
128
10
0.000000
20
0.000000
30
0.000000
71
4
72
40
73
3
0
VERTEX
8
0
6
CONTINUOUS
62
252
70
128
10
0.000000
20
0.000000
30
0.000000
71
3
72
40
73
41
0
VERTEX
8
0
6
CONTINUOUS
62
252
70
128
10
0.000000
20
0.000000
30
0.000000
71
3
72
41
73
2
0
VERTEX
8
0
6
CONTINUOUS
62
252
70
128
10
0.000000
20
0.000000
30
0.000000
71
2
72
41
73
42
0
SEQEND
0
POLYLINE
66
1
8
0
6
CONTINUOUS
62
252
70
64
75
0
10
0.000000
20
0.000000
30
0.000000
0
VERTEX
8
0
6
CONTINUOUS
62
252
70
192
10
1.200000
20
-30.300000
30
23.936039
0
VERTEX
8
0
6
CONTINUOUS
62
252
70
192
10
1.200000
20
-30.300000
30
24.836100
0
VERTEX
8
0
6
CONTINUOUS
62
252
70
192
10
-0.000000
20
-30.300000
30
24.836100
0
VERTEX
8
0
6
CONTINUOUS
62
252
70
192
10
0.000000
20
-30.300000
30
-24.836100
0
VERTEX
8
0
6
CONTINUOUS
62
252
70
192
10
1.200000
20
-30.300000
30
-24.836100
0
VERTEX
8
0
6
CONTINUOUS
62
252
70
192
10
1.200000
20
-30.300000
30
-23.936039
0
VERTEX
8
0
6
CONTINUOUS
62
252
70
192
10
1.700000
20
-30.300000
30
-23.936039
0
VERTEX
8
0
6
CONTINUOUS
62
252
70
192
10
1.700000
20
-30.300000
30
-12.633500
0
VERTEX
8
0
6
CONTINUOUS
62
252
70
192
10
1.700000
20
-30.300000
30
12.633500
0
VERTEX
8
0
6
CONTINUOUS
62
252
70
192
10
1.700000
20
-30.300000
30
23.936039
0
VERTEX
8
0
6
CONTINUOUS
62
252
70
128
10
0.000000
20
0.000000
30
0.000000
71
2
72
3
73
1
0
VERTEX
8
0
6
CONTINUOUS
62
252
70
128
10
0.000000
20
0.000000
30
0.000000
71
1
72
3
73
9
0
VERTEX
8
0
6
CONTINUOUS
62
252
70
128
10
0.000000
20
0.000000
30
0.000000
71
1
72
9
73
10
0
VERTEX
8
0
6
CONTINUOUS
62
252
70
128
10
0.000000
20
0.000000
30
0.000000
71
9
72
3
73
8
0
VERTEX
8
0
6
CONTINUOUS
62
252
70
128
10
0.000000
20
0.000000
30
0.000000
71
8
72
3
73
4
0
VERTEX
8
0
6
CONTINUOUS
62
252
70
128
10
0.000000
20
0.000000
30
0.000000
71
8
72
4
73
6
0
VERTEX
8
0
6
CONTINUOUS
62
252
70
128
10
0.000000
20
0.000000
30
0.000000
71
6
72
4
73
5
0
VERTEX
8
0
6
CONTINUOUS
62
252
70
128
10
0.000000
20
0.000000
30
0.000000
71
6
72
7
73
8
0
SEQEND
0
POLYLINE
66
1
8
0
6
CONTINUOUS
62
252
70
64
75
0
10
0.000000
20
0.000000
30
0.000000
0
VERTEX
8
0
6
CONTINUOUS
62
252
70
192
10
1.700000
20
-19.803900
30
-26.870400
0
VERTEX
8
0
6
CONTINUOUS
62
252
70
192
10
1.700000
20
-19.803900
30
-23.129600
0
VERTEX
8
0
6
CONTINUOUS
62
252
70
192
10
1.700000
20
-30.300000
30
-12.633500
0
VERTEX
8
0
6
CONTINUOUS
62
252
70
192
10
1.700000
20
-30.300000
30
-23.936039
0
VERTEX
8
0
6
CONTINUOUS
62
252
70
192
10
1.700000
20
-27.930718
30
-21.566757
0
VERTEX
8
0
6
CONTINUOUS
62
252
70
192
10
1.700000
20
-27.329831
30
-21.062553
0
VERTEX
8
0
6
CONTINUOUS
62
252
70
192
10
1.700000
20
-26.650520
30
-20.670352
0
VERTEX
8
0
6
CONTINUOUS
62
252
70
192
10
1.700000
20
-25.913423
30
-20.402071
0
VERTEX
8
0
6
CONTINUOUS
62
252
70
192
10
1.700000
20
-25.140938
30
-20.265861
0
VERTEX
8
0
6
CONTINUOUS
62
252
70
192
10
1.700000
20
-24.356536
30
-20.265861
0
VERTEX
8
0
6
CONTINUOUS
62
252
70
192
10
1.700000
20
-23.584052
30
-20.402071
0
VERTEX
8
0
6
CONTINUOUS
62
252
70
192
10
1.700000
20
-22.846955
30
-20.670352
0
VERTEX
8
0
6
CONTINUOUS
62
252
70
192
10
1.700000
20
-22.167643
30
-21.062553
0
VERTEX
8
0
6
CONTINUOUS
62
252
70
192
10
1.700000
20
-21.566757
30
-21.566757
0
VERTEX
8
0
6
CONTINUOUS
62
252
70
192
10
1.700000
20
-21.062553
30
-22.167643
0
VERTEX
8
0
6
CONTINUOUS
62
252
70
192
10
1.700000
20
-20.670352
30
-22.846955
0
VERTEX
8
0
6
CONTINUOUS
62
252
70
192
10
1.700000
20
-20.402071
30
-23.584052
0
VERTEX
8
0
6
CONTINUOUS
62
252
70
192
10
1.700000
20
-20.265861
30
-24.356536
0
VERTEX
8
0
6
CONTINUOUS
62
252
70
192
10
1.700000
20
-20.265861
30
-25.140938
0
VERTEX
8
0
6
CONTINUOUS
62
252
70
192
10
1.700000
20
-20.402071
30
-25.913423
0
VERTEX
8
0
6
CONTINUOUS
62
252
70
192
10
1.700000
20
-20.670352
30
-26.650520
0
VERTEX
8
0
6
CONTINUOUS
62
252
70
192
10
1.700000
20
-21.062553
30
-27.329831
0
VERTEX
8
0
6
CONTINUOUS
62
252
70
192
10
1.700000
20
-21.566757
30
-27.930718
0
VERTEX
8
0
6
CONTINUOUS
62
252
70
192
10
1.700000
20
-23.936039
30
-30.300000
0
VERTEX
8
0
6
CONTINUOUS
62
252
70
192
10
1.700000
20
-22.500000
30
-30.300000
0
VERTEX
8
0
6
CONTINUOUS
62
252
70
192
10
1.700000
20
-22.500000
30
-29.464200
0
VERTEX
8
0
6
CONTINUOUS
62
252
70
128
10
0.000000
20
0.000000
30
0.000000
71
2
72
19
73
1
0
VERTEX
8
0
6
CONTINUOUS
62
252
70
128
10
0.000000
20
0.000000
30
0.000000
71
1
72
19
73
20
0
VERTEX
8
0
6
CONTINUOUS
62
252
70
128
10
0.000000
20
0.000000
30
0.000000
71
1
72
20
73
21
0
VERTEX
8
0
6
CONTINUOUS
62
252
70
128
10
0.000000
20
0.000000
30
0.000000
71
3
72
14
73
2
0
VERTEX
8
0
6
CONTINUOUS
62
252
70
128
10
0.000000
20
0.000000
30
0.000000
71
2
72
14
73
15
0
VERTEX
8
0
6
CONTINUOUS
62
252
70
128
10
0.000000
20
0.000000
30
0.000000
71
2
72
15
73
16
0
VERTEX
8
0
6
CONTINUOUS
62
252
70
128
10
0.000000
20
0.000000
30
0.000000
71
4
72
5
73
3
0
VERTEX
8
0
6
CONTINUOUS
62
252
70
128
10
0.000000
20
0.000000
30
0.000000
71
3
72
5
73
6
0
VERTEX
8
0
6
CONTINUOUS
62
252
70
128
10
0.000000
20
0.000000
30
0.000000
71
3
72
6
73
7
0
VERTEX
8
0
6
CONTINUOUS
62
252
70
128
10
0.000000
20
0.000000
30
0.000000
71
7
72
8
73
3
0
VERTEX
8
0
6
CONTINUOUS
62
252
70
128
10
0.000000
20
0.000000
30
0.000000
71
3
72
8
73
9
0
VERTEX
8
0
6
CONTINUOUS
62
252
70
128
10
0.000000
20
0.000000
30
0.000000
71
3
72
9
73
10
0
VERTEX
8
0
6
CONTINUOUS
62
252
70
128
10
0.000000
20
0.000000
30
0.000000
71
10
72
11
73
3
0
VERTEX
8
0
6
CONTINUOUS
62
252
70
128
10
0.000000
20
0.000000
30
0.000000
71
3
72
11
73
12
0
VERTEX
8
0
6
CONTINUOUS
62
252
70
128
10
0.000000
20
0.000000
30
0.000000
71
3
72
12
73
13
0
VERTEX
8
0
6
CONTINUOUS
62
252
70
128
10
0.000000
20
0.000000
30
0.000000
71
13
72
14
73
3
0
VERTEX
8
0
6
CONTINUOUS
62
252
70
128
10
0.000000
20
0.000000
30
0.000000
71
16
72
17
73
2
0
VERTEX
8
0
6
CONTINUOUS
62
252
70
128
10
0.000000
20
0.000000
30
0.000000
71
2
72
17
73
18
0
VERTEX
8
0
6
CONTINUOUS
62
252
70
128
10
0.000000
20
0.000000
30
0.000000
71
2
72
18
73
19
0
VERTEX
8
0
6
CONTINUOUS
62
252
70
128
10
0.000000
20
0.000000
30
0.000000
71
21
72
22
73
1
0
VERTEX
8
0
6
CONTINUOUS
62
252
70
128
10
0.000000
20
0.000000
30
0.000000
71
1
72
22
73
23
0
VERTEX
8
0
6
CONTINUOUS
62
252
70
128
10
0.000000
20
0.000000
30
0.000000
71
1
72
23
73
26
0
VERTEX
8
0
6
CONTINUOUS
62
252
70
128
10
0.000000
20
0.000000
30
0.000000
71
26
72
23
73
24
0
VERTEX
8
0
6
CONTINUOUS
62
252
70
128
10
0.000000
20
0.000000
30
0.000000
71
26
72
24
73
25
0
SEQEND
0
POLYLINE
66
1
8
0
6
CONTINUOUS
62
252
70
64
75
0
10
0.000000
20
0.000000
30
0.000000
0
VERTEX
8
0
6
CONTINUOUS
62
252
70
192
10
30.400000
20
12.218364
30
29.297774
0
VERTEX
8
0
6
CONTINUOUS
62
252
70
192
10
30.400000
20
29.297774
30
12.218364
0
VERTEX
8
0
6
CONTINUOUS
62
252
70
192
10
1.700000
20
30.300000
30
12.633500
0
VERTEX
8
0
6
CONTINUOUS
62
252
70
192
10
1.700000
20
12.633500
30
30.300000
0
VERTEX
8
0
6
CONTINUOUS
62
252
70
128
10
0.000000
20
0.000000
30
0.000000
71
1
72
2
73
4
0
VERTEX
8
0
6
CONTINUOUS
62
252
70
128
10
0.000000
20
0.000000
30
0.000000
71
4
72
2
73
3
0
SEQEND
0
POLYLINE
66
1
8
0
6
CONTINUOUS
62
252
70
64
75
0
10
0.000000
20
0.000000
30
0.000000
0
VERTEX
8
0
6
CONTINUOUS
62
252
70
192
10
30.400000
20
29.297774
30
12.218364
0
VERTEX
8
0
6
CONTINUOUS
62
252
70
192
10
30.400000
20
29.297774
30
-12.218364
0
VERTEX
8
0
6
CONTINUOUS
62
252
70
192
10
1.700000
20
30.300000
30
-12.633500
0
VERTEX
8
0
6
CONTINUOUS
62
252
70
192
10
1.700000
20
30.300000
30
12.633500
0
VERTEX
8
0
6
CONTINUOUS
62
252
70
128
10
0.000000
20
0.000000
30
0.000000
71
1
72
2
73
4
0
VERTEX
8
0
6
CONTINUOUS
62
252
70
128
10
0.000000
20
0.000000
30
0.000000
71
4
72
2
73
3
0
SEQEND
0
POLYLINE
66
1
8
0
6
CONTINUOUS
62
252
70
64
75
0
10
0.000000
20
0.000000
30
0.000000
0
VERTEX
8
0
6
CONTINUOUS
62
252
70
192
10
10.300000
20
-19.803900
30
-22.704885
0
VERTEX
8
0
6
CONTINUOUS
62
252
70
192
10
10.300000
20
-12.509104
30
-29.999681
0
VERTEX
8
0
6
CONTINUOUS
62
252
70
192
10
30.400000
20
-12.218364
30
-29.297774
0
VERTEX
8
0
6
CONTINUOUS
62
252
70
192
10
30.400000
20
-29.297774
30
-12.218364
0
VERTEX
8
0
6
CONTINUOUS
62
252
70
192
10
1.700000
20
-30.300000
30
-12.633500
0
VERTEX
8
0
6
CONTINUOUS
62
252
70
192
10
1.700000
20
-19.803900
30
-23.129600
0
VERTEX
8
0
6
CONTINUOUS
62
252
70
128
10
0.000000
20
0.000000
30
0.000000
71
2
72
3
73
1
0
VERTEX
8
0
6
CONTINUOUS
62
252
70
128
10
0.000000
20
0.000000
30
0.000000
71
1
72
3
73
4
0
VERTEX
8
0
6
CONTINUOUS
62
252
70
128
10
0.000000
20
0.000000
30
0.000000
71
1
72
4
73
5
0
VERTEX
8
0
6
CONTINUOUS
62
252
70
128
10
0.000000
20
0.000000
30
0.000000
71
5
72
6
73
1
0
SEQEND
0
POLYLINE
66
1
8
0
6
CONTINUOUS
62
252
70
64
75
0
10
0.000000
20
0.000000
30
0.000000
0
VERTEX
8
0
6
CONTINUOUS
62
252
70
192
10
30.400000
20
-29.297774
30
-12.218364
0
VERTEX
8
0
6
CONTINUOUS
62
252
70
192
10
30.400000
20
-29.297774
30
12.218364
0
VERTEX
8
0
6
CONTINUOUS
62
252
70
192
10
1.700000
20
-30.300000
30
12.633500
0
VERTEX
8
0
6
CONTINUOUS
62
252
70
192
10
1.700000
20
-30.300000
30
-12.633500
0
VERTEX
8
0
6
CONTINUOUS
62
252
70
128
10
0.000000
20
0.000000
30
0.000000
71
1
72
2
73
4
0
VERTEX
8
0
6
CONTINUOUS
62
252
70
128
10
0.000000
20
0.000000
30
0.000000
71
4
72
2
73
3
0
SEQEND
0
POLYLINE
66
1
8
0
6
CONTINUOUS
62
252
70
64
75
0
10
0.000000
20
0.000000
30
0.000000
0
VERTEX
8
0
6
CONTINUOUS
62
252
70
192
10
30.400000
20
-29.297774
30
12.218364
0
VERTEX
8
0
6
CONTINUOUS
62
252
70
192
10
30.400000
20
-12.218364
30
29.297774
0
VERTEX
8
0
6
CONTINUOUS
62
252
70
192
10
1.700000
20
-12.633500
30
30.300000
0
VERTEX
8
0
6
CONTINUOUS
62
252
70
192
10
1.700000
20
-30.300000
30
12.633500
0
VERTEX
8
0
6
CONTINUOUS
62
252
70
128
10
0.000000
20
0.000000
30
0.000000
71
1
72
2
73
4
0
VERTEX
8
0
6
CONTINUOUS
62
252
70
128
10
0.000000
20
0.000000
30
0.000000
71
4
72
2
73
3
0
SEQEND
0
POLYLINE
66
1
8
0
6
CONTINUOUS
62
252
70
64
75
0
10
0.000000
20
0.000000
30
0.000000
0
VERTEX
8
0
6
CONTINUOUS
62
252
70
192
10
30.400000
20
-12.218364
30
29.297774
0
VERTEX
8
0
6
CONTINUOUS
62
252
70
192
10
30.400000
20
12.218364
30
29.297774
0
VERTEX
8
0
6
CONTINUOUS
62
252
70
192
10
1.700000
20
12.633500
30
30.300000
0
VERTEX
8
0
6
CONTINUOUS
62
252
70
192
10
1.700000
20
-12.633500
30
30.300000
0
VERTEX
8
0
6
CONTINUOUS
62
252
70
128
10
0.000000
20
0.000000
30
0.000000
71
2
72
3
73
1
0
VERTEX
8
0
6
CONTINUOUS
62
252
70
128
10
0.000000
20
0.000000
30
0.000000
71
1
72
3
73
4
0
SEQEND
0
POLYLINE
66
1
8
0
6
CONTINUOUS
62
252
70
64
75
0
10
0.000000
20
0.000000
30
0.000000
0
VERTEX
8
0
6
CONTINUOUS
62
252
70
192
10
30.400000
20
0.000000
30
-7.000000
0
VERTEX
8
0
6
CONTINUOUS
62
252
70
192
10
30.400000
20
-1.215537
30
-6.893654
0
VERTEX
8
0
6
CONTINUOUS
62
252
70
192
10
30.400000
20
-2.394141
30
-6.577848
0
VERTEX
8
0
6
CONTINUOUS
62
252
70
192
10
30.400000
20
-3.500000
30
-6.062178
0
VERTEX
8
0
6
CONTINUOUS
62
252
70
192
10
30.400000
20
-4.499513
30
-5.362311
0
VERTEX
8
0
6
CONTINUOUS
62
252
70
192
10
30.400000
20
-5.362311
30
-4.499513
0
VERTEX
8
0
6
CONTINUOUS
62
252
70
192
10
30.400000
20
-6.062178
30
-3.500000
0
VERTEX
8
0
6
CONTINUOUS
62
252
70
192
10
30.400000
20
-6.577848
30
-2.394141
0
VERTEX
8
0
6
CONTINUOUS
62
252
70
192
10
30.400000
20
-6.893654
30
-1.215537
0
VERTEX
8
0
6
CONTINUOUS
62
252
70
192
10
30.400000
20
-7.000000
30
0.000000
0
VERTEX
8
0
6
CONTINUOUS
62
252
70
192
10
30.400000
20
-6.893654
30
1.215537
0
VERTEX
8
0
6
CONTINUOUS
62
252
70
192
10
30.400000
20
-6.577848
30
2.394141
0
VERTEX
8
0
6
CONTINUOUS
62
252
70
192
10
30.400000
20
-6.062178
30
3.500000
0
VERTEX
8
0
6
CONTINUOUS
62
252
70
192
10
30.400000
20
-5.362311
30
4.499513
0
VERTEX
8
0
6
CONTINUOUS
62
252
70
192
10
30.400000
20
-4.499513
30
5.362311
0
VERTEX
8
0
6
CONTINUOUS
62
252
70
192
10
30.400000
20
-3.500000
30
6.062178
0
VERTEX
8
0
6
CONTINUOUS
62
252
70
192
10
30.400000
20
-2.394141
30
6.577848
0
VERTEX
8
0
6
CONTINUOUS
62
252
70
192
10
30.400000
20
-1.215537
30
6.893654
0
VERTEX
8
0
6
CONTINUOUS
62
252
70
192
10
30.400000
20
-0.000000
30
7.000000
0
VERTEX
8
0
6
CONTINUOUS
62
252
70
192
10
30.400000
20
1.215537
30
6.893654
0
VERTEX
8
0
6
CONTINUOUS
62
252
70
192
10
30.400000
20
2.394141
30
6.577848
0
VERTEX
8
0
6
CONTINUOUS
62
252
70
192
10
30.400000
20
3.500000
30
6.062178
0
VERTEX
8
0
6
CONTINUOUS
62
252
70
192
10
30.400000
20
4.499513
30
5.362311
0
VERTEX
8
0
6
CONTINUOUS
62
252
70
192
10
30.400000
20
5.362311
30
4.499513
0
VERTEX
8
0
6
CONTINUOUS
62
252
70
192
10
30.400000
20
6.062178
30
3.500000
0
VERTEX
8
0
6
CONTINUOUS
62
252
70
192
10
30.400000
20
6.577848
30
2.394141
0
VERTEX
8
0
6
CONTINUOUS
62
252
70
192
10
30.400000
20
6.893654
30
1.215537
0
VERTEX
8
0
6
CONTINUOUS
62
252
70
192
10
30.400000
20
7.000000
30
0.000000
0
VERTEX
8
0
6
CONTINUOUS
62
252
70
192
10
30.400000
20
6.893654
30
-1.215537
0
VERTEX
8
0
6
CONTINUOUS
62
252
70
192
10
30.400000
20
6.577848
30
-2.394141
0
VERTEX
8
0
6
CONTINUOUS
62
252
70
192
10
30.400000
20
6.062178
30
-3.500000
0
VERTEX
8
0
6
CONTINUOUS
62
252
70
192
10
30.400000
20
5.362311
30
-4.499513
0
VERTEX
8
0
6
CONTINUOUS
62
252
70
192
10
30.400000
20
4.499513
30
-5.362311
0
VERTEX
8
0
6
CONTINUOUS
62
252
70
192
10
30.400000
20
3.500000
30
-6.062178
0
VERTEX
8
0
6
CONTINUOUS
62
252
70
192
10
30.400000
20
2.394141
30
-6.577848
0
VERTEX
8
0
6
CONTINUOUS
62
252
70
192
10
30.400000
20
1.215537
30
-6.893654
0
VERTEX
8
0
6
CONTINUOUS
62
252
70
192
10
30.400000
20
29.297774
30
12.218364
0
VERTEX
8
0
6
CONTINUOUS
62
252
70
192
10
30.400000
20
12.218364
30
29.297774
0
VERTEX
8
0
6
CONTINUOUS
62
252
70
192
10
30.400000
20
-12.218364
30
29.297774
0
VERTEX
8
0
6
CONTINUOUS
62
252
70
192
10
30.400000
20
-29.297774
30
12.218364
0
VERTEX
8
0
6
CONTINUOUS
62
252
70
192
10
30.400000
20
-29.297774
30
-12.218364
0
VERTEX
8
0
6
CONTINUOUS
62
252
70
192
10
30.400000
20
-12.218364
30
-29.297774
0
VERTEX
8
0
6
CONTINUOUS
62
252
70
192
10
30.400000
20
12.218364
30
-29.297774
0
VERTEX
8
0
6
CONTINUOUS
62
252
70
192
10
30.400000
20
29.297774
30
-12.218364
0
VERTEX
8
0
6
CONTINUOUS
62
252
70
128
10
0.000000
20
0.000000
30
0.000000
71
2
72
42
73
1
0
VERTEX
8
0
6
CONTINUOUS
62
252
70
128
10
0.000000
20
0.000000
30
0.000000
71
1
72
42
73
43
0
VERTEX
8
0
6
CONTINUOUS
62
252
70
128
10
0.000000
20
0.000000
30
0.000000
71
1
72
43
73
36
0
VERTEX
8
0
6
CONTINUOUS
62
252
70
128
10
0.000000
20
0.000000
30
0.000000
71
36
72
43
73
35
0
VERTEX
8
0
6
CONTINUOUS
62
252
70
128
10
0.000000
20
0.000000
30
0.000000
71
35
72
43
73
34
0
VERTEX
8
0
6
CONTINUOUS
62
252
70
128
10
0.000000
20
0.000000
30
0.000000
71
34
72
43
73
33
0
VERTEX
8
0
6
CONTINUOUS
62
252
70
128
10
0.000000
20
0.000000
30
0.000000
71
33
72
43
73
32
0
VERTEX
8
0
6
CONTINUOUS
62
252
70
128
10
0.000000
20
0.000000
30
0.000000
71
32
72
43
73
44
0
VERTEX
8
0
6
CONTINUOUS
62
252
70
128
10
0.000000
20
0.000000
30
0.000000
71
32
72
44
73
31
0
VERTEX
8
0
6
CONTINUOUS
62
252
70
128
10
0.000000
20
0.000000
30
0.000000
71
31
72
44
73
30
0
VERTEX
8
0
6
CONTINUOUS
62
252
70
128
10
0.000000
20
0.000000
30
0.000000
71
30
72
44
73
29
0
VERTEX
8
0
6
CONTINUOUS
62
252
70
128
10
0.000000
20
0.000000
30
0.000000
71
29
72
44
73
28
0
VERTEX
8
0
6
CONTINUOUS
62
252
70
128
10
0.000000
20
0.000000
30
0.000000
71
28
72
44
73
37
0
VERTEX
8
0
6
CONTINUOUS
62
252
70
128
10
0.000000
20
0.000000
30
0.000000
71
28
72
37
73
27
0
VERTEX
8
0
6
CONTINUOUS
62
252
70
128
10
0.000000
20
0.000000
30
0.000000
71
27
72
37
73
26
0
VERTEX
8
0
6
CONTINUOUS
62
252
70
128
10
0.000000
20
0.000000
30
0.000000
71
26
72
37
73
25
0
VERTEX
8
0
6
CONTINUOUS
62
252
70
128
10
0.000000
20
0.000000
30
0.000000
71
25
72
37
73
24
0
VERTEX
8
0
6
CONTINUOUS
62
252
70
128
10
0.000000
20
0.000000
30
0.000000
71
24
72
37
73
38
0
VERTEX
8
0
6
CONTINUOUS
62
252
70
128
10
0.000000
20
0.000000
30
0.000000
71
24
72
38
73
23
0
VERTEX
8
0
6
CONTINUOUS
62
252
70
128
10
0.000000
20
0.000000
30
0.000000
71
23
72
38
73
22
0
VERTEX
8
0
6
CONTINUOUS
62
252
70
128
10
0.000000
20
0.000000
30
0.000000
71
22
72
38
73
21
0
VERTEX
8
0
6
CONTINUOUS
62
252
70
128
10
0.000000
20
0.000000
30
0.000000
71
21
72
38
73
20
0
VERTEX
8
0
6
CONTINUOUS
62
252
70
128
10
0.000000
20
0.000000
30
0.000000
71
20
72
38
73
19
0
VERTEX
8
0
6
CONTINUOUS
62
252
70
128
10
0.000000
20
0.000000
30
0.000000
71
19
72
38
73
39
0
VERTEX
8
0
6
CONTINUOUS
62
252
70
128
10
0.000000
20
0.000000
30
0.000000
71
19
72
39
73
18
0
VERTEX
8
0
6
CONTINUOUS
62
252
70
128
10
0.000000
20
0.000000
30
0.000000
71
18
72
39
73
17
0
VERTEX
8
0
6
CONTINUOUS
62
252
70
128
10
0.000000
20
0.000000
30
0.000000
71
17
72
39
73
16
0
VERTEX
8
0
6
CONTINUOUS
62
252
70
128
10
0.000000
20
0.000000
30
0.000000
71
16
72
39
73
15
0
VERTEX
8
0
6
CONTINUOUS
62
252
70
128
10
0.000000
20
0.000000
30
0.000000
71
15
72
39
73
14
0
VERTEX
8
0
6
CONTINUOUS
62
252
70
128
10
0.000000
20
0.000000
30
0.000000
71
14
72
39
73
40
0
VERTEX
8
0
6
CONTINUOUS
62
252
70
128
10
0.000000
20
0.000000
30
0.000000
71
14
72
40
73
13
0
VERTEX
8
0
6
CONTINUOUS
62
252
70
128
10
0.000000
20
0.000000
30
0.000000
71
13
72
40
73
12
0
VERTEX
8
0
6
CONTINUOUS
62
252
70
128
10
0.000000
20
0.000000
30
0.000000
71
12
72
40
73
11
0
VERTEX
8
0
6
CONTINUOUS
62
252
70
128
10
0.000000
20
0.000000
30
0.000000
71
11
72
40
73
10
0
VERTEX
8
0
6
CONTINUOUS
62
252
70
128
10
0.000000
20
0.000000
30
0.000000
71
10
72
40
73
41
0
VERTEX
8
0
6
CONTINUOUS
62
252
70
128
10
0.000000
20
0.000000
30
0.000000
71
10
72
41
73
9
0
VERTEX
8
0
6
CONTINUOUS
62
252
70
128
10
0.000000
20
0.000000
30
0.000000
71
9
72
41
73
8
0
VERTEX
8
0
6
CONTINUOUS
62
252
70
128
10
0.000000
20
0.000000
30
0.000000
71
8
72
41
73
7
0
VERTEX
8
0
6
CONTINUOUS
62
252
70
128
10
0.000000
20
0.000000
30
0.000000
71
7
72
41
73
6
0
VERTEX
8
0
6
CONTINUOUS
62
252
70
128
10
0.000000
20
0.000000
30
0.000000
71
6
72
41
73
42
0
VERTEX
8
0
6
CONTINUOUS
62
252
70
128
10
0.000000
20
0.000000
30
0.000000
71
6
72
42
73
5
0
VERTEX
8
0
6
CONTINUOUS
62
252
70
128
10
0.000000
20
0.000000
30
0.000000
71
5
72
42
73
4
0
VERTEX
8
0
6
CONTINUOUS
62
252
70
128
10
0.000000
20
0.000000
30
0.000000
71
4
72
42
73
3
0
VERTEX
8
0
6
CONTINUOUS
62
252
70
128
10
0.000000
20
0.000000
30
0.000000
71
3
72
42
73
2
0
SEQEND
0
POLYLINE
66
1
8
0
6
CONTINUOUS
62
252
70
64
75
0
10
0.000000
20
0.000000
30
0.000000
0
VERTEX
8
0
6
CONTINUOUS
62
252
70
192
10
1.200000
20
-30.300000
30
24.836100
0
VERTEX
8
0
6
CONTINUOUS
62
252
70
192
10
1.200000
20
-30.216991
30
25.784896
0
VERTEX
8
0
6
CONTINUOUS
62
252
70
192
10
1.200000
20
-29.970487
30
26.704864
0
VERTEX
8
0
6
CONTINUOUS
62
252
70
192
10
1.200000
20
-29.567976
30
27.568050
0
VERTEX
8
0
6
CONTINUOUS
62
252
70
192
10
1.200000
20
-29.021690
30
28.348227
0
VERTEX
8
0
6
CONTINUOUS
62
252
70
192
10
1.200000
20
-28.348227
30
29.021690
0
VERTEX
8
0
6
CONTINUOUS
62
252
70
192
10
1.200000
20
-27.568050
30
29.567976
0
VERTEX
8
0
6
CONTINUOUS
62
252
70
192
10
1.200000
20
-26.704864
30
29.970487
0
VERTEX
8
0
6
CONTINUOUS
62
252
70
192
10
1.200000
20
-25.784896
30
30.216991
0
VERTEX
8
0
6
CONTINUOUS
62
252
70
192
10
1.200000
20
-24.836100
30
30.300000
0
VERTEX
8
0
6
CONTINUOUS
62
252
70
192
10
-0.000000
20
-24.836100
30
30.300000
0
VERTEX
8
0
6
CONTINUOUS
62
252
70
192
10
-0.000000
20
-25.784896
30
30.216991
0
VERTEX
8
0
6
CONTINUOUS
62
252
70
192
10
-0.000000
20
-26.704864
30
29.970487
0
VERTEX
8
0
6
CONTINUOUS
62
252
70
192
10
-0.000000
20
-27.568050
30
29.567976
0
VERTEX
8
0
6
CONTINUOUS
62
252
70
192
10
-0.000000
20
-28.348227
30
29.021690
0
VERTEX
8
0
6
CONTINUOUS
62
252
70
192
10
-0.000000
20
-29.021690
30
28.348227
0
VERTEX
8
0
6
CONTINUOUS
62
252
70
192
10
-0.000000
20
-29.567976
30
27.568050
0
VERTEX
8
0
6
CONTINUOUS
62
252
70
192
10
-0.000000
20
-29.970487
30
26.704864
0
VERTEX
8
0
6
CONTINUOUS
62
252
70
192
10
-0.000000
20
-30.216991
30
25.784896
0
VERTEX
8
0
6
CONTINUOUS
62
252
70
192
10
-0.000000
20
-30.300000
30
24.836100
0
VERTEX
8
0
6
CONTINUOUS
62
252
70
128
10
0.000000
20
0.000000
30
0.000000
71
20
72
1
73
19
0
VERTEX
8
0
6
CONTINUOUS
62
252
70
128
10
0.000000
20
0.000000
30
0.000000
71
19
72
1
73
2
0
VERTEX
8
0
6
CONTINUOUS
62
252
70
128
10
0.000000
20
0.000000
30
0.000000
71
19
72
2
73
18
0
VERTEX
8
0
6
CONTINUOUS
62
252
70
128
10
0.000000
20
0.000000
30
0.000000
71
18
72
2
73
3
0
VERTEX
8
0
6
CONTINUOUS
62
252
70
128
10
0.000000
20
0.000000
30
0.000000
71
18
72
3
73
17
0
VERTEX
8
0
6
CONTINUOUS
62
252
70
128
10
0.000000
20
0.000000
30
0.000000
71
17
72
3
73
4
0
VERTEX
8
0
6
CONTINUOUS
62
252
70
128
10
0.000000
20
0.000000
30
0.000000
71
17
72
4
73
16
0
VERTEX
8
0
6
CONTINUOUS
62
252
70
128
10
0.000000
20
0.000000
30
0.000000
71
16
72
4
73
5
0
VERTEX
8
0
6
CONTINUOUS
62
252
70
128
10
0.000000
20
0.000000
30
0.000000
71
16
72
5
73
15
0
VERTEX
8
0
6
CONTINUOUS
62
252
70
128
10
0.000000
20
0.000000
30
0.000000
71
15
72
5
73
6
0
VERTEX
8
0
6
CONTINUOUS
62
252
70
128
10
0.000000
20
0.000000
30
0.000000
71
15
72
6
73
14
0
VERTEX
8
0
6
CONTINUOUS
62
252
70
128
10
0.000000
20
0.000000
30
0.000000
71
14
72
6
73
7
0
VERTEX
8
0
6
CONTINUOUS
62
252
70
128
10
0.000000
20
0.000000
30
0.000000
71
14
72
7
73
13
0
VERTEX
8
0
6
CONTINUOUS
62
252
70
128
10
0.000000
20
0.000000
30
0.000000
71
13
72
7
73
8
0
VERTEX
8
0
6
CONTINUOUS
62
252
70
128
10
0.000000
20
0.000000
30
0.000000
71
13
72
8
73
12
0
VERTEX
8
0
6
CONTINUOUS
62
252
70
128
10
0.000000
20
0.000000
30
0.000000
71
12
72
8
73
9
0
VERTEX
8
0
6
CONTINUOUS
62
252
70
128
10
0.000000
20
0.000000
30
0.000000
71
12
72
9
73
11
0
VERTEX
8
0
6
CONTINUOUS
62
252
70
128
10
0.000000
20
0.000000
30
0.000000
71
11
72
9
73
10
0
SEQEND
0
POLYLINE
66
1
8
0
6
CONTINUOUS
62
252
70
64
75
0
10
0.000000
20
0.000000
30
0.000000
0
VERTEX
8
0
6
CONTINUOUS
62
252
70
192
10
1.200000
20
24.836100
30
30.300000
0
VERTEX
8
0
6
CONTINUOUS
62
252
70
192
10
1.200000
20
25.784896
30
30.216991
0
VERTEX
8
0
6
CONTINUOUS
62
252
70
192
10
1.200000
20
26.704864
30
29.970487
0
VERTEX
8
0
6
CONTINUOUS
62
252
70
192
10
1.200000
20
27.568050
30
29.567976
0
VERTEX
8
0
6
CONTINUOUS
62
252
70
192
10
1.200000
20
28.348227
30
29.021690
0
VERTEX
8
0
6
CONTINUOUS
62
252
70
192
10
1.200000
20
29.021690
30
28.348227
0
VERTEX
8
0
6
CONTINUOUS
62
252
70
192
10
1.200000
20
29.567976
30
27.568050
0
VERTEX
8
0
6
CONTINUOUS
62
252
70
192
10
1.200000
20
29.970487
30
26.704864
0
VERTEX
8
0
6
CONTINUOUS
62
252
70
192
10
1.200000
20
30.216991
30
25.784896
0
VERTEX
8
0
6
CONTINUOUS
62
252
70
192
10
1.200000
20
30.300000
30
24.836100
0
VERTEX
8
0
6
CONTINUOUS
62
252
70
192
10
-0.000000
20
30.300000
30
24.836100
0
VERTEX
8
0
6
CONTINUOUS
62
252
70
192
10
-0.000000
20
30.216991
30
25.784896
0
VERTEX
8
0
6
CONTINUOUS
62
252
70
192
10
-0.000000
20
29.970487
30
26.704864
0
VERTEX
8
0
6
CONTINUOUS
62
252
70
192
10
-0.000000
20
29.567976
30
27.568050
0
VERTEX
8
0
6
CONTINUOUS
62
252
70
192
10
-0.000000
20
29.021690
30
28.348227
0
VERTEX
8
0
6
CONTINUOUS
62
252
70
192
10
-0.000000
20
28.348227
30
29.021690
0
VERTEX
8
0
6
CONTINUOUS
62
252
70
192
10
-0.000000
20
27.568050
30
29.567976
0
VERTEX
8
0
6
CONTINUOUS
62
252
70
192
10
-0.000000
20
26.704864
30
29.970487
0
VERTEX
8
0
6
CONTINUOUS
62
252
70
192
10
-0.000000
20
25.784896
30
30.216991
0
VERTEX
8
0
6
CONTINUOUS
62
252
70
192
10
-0.000000
20
24.836100
30
30.300000
0
VERTEX
8
0
6
CONTINUOUS
62
252
70
128
10
0.000000
20
0.000000
30
0.000000
71
20
72
1
73
19
0
VERTEX
8
0
6
CONTINUOUS
62
252
70
128
10
0.000000
20
0.000000
30
0.000000
71
19
72
1
73
2
0
VERTEX
8
0
6
CONTINUOUS
62
252
70
128
10
0.000000
20
0.000000
30
0.000000
71
19
72
2
73
18
0
VERTEX
8
0
6
CONTINUOUS
62
252
70
128
10
0.000000
20
0.000000
30
0.000000
71
18
72
2
73
3
0
VERTEX
8
0
6
CONTINUOUS
62
252
70
128
10
0.000000
20
0.000000
30
0.000000
71
18
72
3
73
17
0
VERTEX
8
0
6
CONTINUOUS
62
252
70
128
10
0.000000
20
0.000000
30
0.000000
71
17
72
3
73
4
0
VERTEX
8
0
6
CONTINUOUS
62
252
70
128
10
0.000000
20
0.000000
30
0.000000
71
17
72
4
73
16
0
VERTEX
8
0
6
CONTINUOUS
62
252
70
128
10
0.000000
20
0.000000
30
0.000000
71
16
72
4
73
5
0
VERTEX
8
0
6
CONTINUOUS
62
252
70
128
10
0.000000
20
0.000000
30
0.000000
71
16
72
5
73
15
0
VERTEX
8
0
6
CONTINUOUS
62
252
70
128
10
0.000000
20
0.000000
30
0.000000
71
15
72
5
73
6
0
VERTEX
8
0
6
CONTINUOUS
62
252
70
128
10
0.000000
20
0.000000
30
0.000000
71
15
72
6
73
14
0
VERTEX
8
0
6
CONTINUOUS
62
252
70
128
10
0.000000
20
0.000000
30
0.000000
71
14
72
6
73
7
0
VERTEX
8
0
6
CONTINUOUS
62
252
70
128
10
0.000000
20
0.000000
30
0.000000
71
14
72
7
73
13
0
VERTEX
8
0
6
CONTINUOUS
62
252
70
128
10
0.000000
20
0.000000
30
0.000000
71
13
72
7
73
8
0
VERTEX
8
0
6
CONTINUOUS
62
252
70
128
10
0.000000
20
0.000000
30
0.000000
71
13
72
8
73
12
0
VERTEX
8
0
6
CONTINUOUS
62
252
70
128
10
0.000000
20
0.000000
30
0.000000
71
12
72
8
73
9
0
VERTEX
8
0
6
CONTINUOUS
62
252
70
128
10
0.000000
20
0.000000
30
0.000000
71
12
72
9
73
11
0
VERTEX
8
0
6
CONTINUOUS
62
252
70
128
10
0.000000
20
0.000000
30
0.000000
71
11
72
9
73
10
0
SEQEND
0
POLYLINE
66
1
8
0
6
CONTINUOUS
62
252
70
64
75
0
10
0.000000
20
0.000000
30
0.000000
0
VERTEX
8
0
6
CONTINUOUS
62
252
70
192
10
1.200000
20
30.300000
30
-24.836100
0
VERTEX
8
0
6
CONTINUOUS
62
252
70
192
10
1.200000
20
30.216991
30
-25.784896
0
VERTEX
8
0
6
CONTINUOUS
62
252
70
192
10
1.200000
20
29.970487
30
-26.704864
0
VERTEX
8
0
6
CONTINUOUS
62
252
70
192
10
1.200000
20
29.567976
30
-27.568050
0
VERTEX
8
0
6
CONTINUOUS
62
252
70
192
10
1.200000
20
29.021690
30
-28.348227
0
VERTEX
8
0
6
CONTINUOUS
62
252
70
192
10
1.200000
20
28.348227
30
-29.021690
0
VERTEX
8
0
6
CONTINUOUS
62
252
70
192
10
1.200000
20
27.568050
30
-29.567976
0
VERTEX
8
0
6
CONTINUOUS
62
252
70
192
10
1.200000
20
26.704864
30
-29.970487
0
VERTEX
8
0
6
CONTINUOUS
62
252
70
192
10
1.200000
20
25.784896
30
-30.216991
0
VERTEX
8
0
6
CONTINUOUS
62
252
70
192
10
1.200000
20
24.836100
30
-30.300000
0
VERTEX
8
0
6
CONTINUOUS
62
252
70
192
10
0.000000
20
24.836100
30
-30.300000
0
VERTEX
8
0
6
CONTINUOUS
62
252
70
192
10
0.000000
20
25.784896
30
-30.216991
0
VERTEX
8
0
6
CONTINUOUS
62
252
70
192
10
0.000000
20
26.704864
30
-29.970487
0
VERTEX
8
0
6
CONTINUOUS
62
252
70
192
10
0.000000
20
27.568050
30
-29.567976
0
VERTEX
8
0
6
CONTINUOUS
62
252
70
192
10
0.000000
20
28.348227
30
-29.021690
0
VERTEX
8
0
6
CONTINUOUS
62
252
70
192
10
0.000000
20
29.021690
30
-28.348227
0
VERTEX
8
0
6
CONTINUOUS
62
252
70
192
10
0.000000
20
29.567976
30
-27.568050
0
VERTEX
8
0
6
CONTINUOUS
62
252
70
192
10
0.000000
20
29.970487
30
-26.704864
0
VERTEX
8
0
6
CONTINUOUS
62
252
70
192
10
0.000000
20
30.216991
30
-25.784896
0
VERTEX
8
0
6
CONTINUOUS
62
252
70
192
10
0.000000
20
30.300000
30
-24.836100
0
VERTEX
8
0
6
CONTINUOUS
62
252
70
128
10
0.000000
20
0.000000
30
0.000000
71
20
72
1
73
19
0
VERTEX
8
0
6
CONTINUOUS
62
252
70
128
10
0.000000
20
0.000000
30
0.000000
71
19
72
1
73
2
0
VERTEX
8
0
6
CONTINUOUS
62
252
70
128
10
0.000000
20
0.000000
30
0.000000
71
19
72
2
73
18
0
VERTEX
8
0
6
CONTINUOUS
62
252
70
128
10
0.000000
20
0.000000
30
0.000000
71
18
72
2
73
3
0
VERTEX
8
0
6
CONTINUOUS
62
252
70
128
10
0.000000
20
0.000000
30
0.000000
71
18
72
3
73
17
0
VERTEX
8
0
6
CONTINUOUS
62
252
70
128
10
0.000000
20
0.000000
30
0.000000
71
17
72
3
73
4
0
VERTEX
8
0
6
CONTINUOUS
62
252
70
128
10
0.000000
20
0.000000
30
0.000000
71
17
72
4
73
16
0
VERTEX
8
0
6
CONTINUOUS
62
252
70
128
10
0.000000
20
0.000000
30
0.000000
71
16
72
4
73
5
0
VERTEX
8
0
6
CONTINUOUS
62
252
70
128
10
0.000000
20
0.000000
30
0.000000
71
16
72
5
73
15
0
VERTEX
8
0
6
CONTINUOUS
62
252
70
128
10
0.000000
20
0.000000
30
0.000000
71
15
72
5
73
6
0
VERTEX
8
0
6
CONTINUOUS
62
252
70
128
10
0.000000
20
0.000000
30
0.000000
71
15
72
6
73
14
0
VERTEX
8
0
6
CONTINUOUS
62
252
70
128
10
0.000000
20
0.000000
30
0.000000
71
14
72
6
73
7
0
VERTEX
8
0
6
CONTINUOUS
62
252
70
128
10
0.000000
20
0.000000
30
0.000000
71
14
72
7
73
13
0
VERTEX
8
0
6
CONTINUOUS
62
252
70
128
10
0.000000
20
0.000000
30
0.000000
71
13
72
7
73
8
0
VERTEX
8
0
6
CONTINUOUS
62
252
70
128
10
0.000000
20
0.000000
30
0.000000
71
13
72
8
73
12
0
VERTEX
8
0
6
CONTINUOUS
62
252
70
128
10
0.000000
20
0.000000
30
0.000000
71
12
72
8
73
9
0
VERTEX
8
0
6
CONTINUOUS
62
252
70
128
10
0.000000
20
0.000000
30
0.000000
71
12
72
9
73
11
0
VERTEX
8
0
6
CONTINUOUS
62
252
70
128
10
0.000000
20
0.000000
30
0.000000
71
11
72
9
73
10
0
SEQEND
0
POLYLINE
66
1
8
0
6
CONTINUOUS
62
252
70
64
75
0
10
0.000000
20
0.000000
30
0.000000
0
VERTEX
8
0
6
CONTINUOUS
62
252
70
192
10
1.200000
20
-24.836100
30
-30.300000
0
VERTEX
8
0
6
CONTINUOUS
62
252
70
192
10
1.200000
20
-25.784896
30
-30.216991
0
VERTEX
8
0
6
CONTINUOUS
62
252
70
192
10
1.200000
20
-26.704864
30
-29.970487
0
VERTEX
8
0
6
CONTINUOUS
62
252
70
192
10
1.200000
20
-27.568050
30
-29.567976
0
VERTEX
8
0
6
CONTINUOUS
62
252
70
192
10
1.200000
20
-28.348227
30
-29.021690
0
VERTEX
8
0
6
CONTINUOUS
62
252
70
192
10
1.200000
20
-29.021690
30
-28.348227
0
VERTEX
8
0
6
CONTINUOUS
62
252
70
192
10
1.200000
20
-29.567976
30
-27.568050
0
VERTEX
8
0
6
CONTINUOUS
62
252
70
192
10
1.200000
20
-29.970487
30
-26.704864
0
VERTEX
8
0
6
CONTINUOUS
62
252
70
192
10
1.200000
20
-30.216991
30
-25.784896
0
VERTEX
8
0
6
CONTINUOUS
62
252
70
192
10
1.200000
20
-30.300000
30
-24.836100
0
VERTEX
8
0
6
CONTINUOUS
62
252
70
192
10
0.000000
20
-30.300000
30
-24.836100
0
VERTEX
8
0
6
CONTINUOUS
62
252
70
192
10
0.000000
20
-30.216991
30
-25.784896
0
VERTEX
8
0
6
CONTINUOUS
62
252
70
192
10
0.000000
20
-29.970487
30
-26.704864
0
VERTEX
8
0
6
CONTINUOUS
62
252
70
192
10
0.000000
20
-29.567976
30
-27.568050
0
VERTEX
8
0
6
CONTINUOUS
62
252
70
192
10
0.000000
20
-29.021690
30
-28.348227
0
VERTEX
8
0
6
CONTINUOUS
62
252
70
192
10
0.000000
20
-28.348227
30
-29.021690
0
VERTEX
8
0
6
CONTINUOUS
62
252
70
192
10
0.000000
20
-27.568050
30
-29.567976
0
VERTEX
8
0
6
CONTINUOUS
62
252
70
192
10
0.000000
20
-26.704864
30
-29.970487
0
VERTEX
8
0
6
CONTINUOUS
62
252
70
192
10
0.000000
20
-25.784896
30
-30.216991
0
VERTEX
8
0
6
CONTINUOUS
62
252
70
192
10
0.000000
20
-24.836100
30
-30.300000
0
VERTEX
8
0
6
CONTINUOUS
62
252
70
128
10
0.000000
20
0.000000
30
0.000000
71
20
72
1
73
19
0
VERTEX
8
0
6
CONTINUOUS
62
252
70
128
10
0.000000
20
0.000000
30
0.000000
71
19
72
1
73
2
0
VERTEX
8
0
6
CONTINUOUS
62
252
70
128
10
0.000000
20
0.000000
30
0.000000
71
19
72
2
73
18
0
VERTEX
8
0
6
CONTINUOUS
62
252
70
128
10
0.000000
20
0.000000
30
0.000000
71
18
72
2
73
3
0
VERTEX
8
0
6
CONTINUOUS
62
252
70
128
10
0.000000
20
0.000000
30
0.000000
71
18
72
3
73
17
0
VERTEX
8
0
6
CONTINUOUS
62
252
70
128
10
0.000000
20
0.000000
30
0.000000
71
17
72
3
73
4
0
VERTEX
8
0
6
CONTINUOUS
62
252
70
128
10
0.000000
20
0.000000
30
0.000000
71
17
72
4
73
16
0
VERTEX
8
0
6
CONTINUOUS
62
252
70
128
10
0.000000
20
0.000000
30
0.000000
71
16
72
4
73
5
0
VERTEX
8
0
6
CONTINUOUS
62
252
70
128
10
0.000000
20
0.000000
30
0.000000
71
16
72
5
73
15
0
VERTEX
8
0
6
CONTINUOUS
62
252
70
128
10
0.000000
20
0.000000
30
0.000000
71
15
72
5
73
6
0
VERTEX
8
0
6
CONTINUOUS
62
252
70
128
10
0.000000
20
0.000000
30
0.000000
71
15
72
6
73
14
0
VERTEX
8
0
6
CONTINUOUS
62
252
70
128
10
0.000000
20
0.000000
30
0.000000
71
14
72
6
73
7
0
VERTEX
8
0
6
CONTINUOUS
62
252
70
128
10
0.000000
20
0.000000
30
0.000000
71
14
72
7
73
13
0
VERTEX
8
0
6
CONTINUOUS
62
252
70
128
10
0.000000
20
0.000000
30
0.000000
71
13
72
7
73
8
0
VERTEX
8
0
6
CONTINUOUS
62
252
70
128
10
0.000000
20
0.000000
30
0.000000
71
13
72
8
73
9
0
VERTEX
8
0
6
CONTINUOUS
62
252
70
128
10
0.000000
20
0.000000
30
0.000000
71
13
72
9
73
12
0
VERTEX
8
0
6
CONTINUOUS
62
252
70
128
10
0.000000
20
0.000000
30
0.000000
71
12
72
9
73
10
0
VERTEX
8
0
6
CONTINUOUS
62
252
70
128
10
0.000000
20
0.000000
30
0.000000
71
12
72
10
73
11
0
SEQEND
0
POLYLINE
66
1
8
0
6
CONTINUOUS
62
252
70
64
75
0
10
0.000000
20
0.000000
30
0.000000
0
VERTEX
8
0
6
CONTINUOUS
62
252
70
192
10
0.000000
20
6.000000
30
29.100000
0
VERTEX
8
0
6
CONTINUOUS
62
252
70
192
10
0.000000
20
6.000000
30
30.300000
0
VERTEX
8
0
6
CONTINUOUS
62
252
70
192
10
-0.000000
20
24.836100
30
30.300000
0
VERTEX
8
0
6
CONTINUOUS
62
252
70
192
10
-0.000000
20
25.784896
30
30.216991
0
VERTEX
8
0
6
CONTINUOUS
62
252
70
192
10
-0.000000
20
26.704864
30
29.970487
0
VERTEX
8
0
6
CONTINUOUS
62
252
70
192
10
-0.000000
20
27.568050
30
29.567976
0
VERTEX
8
0
6
CONTINUOUS
62
252
70
192
10
-0.000000
20
28.348227
30
29.021690
0
VERTEX
8
0
6
CONTINUOUS
62
252
70
192
10
-0.000000
20
29.021690
30
28.348227
0
VERTEX
8
0
6
CONTINUOUS
62
252
70
192
10
-0.000000
20
29.567976
30
27.568050
0
VERTEX
8
0
6
CONTINUOUS
62
252
70
192
10
-0.000000
20
29.970487
30
26.704864
0
VERTEX
8
0
6
CONTINUOUS
62
252
70
192
10
-0.000000
20
30.216991
30
25.784896
0
VERTEX
8
0
6
CONTINUOUS
62
252
70
192
10
-0.000000
20
30.300000
30
24.836100
0
VERTEX
8
0
6
CONTINUOUS
62
252
70
192
10
0.000000
20
30.300000
30
-24.836100
0
VERTEX
8
0
6
CONTINUOUS
62
252
70
192
10
0.000000
20
30.216991
30
-25.784896
0
VERTEX
8
0
6
CONTINUOUS
62
252
70
192
10
0.000000
20
29.970487
30
-26.704864
0
VERTEX
8
0
6
CONTINUOUS
62
252
70
192
10
0.000000
20
29.567976
30
-27.568050
0
VERTEX
8
0
6
CONTINUOUS
62
252
70
192
10
0.000000
20
29.021690
30
-28.348227
0
VERTEX
8
0
6
CONTINUOUS
62
252
70
192
10
0.000000
20
28.348227
30
-29.021690
0
VERTEX
8
0
6
CONTINUOUS
62
252
70
192
10
0.000000
20
27.568050
30
-29.567976
0
VERTEX
8
0
6
CONTINUOUS
62
252
70
192
10
0.000000
20
26.704864
30
-29.970487
0
VERTEX
8
0
6
CONTINUOUS
62
252
70
192
10
0.000000
20
25.784896
30
-30.216991
0
VERTEX
8
0
6
CONTINUOUS
62
252
70
192
10
0.000000
20
24.836100
30
-30.300000
0
VERTEX
8
0
6
CONTINUOUS
62
252
70
192
10
-0.000000
20
22.500000
30
-30.300000
0
VERTEX
8
0
6
CONTINUOUS
62
252
70
192
10
0.000000
20
22.500000
30
-37.800000
0
VERTEX
8
0
6
CONTINUOUS
62
252
70
192
10
-0.000000
20
-22.500000
30
-37.800000
0
VERTEX
8
0
6
CONTINUOUS
62
252
70
192
10
-0.000000
20
-22.500000
30
-30.300000
0
VERTEX
8
0
6
CONTINUOUS
62
252
70
192
10
0.000000
20
-24.836100
30
-30.300000
0
VERTEX
8
0
6
CONTINUOUS
62
252
70
192
10
0.000000
20
-25.784896
30
-30.216991
0
VERTEX
8
0
6
CONTINUOUS
62
252
70
192
10
0.000000
20
-26.704864
30
-29.970487
0
VERTEX
8
0
6
CONTINUOUS
62
252
70
192
10
0.000000
20
-27.568050
30
-29.567976
0
VERTEX
8
0
6
CONTINUOUS
62
252
70
192
10
0.000000
20
-28.348227
30
-29.021690
0
VERTEX
8
0
6
CONTINUOUS
62
252
70
192
10
0.000000
20
-29.021690
30
-28.348227
0
VERTEX
8
0
6
CONTINUOUS
62
252
70
192
10
0.000000
20
-29.567976
30
-27.568050
0
VERTEX
8
0
6
CONTINUOUS
62
252
70
192
10
0.000000
20
-29.970487
30
-26.704864
0
VERTEX
8
0
6
CONTINUOUS
62
252
70
192
10
0.000000
20
-30.216991
30
-25.784896
0
VERTEX
8
0
6
CONTINUOUS
62
252
70
192
10
0.000000
20
-30.300000
30
-24.836100
0
VERTEX
8
0
6
CONTINUOUS
62
252
70
192
10
-0.000000
20
-30.300000
30
24.836100
0
VERTEX
8
0
6
CONTINUOUS
62
252
70
192
10
-0.000000
20
-30.216991
30
25.784896
0
VERTEX
8
0
6
CONTINUOUS
62
252
70
192
10
-0.000000
20
-29.970487
30
26.704864
0
VERTEX
8
0
6
CONTINUOUS
62
252
70
192
10
-0.000000
20
-29.567976
30
27.568050
0
VERTEX
8
0
6
CONTINUOUS
62
252
70
192
10
-0.000000
20
-29.021690
30
28.348227
0
VERTEX
8
0
6
CONTINUOUS
62
252
70
192
10
-0.000000
20
-28.348227
30
29.021690
0
VERTEX
8
0
6
CONTINUOUS
62
252
70
192
10
-0.000000
20
-27.568050
30
29.567976
0
VERTEX
8
0
6
CONTINUOUS
62
252
70
192
10
-0.000000
20
-26.704864
30
29.970487
0
VERTEX
8
0
6
CONTINUOUS
62
252
70
192
10
-0.000000
20
-25.784896
30
30.216991
0
VERTEX
8
0
6
CONTINUOUS
62
252
70
192
10
-0.000000
20
-24.836100
30
30.300000
0
VERTEX
8
0
6
CONTINUOUS
62
252
70
192
10
0.000000
20
-6.000000
30
30.300000
0
VERTEX
8
0
6
CONTINUOUS
62
252
70
192
10
0.000000
20
-6.000000
30
29.100000
0
VERTEX
8
0
6
CONTINUOUS
62
252
70
192
10
-0.000000
20
-8.442748
30
29.100000
0
VERTEX
8
0
6
CONTINUOUS
62
252
70
192
10
-0.000000
20
-13.180826
30
27.282885
0
VERTEX
8
0
6
CONTINUOUS
62
252
70
192
10
-0.000000
20
-17.549197
30
24.700520
0
VERTEX
8
0
6
CONTINUOUS
62
252
70
192
10
-0.000000
20
-21.425335
30
21.425335
0
VERTEX
8
0
6
CONTINUOUS
62
252
70
192
10
-0.000000
20
-24.700520
30
17.549197
0
VERTEX
8
0
6
CONTINUOUS
62
252
70
192
10
-0.000000
20
-27.282885
30
13.180826
0
VERTEX
8
0
6
CONTINUOUS
62
252
70
192
10
-0.000000
20
-29.100000
30
8.442748
0
VERTEX
8
0
6
CONTINUOUS
62
252
70
192
10
0.000000
20
-29.100000
30
-8.442748
0
VERTEX
8
0
6
CONTINUOUS
62
252
70
192
10
0.000000
20
-27.282885
30
-13.180826
0
VERTEX
8
0
6
CONTINUOUS
62
252
70
192
10
0.000000
20
-24.700520
30
-17.549197
0
VERTEX
8
0
6
CONTINUOUS
62
252
70
192
10
0.000000
20
-21.425335
30
-21.425335
0
VERTEX
8
0
6
CONTINUOUS
62
252
70
192
10
0.000000
20
-17.549197
30
-24.700520
0
VERTEX
8
0
6
CONTINUOUS
62
252
70
192
10
0.000000
20
-13.180826
30
-27.282885
0
VERTEX
8
0
6
CONTINUOUS
62
252
70
192
10
0.000000
20
-8.442748
30
-29.100000
0
VERTEX
8
0
6
CONTINUOUS
62
252
70
192
10
0.000000
20
8.442748
30
-29.100000
0
VERTEX
8
0
6
CONTINUOUS
62
252
70
192
10
0.000000
20
13.180826
30
-27.282885
0
VERTEX
8
0
6
CONTINUOUS
62
252
70
192
10
0.000000
20
17.549197
30
-24.700520
0
VERTEX
8
0
6
CONTINUOUS
62
252
70
192
10
0.000000
20
21.425335
30
-21.425335
0
VERTEX
8
0
6
CONTINUOUS
62
252
70
192
10
0.000000
20
24.700520
30
-17.549197
0
VERTEX
8
0
6
CONTINUOUS
62
252
70
192
10
0.000000
20
27.282885
30
-13.180826
0
VERTEX
8
0
6
CONTINUOUS
62
252
70
192
10
0.000000
20
29.100000
30
-8.442748
0
VERTEX
8
0
6
CONTINUOUS
62
252
70
192
10
-0.000000
20
29.100000
30
8.442748
0
VERTEX
8
0
6
CONTINUOUS
62
252
70
192
10
-0.000000
20
27.282885
30
13.180826
0
VERTEX
8
0
6
CONTINUOUS
62
252
70
192
10
-0.000000
20
24.700520
30
17.549197
0
VERTEX
8
0
6
CONTINUOUS
62
252
70
192
10
-0.000000
20
21.425335
30
21.425335
0
VERTEX
8
0
6
CONTINUOUS
62
252
70
192
10
-0.000000
20
17.549197
30
24.700520
0
VERTEX
8
0
6
CONTINUOUS
62
252
70
192
10
-0.000000
20
13.180826
30
27.282885
0
VERTEX
8
0
6
CONTINUOUS
62
252
70
192
10
-0.000000
20
8.442748
30
29.100000
0
VERTEX
8
0
6
CONTINUOUS
62
252
70
192
10
-0.000000
20
22.415285
30
22.415285
0
VERTEX
8
0
6
CONTINUOUS
62
252
70
192
10
-0.000000
20
22.855935
30
22.045536
0
VERTEX
8
0
6
CONTINUOUS
62
252
70
192
10
-0.000000
20
23.354097
30
21.757922
0
VERTEX
8
0
6
CONTINUOUS
62
252
70
192
10
-0.000000
20
23.894634
30
21.561182
0
VERTEX
8
0
6
CONTINUOUS
62
252
70
192
10
-0.000000
20
24.461123
30
21.461295
0
VERTEX
8
0
6
CONTINUOUS
62
252
70
192
10
-0.000000
20
25.036351
30
21.461295
0
VERTEX
8
0
6
CONTINUOUS
62
252
70
192
10
-0.000000
20
25.602840
30
21.561182
0
VERTEX
8
0
6
CONTINUOUS
62
252
70
192
10
-0.000000
20
26.143378
30
21.757922
0
VERTEX
8
0
6
CONTINUOUS
62
252
70
192
10
-0.000000
20
26.641540
30
22.045536
0
VERTEX
8
0
6
CONTINUOUS
62
252
70
192
10
-0.000000
20
27.082190
30
22.415285
0
VERTEX
8
0
6
CONTINUOUS
62
252
70
192
10
-0.000000
20
27.451939
30
22.855935
0
VERTEX
8
0
6
CONTINUOUS
62
252
70
192
10
-0.000000
20
27.739553
30
23.354097
0
VERTEX
8
0
6
CONTINUOUS
62
252
70
192
10
-0.000000
20
27.936293
30
23.894634
0
VERTEX
8
0
6
CONTINUOUS
62
252
70
192
10
-0.000000
20
28.036180
30
24.461123
0
VERTEX
8
0
6
CONTINUOUS
62
252
70
192
10
-0.000000
20
28.036180
30
25.036351
0
VERTEX
8
0
6
CONTINUOUS
62
252
70
192
10
-0.000000
20
27.936293
30
25.602840
0
VERTEX
8
0
6
CONTINUOUS
62
252
70
192
10
-0.000000
20
27.739553
30
26.143378
0
VERTEX
8
0
6
CONTINUOUS
62
252
70
192
10
-0.000000
20
27.451939
30
26.641540
0
VERTEX
8
0
6
CONTINUOUS
62
252
70
192
10
-0.000000
20
27.082190
30
27.082190
0
VERTEX
8
0
6
CONTINUOUS
62
252
70
192
10
-0.000000
20
26.641540
30
27.451939
0
VERTEX
8
0
6
CONTINUOUS
62
252
70
192
10
-0.000000
20
26.143378
30
27.739553
0
VERTEX
8
0
6
CONTINUOUS
62
252
70
192
10
-0.000000
20
25.602840
30
27.936293
0
VERTEX
8
0
6
CONTINUOUS
62
252
70
192
10
-0.000000
20
25.036351
30
28.036180
0
VERTEX
8
0
6
CONTINUOUS
62
252
70
192
10
-0.000000
20
24.461123
30
28.036180
0
VERTEX
8
0
6
CONTINUOUS
62
252
70
192
10
-0.000000
20
23.894634
30
27.936293
0
VERTEX
8
0
6
CONTINUOUS
62
252
70
192
10
-0.000000
20
23.354097
30
27.739553
0
VERTEX
8
0
6
CONTINUOUS
62
252
70
192
10
-0.000000
20
22.855935
30
27.451939
0
VERTEX
8
0
6
CONTINUOUS
62
252
70
192
10
-0.000000
20
22.415285
30
27.082190
0
VERTEX
8
0
6
CONTINUOUS
62
252
70
192
10
-0.000000
20
22.045536
30
26.641540
0
VERTEX
8
0
6
CONTINUOUS
62
252
70
192
10
-0.000000
20
21.757922
30
26.143378
0
VERTEX
8
0
6
CONTINUOUS
62
252
70
192
10
-0.000000
20
21.561182
30
25.602840
0
VERTEX
8
0
6
CONTINUOUS
62
252
70
192
10
-0.000000
20
21.461295
30
25.036351
0
VERTEX
8
0
6
CONTINUOUS
62
252
70
192
10
-0.000000
20
21.461295
30
24.461123
0
VERTEX
8
0
6
CONTINUOUS
62
252
70
192
10
-0.000000
20
21.561182
30
23.894634
0
VERTEX
8
0
6
CONTINUOUS
62
252
70
192
10
-0.000000
20
21.757922
30
23.354097
0
VERTEX
8
0
6
CONTINUOUS
62
252
70
192
10
-0.000000
20
22.045536
30
22.855935
0
VERTEX
8
0
6
CONTINUOUS
62
252
70
192
10
0.000000
20
22.415285
30
-22.415285
0
VERTEX
8
0
6
CONTINUOUS
62
252
70
192
10
0.000000
20
22.045536
30
-22.855935
0
VERTEX
8
0
6
CONTINUOUS
62
252
70
192
10
0.000000
20
21.757922
30
-23.354097
0
VERTEX
8
0
6
CONTINUOUS
62
252
70
192
10
0.000000
20
21.561182
30
-23.894634
0
VERTEX
8
0
6
CONTINUOUS
62
252
70
192
10
0.000000
20
21.461295
30
-24.461123
0
VERTEX
8
0
6
CONTINUOUS
62
252
70
192
10
0.000000
20
21.461295
30
-25.036351
0
VERTEX
8
0
6
CONTINUOUS
62
252
70
192
10
0.000000
20
21.561182
30
-25.602840
0
VERTEX
8
0
6
CONTINUOUS
62
252
70
192
10
0.000000
20
21.757922
30
-26.143378
0
VERTEX
8
0
6
CONTINUOUS
62
252
70
192
10
0.000000
20
22.045536
30
-26.641540
0
VERTEX
8
0
6
CONTINUOUS
62
252
70
192
10
0.000000
20
22.415285
30
-27.082190
0
VERTEX
8
0
6
CONTINUOUS
62
252
70
192
10
0.000000
20
22.855935
30
-27.451939
0
VERTEX
8
0
6
CONTINUOUS
62
252
70
192
10
0.000000
20
23.354097
30
-27.739553
0
VERTEX
8
0
6
CONTINUOUS
62
252
70
192
10
0.000000
20
23.894634
30
-27.936293
0
VERTEX
8
0
6
CONTINUOUS
62
252
70
192
10
0.000000
20
24.461123
30
-28.036180
0
VERTEX
8
0
6
CONTINUOUS
62
252
70
192
10
0.000000
20
25.036351
30
-28.036180
0
VERTEX
8
0
6
CONTINUOUS
62
252
70
192
10
0.000000
20
25.602840
30
-27.936293
0
VERTEX
8
0
6
CONTINUOUS
62
252
70
192
10
0.000000
20
26.143378
30
-27.739553
0
VERTEX
8
0
6
CONTINUOUS
62
252
70
192
10
0.000000
20
26.641540
30
-27.451939
0
VERTEX
8
0
6
CONTINUOUS
62
252
70
192
10
0.000000
20
27.082190
30
-27.082190
0
VERTEX
8
0
6
CONTINUOUS
62
252
70
192
10
0.000000
20
27.451939
30
-26.641540
0
VERTEX
8
0
6
CONTINUOUS
62
252
70
192
10
0.000000
20
27.739553
30
-26.143378
0
VERTEX
8
0
6
CONTINUOUS
62
252
70
192
10
0.000000
20
27.936293
30
-25.602840
0
VERTEX
8
0
6
CONTINUOUS
62
252
70
192
10
0.000000
20
28.036180
30
-25.036351
0
VERTEX
8
0
6
CONTINUOUS
62
252
70
192
10
0.000000
20
28.036180
30
-24.461123
0
VERTEX
8
0
6
CONTINUOUS
62
252
70
192
10
0.000000
20
27.936293
30
-23.894634
0
VERTEX
8
0
6
CONTINUOUS
62
252
70
192
10
0.000000
20
27.739553
30
-23.354097
0
VERTEX
8
0
6
CONTINUOUS
62
252
70
192
10
0.000000
20
27.451939
30
-22.855935
0
VERTEX
8
0
6
CONTINUOUS
62
252
70
192
10
0.000000
20
27.082190
30
-22.415285
0
VERTEX
8
0
6
CONTINUOUS
62
252
70
192
10
0.000000
20
26.641540
30
-22.045536
0
VERTEX
8
0
6
CONTINUOUS
62
252
70
192
10
0.000000
20
26.143378
30
-21.757922
0
VERTEX
8
0
6
CONTINUOUS
62
252
70
192
10
0.000000
20
25.602840
30
-21.561182
0
VERTEX
8
0
6
CONTINUOUS
62
252
70
192
10
0.000000
20
25.036351
30
-21.461295
0
VERTEX
8
0
6
CONTINUOUS
62
252
70
192
10
0.000000
20
24.461123
30
-21.461295
0
VERTEX
8
0
6
CONTINUOUS
62
252
70
192
10
0.000000
20
23.894634
30
-21.561182
0
VERTEX
8
0
6
CONTINUOUS
62
252
70
192
10
0.000000
20
23.354097
30
-21.757922
0
VERTEX
8
0
6
CONTINUOUS
62
252
70
192
10
0.000000
20
22.855935
30
-22.045536
0
VERTEX
8
0
6
CONTINUOUS
62
252
70
192
10
0.000000
20
-22.415285
30
-22.415285
0
VERTEX
8
0
6
CONTINUOUS
62
252
70
192
10
0.000000
20
-22.855935
30
-22.045536
0
VERTEX
8
0
6
CONTINUOUS
62
252
70
192
10
0.000000
20
-23.354097
30
-21.757922
0
VERTEX
8
0
6
CONTINUOUS
62
252
70
192
10
0.000000
20
-23.894634
30
-21.561182
0
VERTEX
8
0
6
CONTINUOUS
62
252
70
192
10
0.000000
20
-24.461123
30
-21.461295
0
VERTEX
8
0
6
CONTINUOUS
62
252
70
192
10
0.000000
20
-25.036351
30
-21.461295
0
VERTEX
8
0
6
CONTINUOUS
62
252
70
192
10
0.000000
20
-25.602840
30
-21.561182
0
VERTEX
8
0
6
CONTINUOUS
62
252
70
192
10
0.000000
20
-26.143378
30
-21.757922
0
VERTEX
8
0
6
CONTINUOUS
62
252
70
192
10
0.000000
20
-26.641540
30
-22.045536
0
VERTEX
8
0
6
CONTINUOUS
62
252
70
192
10
0.000000
20
-27.082190
30
-22.415285
0
VERTEX
8
0
6
CONTINUOUS
62
252
70
192
10
0.000000
20
-27.451939
30
-22.855935
0
VERTEX
8
0
6
CONTINUOUS
62
252
70
192
10
0.000000
20
-27.739553
30
-23.354097
0
VERTEX
8
0
6
CONTINUOUS
62
252
70
192
10
0.000000
20
-27.936293
30
-23.894634
0
VERTEX
8
0
6
CONTINUOUS
62
252
70
192
10
0.000000
20
-28.036180
30
-24.461123
0
VERTEX
8
0
6
CONTINUOUS
62
252
70
192
10
0.000000
20
-28.036180
30
-25.036351
0
VERTEX
8
0
6
CONTINUOUS
62
252
70
192
10
0.000000
20
-27.936293
30
-25.602840
0
VERTEX
8
0
6
CONTINUOUS
62
252
70
192
10
0.000000
20
-27.739553
30
-26.143378
0
VERTEX
8
0
6
CONTINUOUS
62
252
70
192
10
0.000000
20
-27.451939
30
-26.641540
0
VERTEX
8
0
6
CONTINUOUS
62
252
70
192
10
0.000000
20
-27.082190
30
-27.082190
0
VERTEX
8
0
6
CONTINUOUS
62
252
70
192
10
0.000000
20
-26.641540
30
-27.451939
0
VERTEX
8
0
6
CONTINUOUS
62
252
70
192
10
0.000000
20
-26.143378
30
-27.739553
0
VERTEX
8
0
6
CONTINUOUS
62
252
70
192
10
0.000000
20
-25.602840
30
-27.936293
0
VERTEX
8
0
6
CONTINUOUS
62
252
70
192
10
0.000000
20
-25.036351
30
-28.036180
0
VERTEX
8
0
6
CONTINUOUS
62
252
70
192
10
0.000000
20
-24.461123
30
-28.036180
0
VERTEX
8
0
6
CONTINUOUS
62
252
70
192
10
0.000000
20
-23.894634
30
-27.936293
0
VERTEX
8
0
6
CONTINUOUS
62
252
70
192
10
0.000000
20
-23.354097
30
-27.739553
0
VERTEX
8
0
6
CONTINUOUS
62
252
70
192
10
0.000000
20
-22.855935
30
-27.451939
0
VERTEX
8
0
6
CONTINUOUS
62
252
70
192
10
0.000000
20
-22.415285
30
-27.082190
0
VERTEX
8
0
6
CONTINUOUS
62
252
70
192
10
0.000000
20
-22.045536
30
-26.641540
0
VERTEX
8
0
6
CONTINUOUS
62
252
70
192
10
0.000000
20
-21.757922
30
-26.143378
0
VERTEX
8
0
6
CONTINUOUS
62
252
70
192
10
0.000000
20
-21.561182
30
-25.602840
0
VERTEX
8
0
6
CONTINUOUS
62
252
70
192
10
0.000000
20
-21.461295
30
-25.036351
0
VERTEX
8
0
6
CONTINUOUS
62
252
70
192
10
0.000000
20
-21.461295
30
-24.461123
0
VERTEX
8
0
6
CONTINUOUS
62
252
70
192
10
0.000000
20
-21.561182
30
-23.894634
0
VERTEX
8
0
6
CONTINUOUS
62
252
70
192
10
0.000000
20
-21.757922
30
-23.354097
0
VERTEX
8
0
6
CONTINUOUS
62
252
70
192
10
0.000000
20
-22.045536
30
-22.855935
0
VERTEX
8
0
6
CONTINUOUS
62
252
70
192
10
-0.000000
20
-22.415285
30
22.415285
0
VERTEX
8
0
6
CONTINUOUS
62
252
70
192
10
-0.000000
20
-22.045536
30
22.855935
0
VERTEX
8
0
6
CONTINUOUS
62
252
70
192
10
-0.000000
20
-21.757922
30
23.354097
0
VERTEX
8
0
6
CONTINUOUS
62
252
70
192
10
-0.000000
20
-21.561182
30
23.894634
0
VERTEX
8
0
6
CONTINUOUS
62
252
70
192
10
-0.000000
20
-21.461295
30
24.461123
0
VERTEX
8
0
6
CONTINUOUS
62
252
70
192
10
-0.000000
20
-21.461295
30
25.036351
0
VERTEX
8
0
6
CONTINUOUS
62
252
70
192
10
-0.000000
20
-21.561182
30
25.602840
0
VERTEX
8
0
6
CONTINUOUS
62
252
70
192
10
-0.000000
20
-21.757922
30
26.143378
0
VERTEX
8
0
6
CONTINUOUS
62
252
70
192
10
-0.000000
20
-22.045536
30
26.641540
0
VERTEX
8
0
6
CONTINUOUS
62
252
70
192
10
-0.000000
20
-22.415285
30
27.082190
0
VERTEX
8
0
6
CONTINUOUS
62
252
70
192
10
-0.000000
20
-22.855935
30
27.451939
0
VERTEX
8
0
6
CONTINUOUS
62
252
70
192
10
-0.000000
20
-23.354097
30
27.739553
0
VERTEX
8
0
6
CONTINUOUS
62
252
70
192
10
-0.000000
20
-23.894634
30
27.936293
0
VERTEX
8
0
6
CONTINUOUS
62
252
70
192
10
-0.000000
20
-24.461123
30
28.036180
0
VERTEX
8
0
6
CONTINUOUS
62
252
70
192
10
-0.000000
20
-25.036351
30
28.036180
0
VERTEX
8
0
6
CONTINUOUS
62
252
70
192
10
-0.000000
20
-25.602840
30
27.936293
0
VERTEX
8
0
6
CONTINUOUS
62
252
70
192
10
-0.000000
20
-26.143378
30
27.739553
0
VERTEX
8
0
6
CONTINUOUS
62
252
70
192
10
-0.000000
20
-26.641540
30
27.451939
0
VERTEX
8
0
6
CONTINUOUS
62
252
70
192
10
-0.000000
20
-27.082190
30
27.082190
0
VERTEX
8
0
6
CONTINUOUS
62
252
70
192
10
-0.000000
20
-27.451939
30
26.641540
0
VERTEX
8
0
6
CONTINUOUS
62
252
70
192
10
-0.000000
20
-27.739553
30
26.143378
0
VERTEX
8
0
6
CONTINUOUS
62
252
70
192
10
-0.000000
20
-27.936293
30
25.602840
0
VERTEX
8
0
6
CONTINUOUS
62
252
70
192
10
-0.000000
20
-28.036180
30
25.036351
0
VERTEX
8
0
6
CONTINUOUS
62
252
70
192
10
-0.000000
20
-28.036180
30
24.461123
0
VERTEX
8
0
6
CONTINUOUS
62
252
70
192
10
-0.000000
20
-27.936293
30
23.894634
0
VERTEX
8
0
6
CONTINUOUS
62
252
70
192
10
-0.000000
20
-27.739553
30
23.354097
0
VERTEX
8
0
6
CONTINUOUS
62
252
70
192
10
-0.000000
20
-27.451939
30
22.855935
0
VERTEX
8
0
6
CONTINUOUS
62
252
70
192
10
-0.000000
20
-27.082190
30
22.415285
0
VERTEX
8
0
6
CONTINUOUS
62
252
70
192
10
-0.000000
20
-26.641540
30
22.045536
0
VERTEX
8
0
6
CONTINUOUS
62
252
70
192
10
-0.000000
20
-26.143378
30
21.757922
0
VERTEX
8
0
6
CONTINUOUS
62
252
70
192
10
-0.000000
20
-25.602840
30
21.561182
0
VERTEX
8
0
6
CONTINUOUS
62
252
70
192
10
-0.000000
20
-25.036351
30
21.461295
0
VERTEX
8
0
6
CONTINUOUS
62
252
70
192
10
-0.000000
20
-24.461123
30
21.461295
0
VERTEX
8
0
6
CONTINUOUS
62
252
70
192
10
-0.000000
20
-23.894634
30
21.561182
0
VERTEX
8
0
6
CONTINUOUS
62
252
70
192
10
-0.000000
20
-23.354097
30
21.757922
0
VERTEX
8
0
6
CONTINUOUS
62
252
70
192
10
-0.000000
20
-22.855935
30
22.045536
0
VERTEX
8
0
6
CONTINUOUS
62
252
70
128
10
0.000000
20
0.000000
30
0.000000
71
1
72
2
73
76
0
VERTEX
8
0
6
CONTINUOUS
62
252
70
128
10
0.000000
20
0.000000
30
0.000000
71
76
72
2
73
3
0
VERTEX
8
0
6
CONTINUOUS
62
252
70
128
10
0.000000
20
0.000000
30
0.000000
71
76
72
3
73
75
0
VERTEX
8
0
6
CONTINUOUS
62
252
70
128
10
0.000000
20
0.000000
30
0.000000
71
75
72
3
73
104
0
VERTEX
8
0
6
CONTINUOUS
62
252
70
128
10
0.000000
20
0.000000
30
0.000000
71
75
72
104
73
105
0
VERTEX
8
0
6
CONTINUOUS
62
252
70
128
10
0.000000
20
0.000000
30
0.000000
71
4
72
99
73
3
0
VERTEX
8
0
6
CONTINUOUS
62
252
70
128
10
0.000000
20
0.000000
30
0.000000
71
3
72
99
73
100
0
VERTEX
8
0
6
CONTINUOUS
62
252
70
128
10
0.000000
20
0.000000
30
0.000000
71
3
72
100
73
101
0
VERTEX
8
0
6
CONTINUOUS
62
252
70
128
10
0.000000
20
0.000000
30
0.000000
71
99
72
4
73
98
0
VERTEX
8
0
6
CONTINUOUS
62
252
70
128
10
0.000000
20
0.000000
30
0.000000
71
98
72
4
73
5
0
VERTEX
8
0
6
CONTINUOUS
62
252
70
128
10
0.000000
20
0.000000
30
0.000000
71
98
72
5
73
97
0
VERTEX
8
0
6
CONTINUOUS
62
252
70
128
10
0.000000
20
0.000000
30
0.000000
71
97
72
5
73
6
0
VERTEX
8
0
6
CONTINUOUS
62
252
70
128
10
0.000000
20
0.000000
30
0.000000
71
97
72
6
73
96
0
VERTEX
8
0
6
CONTINUOUS
62
252
70
128
10
0.000000
20
0.000000
30
0.000000
71
96
72
6
73
7
0
VERTEX
8
0
6
CONTINUOUS
62
252
70
128
10
0.000000
20
0.000000
30
0.000000
71
96
72
7
73
95
0
VERTEX
8
0
6
CONTINUOUS
62
252
70
128
10
0.000000
20
0.000000
30
0.000000
71
95
72
7
73
8
0
VERTEX
8
0
6
CONTINUOUS
62
252
70
128
10
0.000000
20
0.000000
30
0.000000
71
95
72
8
73
94
0
VERTEX
8
0
6
CONTINUOUS
62
252
70
128
10
0.000000
20
0.000000
30
0.000000
71
94
72
8
73
9
0
VERTEX
8
0
6
CONTINUOUS
62
252
70
128
10
0.000000
20
0.000000
30
0.000000
71
94
72
9
73
93
0
VERTEX
8
0
6
CONTINUOUS
62
252
70
128
10
0.000000
20
0.000000
30
0.000000
71
93
72
9
73
10
0
VERTEX
8
0
6
CONTINUOUS
62
252
70
128
10
0.000000
20
0.000000
30
0.000000
71
93
72
10
73
92
0
VERTEX
8
0
6
CONTINUOUS
62
252
70
128
10
0.000000
20
0.000000
30
0.000000
71
92
72
10
73
11
0
VERTEX
8
0
6
CONTINUOUS
62
252
70
128
10
0.000000
20
0.000000
30
0.000000
71
92
72
11
73
91
0
VERTEX
8
0
6
CONTINUOUS
62
252
70
128
10
0.000000
20
0.000000
30
0.000000
71
91
72
11
73
12
0
VERTEX
8
0
6
CONTINUOUS
62
252
70
128
10
0.000000
20
0.000000
30
0.000000
71
91
72
12
73
90
0
VERTEX
8
0
6
CONTINUOUS
62
252
70
128
10
0.000000
20
0.000000
30
0.000000
71
90
72
12
73
89
0
VERTEX
8
0
6
CONTINUOUS
62
252
70
128
10
0.000000
20
0.000000
30
0.000000
71
89
72
12
73
88
0
VERTEX
8
0
6
CONTINUOUS
62
252
70
128
10
0.000000
20
0.000000
30
0.000000
71
88
72
12
73
87
0
VERTEX
8
0
6
CONTINUOUS
62
252
70
128
10
0.000000
20
0.000000
30
0.000000
71
87
72
12
73
71
0
VERTEX
8
0
6
CONTINUOUS
62
252
70
128
10
0.000000
20
0.000000
30
0.000000
71
87
72
71
73
86
0
VERTEX
8
0
6
CONTINUOUS
62
252
70
128
10
0.000000
20
0.000000
30
0.000000
71
86
72
71
73
85
0
VERTEX
8
0
6
CONTINUOUS
62
252
70
128
10
0.000000
20
0.000000
30
0.000000
71
85
72
71
73
72
0
VERTEX
8
0
6
CONTINUOUS
62
252
70
128
10
0.000000
20
0.000000
30
0.000000
71
85
72
72
73
84
0
VERTEX
8
0
6
CONTINUOUS
62
252
70
128
10
0.000000
20
0.000000
30
0.000000
71
84
72
72
73
83
0
VERTEX
8
0
6
CONTINUOUS
62
252
70
128
10
0.000000
20
0.000000
30
0.000000
71
83
72
72
73
82
0
VERTEX
8
0
6
CONTINUOUS
62
252
70
128
10
0.000000
20
0.000000
30
0.000000
71
82
72
72
73
81
0
VERTEX
8
0
6
CONTINUOUS
62
252
70
128
10
0.000000
20
0.000000
30
0.000000
71
81
72
72
73
80
0
VERTEX
8
0
6
CONTINUOUS
62
252
70
128
10
0.000000
20
0.000000
30
0.000000
71
80
72
72
73
79
0
VERTEX
8
0
6
CONTINUOUS
62
252
70
128
10
0.000000
20
0.000000
30
0.000000
71
79
72
72
73
73
0
VERTEX
8
0
6
CONTINUOUS
62
252
70
128
10
0.000000
20
0.000000
30
0.000000
71
79
72
73
73
78
0
VERTEX
8
0
6
CONTINUOUS
62
252
70
128
10
0.000000
20
0.000000
30
0.000000
71
78
72
73
73
77
0
VERTEX
8
0
6
CONTINUOUS
62
252
70
128
10
0.000000
20
0.000000
30
0.000000
71
77
72
73
73
112
0
VERTEX
8
0
6
CONTINUOUS
62
252
70
128
10
0.000000
20
0.000000
30
0.000000
71
112
72
73
73
111
0
VERTEX
8
0
6
CONTINUOUS
62
252
70
128
10
0.000000
20
0.000000
30
0.000000
71
111
72
73
73
110
0
VERTEX
8
0
6
CONTINUOUS
62
252
70
128
10
0.000000
20
0.000000
30
0.000000
71
110
72
73
73
74
0
VERTEX
8
0
6
CONTINUOUS
62
252
70
128
10
0.000000
20
0.000000
30
0.000000
71
110
72
74
73
109
0
VERTEX
8
0
6
CONTINUOUS
62
252
70
128
10
0.000000
20
0.000000
30
0.000000
71
109
72
74
73
108
0
VERTEX
8
0
6
CONTINUOUS
62
252
70
128
10
0.000000
20
0.000000
30
0.000000
71
108
72
74
73
107
0
VERTEX
8
0
6
CONTINUOUS
62
252
70
128
10
0.000000
20
0.000000
30
0.000000
71
107
72
74
73
106
0
VERTEX
8
0
6
CONTINUOUS
62
252
70
128
10
0.000000
20
0.000000
30
0.000000
71
106
72
74
73
105
0
VERTEX
8
0
6
CONTINUOUS
62
252
70
128
10
0.000000
20
0.000000
30
0.000000
71
105
72
74
73
75
0
VERTEX
8
0
6
CONTINUOUS
62
252
70
128
10
0.000000
20
0.000000
30
0.000000
71
71
72
12
73
70
0
VERTEX
8
0
6
CONTINUOUS
62
252
70
128
10
0.000000
20
0.000000
30
0.000000
71
70
72
12
73
13
0
VERTEX
8
0
6
CONTINUOUS
62
252
70
128
10
0.000000
20
0.000000
30
0.000000
71
70
72
13
73
69
0
VERTEX
8
0
6
CONTINUOUS
62
252
70
128
10
0.000000
20
0.000000
30
0.000000
71
69
72
13
73
68
0
VERTEX
8
0
6
CONTINUOUS
62
252
70
128
10
0.000000
20
0.000000
30
0.000000
71
68
72
13
73
139
0
VERTEX
8
0
6
CONTINUOUS
62
252
70
128
10
0.000000
20
0.000000
30
0.000000
71
68
72
139
73
140
0
VERTEX
8
0
6
CONTINUOUS
62
252
70
128
10
0.000000
20
0.000000
30
0.000000
71
14
72
135
73
13
0
VERTEX
8
0
6
CONTINUOUS
62
252
70
128
10
0.000000
20
0.000000
30
0.000000
71
13
72
135
73
136
0
VERTEX
8
0
6
CONTINUOUS
62
252
70
128
10
0.000000
20
0.000000
30
0.000000
71
13
72
136
73
137
0
VERTEX
8
0
6
CONTINUOUS
62
252
70
128
10
0.000000
20
0.000000
30
0.000000
71
135
72
14
73
134
0
VERTEX
8
0
6
CONTINUOUS
62
252
70
128
10
0.000000
20
0.000000
30
0.000000
71
134
72
14
73
15
0
VERTEX
8
0
6
CONTINUOUS
62
252
70
128
10
0.000000
20
0.000000
30
0.000000
71
134
72
15
73
133
0
VERTEX
8
0
6
CONTINUOUS
62
252
70
128
10
0.000000
20
0.000000
30
0.000000
71
133
72
15
73
16
0
VERTEX
8
0
6
CONTINUOUS
62
252
70
128
10
0.000000
20
0.000000
30
0.000000
71
133
72
16
73
132
0
VERTEX
8
0
6
CONTINUOUS
62
252
70
128
10
0.000000
20
0.000000
30
0.000000
71
132
72
16
73
17
0
VERTEX
8
0
6
CONTINUOUS
62
252
70
128
10
0.000000
20
0.000000
30
0.000000
71
132
72
17
73
131
0
VERTEX
8
0
6
CONTINUOUS
62
252
70
128
10
0.000000
20
0.000000
30
0.000000
71
131
72
17
73
18
0
VERTEX
8
0
6
CONTINUOUS
62
252
70
128
10
0.000000
20
0.000000
30
0.000000
71
131
72
18
73
130
0
VERTEX
8
0
6
CONTINUOUS
62
252
70
128
10
0.000000
20
0.000000
30
0.000000
71
130
72
18
73
19
0
VERTEX
8
0
6
CONTINUOUS
62
252
70
128
10
0.000000
20
0.000000
30
0.000000
71
130
72
19
73
129
0
VERTEX
8
0
6
CONTINUOUS
62
252
70
128
10
0.000000
20
0.000000
30
0.000000
71
129
72
19
73
20
0
VERTEX
8
0
6
CONTINUOUS
62
252
70
128
10
0.000000
20
0.000000
30
0.000000
71
129
72
20
73
128
0
VERTEX
8
0
6
CONTINUOUS
62
252
70
128
10
0.000000
20
0.000000
30
0.000000
71
128
72
20
73
21
0
VERTEX
8
0
6
CONTINUOUS
62
252
70
128
10
0.000000
20
0.000000
30
0.000000
71
128
72
21
73
127
0
VERTEX
8
0
6
CONTINUOUS
62
252
70
128
10
0.000000
20
0.000000
30
0.000000
71
127
72
21
73
22
0
VERTEX
8
0
6
CONTINUOUS
62
252
70
128
10
0.000000
20
0.000000
30
0.000000
71
127
72
22
73
126
0
VERTEX
8
0
6
CONTINUOUS
62
252
70
128
10
0.000000
20
0.000000
30
0.000000
71
126
72
22
73
125
0
VERTEX
8
0
6
CONTINUOUS
62
252
70
128
10
0.000000
20
0.000000
30
0.000000
71
125
72
22
73
23
0
VERTEX
8
0
6
CONTINUOUS
62
252
70
128
10
0.000000
20
0.000000
30
0.000000
71
125
72
23
73
124
0
VERTEX
8
0
6
CONTINUOUS
62
252
70
128
10
0.000000
20
0.000000
30
0.000000
71
124
72
23
73
123
0
VERTEX
8
0
6
CONTINUOUS
62
252
70
128
10
0.000000
20
0.000000
30
0.000000
71
123
72
23
73
122
0
VERTEX
8
0
6
CONTINUOUS
62
252
70
128
10
0.000000
20
0.000000
30
0.000000
71
122
72
23
73
121
0
VERTEX
8
0
6
CONTINUOUS
62
252
70
128
10
0.000000
20
0.000000
30
0.000000
71
121
72
23
73
65
0
VERTEX
8
0
6
CONTINUOUS
62
252
70
128
10
0.000000
20
0.000000
30
0.000000
71
121
72
65
73
120
0
VERTEX
8
0
6
CONTINUOUS
62
252
70
128
10
0.000000
20
0.000000
30
0.000000
71
120
72
65
73
119
0
VERTEX
8
0
6
CONTINUOUS
62
252
70
128
10
0.000000
20
0.000000
30
0.000000
71
119
72
65
73
118
0
VERTEX
8
0
6
CONTINUOUS
62
252
70
128
10
0.000000
20
0.000000
30
0.000000
71
118
72
65
73
117
0
VERTEX
8
0
6
CONTINUOUS
62
252
70
128
10
0.000000
20
0.000000
30
0.000000
71
117
72
65
73
116
0
VERTEX
8
0
6
CONTINUOUS
62
252
70
128
10
0.000000
20
0.000000
30
0.000000
71
116
72
65
73
66
0
VERTEX
8
0
6
CONTINUOUS
62
252
70
128
10
0.000000
20
0.000000
30
0.000000
71
116
72
66
73
115
0
VERTEX
8
0
6
CONTINUOUS
62
252
70
128
10
0.000000
20
0.000000
30
0.000000
71
115
72
66
73
114
0
VERTEX
8
0
6
CONTINUOUS
62
252
70
128
10
0.000000
20
0.000000
30
0.000000
71
114
72
66
73
113
0
VERTEX
8
0
6
CONTINUOUS
62
252
70
128
10
0.000000
20
0.000000
30
0.000000
71
113
72
66
73
148
0
VERTEX
8
0
6
CONTINUOUS
62
252
70
128
10
0.000000
20
0.000000
30
0.000000
71
148
72
66
73
147
0
VERTEX
8
0
6
CONTINUOUS
62
252
70
128
10
0.000000
20
0.000000
30
0.000000
71
147
72
66
73
67
0
VERTEX
8
0
6
CONTINUOUS
62
252
70
128
10
0.000000
20
0.000000
30
0.000000
71
147
72
67
73
146
0
VERTEX
8
0
6
CONTINUOUS
62
252
70
128
10
0.000000
20
0.000000
30
0.000000
71
146
72
67
73
145
0
VERTEX
8
0
6
CONTINUOUS
62
252
70
128
10
0.000000
20
0.000000
30
0.000000
71
145
72
67
73
144
0
VERTEX
8
0
6
CONTINUOUS
62
252
70
128
10
0.000000
20
0.000000
30
0.000000
71
144
72
67
73
143
0
VERTEX
8
0
6
CONTINUOUS
62
252
70
128
10
0.000000
20
0.000000
30
0.000000
71
143
72
67
73
142
0
VERTEX
8
0
6
CONTINUOUS
62
252
70
128
10
0.000000
20
0.000000
30
0.000000
71
142
72
67
73
141
0
VERTEX
8
0
6
CONTINUOUS
62
252
70
128
10
0.000000
20
0.000000
30
0.000000
71
141
72
67
73
68
0
VERTEX
8
0
6
CONTINUOUS
62
252
70
128
10
0.000000
20
0.000000
30
0.000000
71
141
72
68
73
140
0
VERTEX
8
0
6
CONTINUOUS
62
252
70
128
10
0.000000
20
0.000000
30
0.000000
71
65
72
23
73
64
0
VERTEX
8
0
6
CONTINUOUS
62
252
70
128
10
0.000000
20
0.000000
30
0.000000
71
64
72
23
73
24
0
VERTEX
8
0
6
CONTINUOUS
62
252
70
128
10
0.000000
20
0.000000
30
0.000000
71
64
72
24
73
63
0
VERTEX
8
0
6
CONTINUOUS
62
252
70
128
10
0.000000
20
0.000000
30
0.000000
71
63
72
24
73
25
0
VERTEX
8
0
6
CONTINUOUS
62
252
70
128
10
0.000000
20
0.000000
30
0.000000
71
63
72
25
73
62
0
VERTEX
8
0
6
CONTINUOUS
62
252
70
128
10
0.000000
20
0.000000
30
0.000000
71
62
72
25
73
61
0
VERTEX
8
0
6
CONTINUOUS
62
252
70
128
10
0.000000
20
0.000000
30
0.000000
71
61
72
25
73
26
0
VERTEX
8
0
6
CONTINUOUS
62
252
70
128
10
0.000000
20
0.000000
30
0.000000
71
61
72
26
73
60
0
VERTEX
8
0
6
CONTINUOUS
62
252
70
128
10
0.000000
20
0.000000
30
0.000000
71
60
72
26
73
177
0
VERTEX
8
0
6
CONTINUOUS
62
252
70
128
10
0.000000
20
0.000000
30
0.000000
71
60
72
177
73
178
0
VERTEX
8
0
6
CONTINUOUS
62
252
70
128
10
0.000000
20
0.000000
30
0.000000
71
27
72
173
73
26
0
VERTEX
8
0
6
CONTINUOUS
62
252
70
128
10
0.000000
20
0.000000
30
0.000000
71
26
72
173
73
174
0
VERTEX
8
0
6
CONTINUOUS
62
252
70
128
10
0.000000
20
0.000000
30
0.000000
71
26
72
174
73
175
0
VERTEX
8
0
6
CONTINUOUS
62
252
70
128
10
0.000000
20
0.000000
30
0.000000
71
28
72
171
73
27
0
VERTEX
8
0
6
CONTINUOUS
62
252
70
128
10
0.000000
20
0.000000
30
0.000000
71
27
72
171
73
172
0
VERTEX
8
0
6
CONTINUOUS
62
252
70
128
10
0.000000
20
0.000000
30
0.000000
71
27
72
172
73
173
0
VERTEX
8
0
6
CONTINUOUS
62
252
70
128
10
0.000000
20
0.000000
30
0.000000
71
171
72
28
73
170
0
VERTEX
8
0
6
CONTINUOUS
62
252
70
128
10
0.000000
20
0.000000
30
0.000000
71
170
72
28
73
29
0
VERTEX
8
0
6
CONTINUOUS
62
252
70
128
10
0.000000
20
0.000000
30
0.000000
71
170
72
29
73
169
0
VERTEX
8
0
6
CONTINUOUS
62
252
70
128
10
0.000000
20
0.000000
30
0.000000
71
169
72
29
73
30
0
VERTEX
8
0
6
CONTINUOUS
62
252
70
128
10
0.000000
20
0.000000
30
0.000000
71
169
72
30
73
168
0
VERTEX
8
0
6
CONTINUOUS
62
252
70
128
10
0.000000
20
0.000000
30
0.000000
71
168
72
30
73
31
0
VERTEX
8
0
6
CONTINUOUS
62
252
70
128
10
0.000000
20
0.000000
30
0.000000
71
168
72
31
73
167
0
VERTEX
8
0
6
CONTINUOUS
62
252
70
128
10
0.000000
20
0.000000
30
0.000000
71
167
72
31
73
32
0
VERTEX
8
0
6
CONTINUOUS
62
252
70
128
10
0.000000
20
0.000000
30
0.000000
71
167
72
32
73
166
0
VERTEX
8
0
6
CONTINUOUS
62
252
70
128
10
0.000000
20
0.000000
30
0.000000
71
166
72
32
73
33
0
VERTEX
8
0
6
CONTINUOUS
62
252
70
128
10
0.000000
20
0.000000
30
0.000000
71
166
72
33
73
165
0
VERTEX
8
0
6
CONTINUOUS
62
252
70
128
10
0.000000
20
0.000000
30
0.000000
71
165
72
33
73
34
0
VERTEX
8
0
6
CONTINUOUS
62
252
70
128
10
0.000000
20
0.000000
30
0.000000
71
165
72
34
73
164
0
VERTEX
8
0
6
CONTINUOUS
62
252
70
128
10
0.000000
20
0.000000
30
0.000000
71
164
72
34
73
35
0
VERTEX
8
0
6
CONTINUOUS
62
252
70
128
10
0.000000
20
0.000000
30
0.000000
71
164
72
35
73
163
0
VERTEX
8
0
6
CONTINUOUS
62
252
70
128
10
0.000000
20
0.000000
30
0.000000
71
163
72
35
73
36
0
VERTEX
8
0
6
CONTINUOUS
62
252
70
128
10
0.000000
20
0.000000
30
0.000000
71
163
72
36
73
162
0
VERTEX
8
0
6
CONTINUOUS
62
252
70
128
10
0.000000
20
0.000000
30
0.000000
71
162
72
36
73
161
0
VERTEX
8
0
6
CONTINUOUS
62
252
70
128
10
0.000000
20
0.000000
30
0.000000
71
161
72
36
73
160
0
VERTEX
8
0
6
CONTINUOUS
62
252
70
128
10
0.000000
20
0.000000
30
0.000000
71
160
72
36
73
159
0
VERTEX
8
0
6
CONTINUOUS
62
252
70
128
10
0.000000
20
0.000000
30
0.000000
71
159
72
36
73
57
0
VERTEX
8
0
6
CONTINUOUS
62
252
70
128
10
0.000000
20
0.000000
30
0.000000
71
159
72
57
73
158
0
VERTEX
8
0
6
CONTINUOUS
62
252
70
128
10
0.000000
20
0.000000
30
0.000000
71
158
72
57
73
157
0
VERTEX
8
0
6
CONTINUOUS
62
252
70
128
10
0.000000
20
0.000000
30
0.000000
71
157
72
57
73
58
0
VERTEX
8
0
6
CONTINUOUS
62
252
70
128
10
0.000000
20
0.000000
30
0.000000
71
157
72
58
73
156
0
VERTEX
8
0
6
CONTINUOUS
62
252
70
128
10
0.000000
20
0.000000
30
0.000000
71
156
72
58
73
155
0
VERTEX
8
0
6
CONTINUOUS
62
252
70
128
10
0.000000
20
0.000000
30
0.000000
71
155
72
58
73
154
0
VERTEX
8
0
6
CONTINUOUS
62
252
70
128
10
0.000000
20
0.000000
30
0.000000
71
154
72
58
73
153
0
VERTEX
8
0
6
CONTINUOUS
62
252
70
128
10
0.000000
20
0.000000
30
0.000000
71
153
72
58
73
152
0
VERTEX
8
0
6
CONTINUOUS
62
252
70
128
10
0.000000
20
0.000000
30
0.000000
71
152
72
58
73
151
0
VERTEX
8
0
6
CONTINUOUS
62
252
70
128
10
0.000000
20
0.000000
30
0.000000
71
151
72
58
73
59
0
VERTEX
8
0
6
CONTINUOUS
62
252
70
128
10
0.000000
20
0.000000
30
0.000000
71
151
72
59
73
150
0
VERTEX
8
0
6
CONTINUOUS
62
252
70
128
10
0.000000
20
0.000000
30
0.000000
71
150
72
59
73
149
0
VERTEX
8
0
6
CONTINUOUS
62
252
70
128
10
0.000000
20
0.000000
30
0.000000
71
149
72
59
73
184
0
VERTEX
8
0
6
CONTINUOUS
62
252
70
128
10
0.000000
20
0.000000
30
0.000000
71
184
72
59
73
183
0
VERTEX
8
0
6
CONTINUOUS
62
252
70
128
10
0.000000
20
0.000000
30
0.000000
71
183
72
59
73
182
0
VERTEX
8
0
6
CONTINUOUS
62
252
70
128
10
0.000000
20
0.000000
30
0.000000
71
182
72
59
73
60
0
VERTEX
8
0
6
CONTINUOUS
62
252
70
128
10
0.000000
20
0.000000
30
0.000000
71
182
72
60
73
181
0
VERTEX
8
0
6
CONTINUOUS
62
252
70
128
10
0.000000
20
0.000000
30
0.000000
71
181
72
60
73
180
0
VERTEX
8
0
6
CONTINUOUS
62
252
70
128
10
0.000000
20
0.000000
30
0.000000
71
180
72
60
73
179
0
VERTEX
8
0
6
CONTINUOUS
62
252
70
128
10
0.000000
20
0.000000
30
0.000000
71
179
72
60
73
178
0
VERTEX
8
0
6
CONTINUOUS
62
252
70
128
10
0.000000
20
0.000000
30
0.000000
71
57
72
36
73
56
0
VERTEX
8
0
6
CONTINUOUS
62
252
70
128
10
0.000000
20
0.000000
30
0.000000
71
56
72
36
73
37
0
VERTEX
8
0
6
CONTINUOUS
62
252
70
128
10
0.000000
20
0.000000
30
0.000000
71
56
72
37
73
55
0
VERTEX
8
0
6
CONTINUOUS
62
252
70
128
10
0.000000
20
0.000000
30
0.000000
71
55
72
37
73
54
0
VERTEX
8
0
6
CONTINUOUS
62
252
70
128
10
0.000000
20
0.000000
30
0.000000
71
54
72
37
73
211
0
VERTEX
8
0
6
CONTINUOUS
62
252
70
128
10
0.000000
20
0.000000
30
0.000000
71
54
72
211
73
212
0
VERTEX
8
0
6
CONTINUOUS
62
252
70
128
10
0.000000
20
0.000000
30
0.000000
71
38
72
207
73
37
0
VERTEX
8
0
6
CONTINUOUS
62
252
70
128
10
0.000000
20
0.000000
30
0.000000
71
37
72
207
73
208
0
VERTEX
8
0
6
CONTINUOUS
62
252
70
128
10
0.000000
20
0.000000
30
0.000000
71
37
72
208
73
209
0
VERTEX
8
0
6
CONTINUOUS
62
252
70
128
10
0.000000
20
0.000000
30
0.000000
71
207
72
38
73
206
0
VERTEX
8
0
6
CONTINUOUS
62
252
70
128
10
0.000000
20
0.000000
30
0.000000
71
206
72
38
73
39
0
VERTEX
8
0
6
CONTINUOUS
62
252
70
128
10
0.000000
20
0.000000
30
0.000000
71
206
72
39
73
205
0
VERTEX
8
0
6
CONTINUOUS
62
252
70
128
10
0.000000
20
0.000000
30
0.000000
71
205
72
39
73
40
0
VERTEX
8
0
6
CONTINUOUS
62
252
70
128
10
0.000000
20
0.000000
30
0.000000
71
205
72
40
73
204
0
VERTEX
8
0
6
CONTINUOUS
62
252
70
128
10
0.000000
20
0.000000
30
0.000000
71
204
72
40
73
41
0
VERTEX
8
0
6
CONTINUOUS
62
252
70
128
10
0.000000
20
0.000000
30
0.000000
71
204
72
41
73
203
0
VERTEX
8
0
6
CONTINUOUS
62
252
70
128
10
0.000000
20
0.000000
30
0.000000
71
203
72
41
73
42
0
VERTEX
8
0
6
CONTINUOUS
62
252
70
128
10
0.000000
20
0.000000
30
0.000000
71
203
72
42
73
202
0
VERTEX
8
0
6
CONTINUOUS
62
252
70
128
10
0.000000
20
0.000000
30
0.000000
71
202
72
42
73
43
0
VERTEX
8
0
6
CONTINUOUS
62
252
70
128
10
0.000000
20
0.000000
30
0.000000
71
202
72
43
73
201
0
VERTEX
8
0
6
CONTINUOUS
62
252
70
128
10
0.000000
20
0.000000
30
0.000000
71
201
72
43
73
44
0
VERTEX
8
0
6
CONTINUOUS
62
252
70
128
10
0.000000
20
0.000000
30
0.000000
71
201
72
44
73
200
0
VERTEX
8
0
6
CONTINUOUS
62
252
70
128
10
0.000000
20
0.000000
30
0.000000
71
200
72
44
73
45
0
VERTEX
8
0
6
CONTINUOUS
62
252
70
128
10
0.000000
20
0.000000
30
0.000000
71
200
72
45
73
199
0
VERTEX
8
0
6
CONTINUOUS
62
252
70
128
10
0.000000
20
0.000000
30
0.000000
71
199
72
45
73
46
0
VERTEX
8
0
6
CONTINUOUS
62
252
70
128
10
0.000000
20
0.000000
30
0.000000
71
199
72
46
73
198
0
VERTEX
8
0
6
CONTINUOUS
62
252
70
128
10
0.000000
20
0.000000
30
0.000000
71
198
72
46
73
197
0
VERTEX
8
0
6
CONTINUOUS
62
252
70
128
10
0.000000
20
0.000000
30
0.000000
71
197
72
46
73
196
0
VERTEX
8
0
6
CONTINUOUS
62
252
70
128
10
0.000000
20
0.000000
30
0.000000
71
196
72
46
73
195
0
VERTEX
8
0
6
CONTINUOUS
62
252
70
128
10
0.000000
20
0.000000
30
0.000000
71
195
72
46
73
194
0
VERTEX
8
0
6
CONTINUOUS
62
252
70
128
10
0.000000
20
0.000000
30
0.000000
71
194
72
46
73
50
0
VERTEX
8
0
6
CONTINUOUS
62
252
70
128
10
0.000000
20
0.000000
30
0.000000
71
194
72
50
73
193
0
VERTEX
8
0
6
CONTINUOUS
62
252
70
128
10
0.000000
20
0.000000
30
0.000000
71
193
72
50
73
51
0
VERTEX
8
0
6
CONTINUOUS
62
252
70
128
10
0.000000
20
0.000000
30
0.000000
71
193
72
51
73
192
0
VERTEX
8
0
6
CONTINUOUS
62
252
70
128
10
0.000000
20
0.000000
30
0.000000
71
192
72
51
73
191
0
VERTEX
8
0
6
CONTINUOUS
62
252
70
128
10
0.000000
20
0.000000
30
0.000000
71
191
72
51
73
190
0
VERTEX
8
0
6
CONTINUOUS
62
252
70
128
10
0.000000
20
0.000000
30
0.000000
71
190
72
51
73
189
0
VERTEX
8
0
6
CONTINUOUS
62
252
70
128
10
0.000000
20
0.000000
30
0.000000
71
189
72
51
73
188
0
VERTEX
8
0
6
CONTINUOUS
62
252
70
128
10
0.000000
20
0.000000
30
0.000000
71
188
72
51
73
52
0
VERTEX
8
0
6
CONTINUOUS
62
252
70
128
10
0.000000
20
0.000000
30
0.000000
71
188
72
52
73
187
0
VERTEX
8
0
6
CONTINUOUS
62
252
70
128
10
0.000000
20
0.000000
30
0.000000
71
187
72
52
73
186
0
VERTEX
8
0
6
CONTINUOUS
62
252
70
128
10
0.000000
20
0.000000
30
0.000000
71
186
72
52
73
185
0
VERTEX
8
0
6
CONTINUOUS
62
252
70
128
10
0.000000
20
0.000000
30
0.000000
71
185
72
52
73
220
0
VERTEX
8
0
6
CONTINUOUS
62
252
70
128
10
0.000000
20
0.000000
30
0.000000
71
220
72
52
73
219
0
VERTEX
8
0
6
CONTINUOUS
62
252
70
128
10
0.000000
20
0.000000
30
0.000000
71
219
72
52
73
53
0
VERTEX
8
0
6
CONTINUOUS
62
252
70
128
10
0.000000
20
0.000000
30
0.000000
71
219
72
53
73
218
0
VERTEX
8
0
6
CONTINUOUS
62
252
70
128
10
0.000000
20
0.000000
30
0.000000
71
218
72
53
73
217
0
VERTEX
8
0
6
CONTINUOUS
62
252
70
128
10
0.000000
20
0.000000
30
0.000000
71
217
72
53
73
216
0
VERTEX
8
0
6
CONTINUOUS
62
252
70
128
10
0.000000
20
0.000000
30
0.000000
71
216
72
53
73
215
0
VERTEX
8
0
6
CONTINUOUS
62
252
70
128
10
0.000000
20
0.000000
30
0.000000
71
215
72
53
73
214
0
VERTEX
8
0
6
CONTINUOUS
62
252
70
128
10
0.000000
20
0.000000
30
0.000000
71
214
72
53
73
213
0
VERTEX
8
0
6
CONTINUOUS
62
252
70
128
10
0.000000
20
0.000000
30
0.000000
71
213
72
53
73
54
0
VERTEX
8
0
6
CONTINUOUS
62
252
70
128
10
0.000000
20
0.000000
30
0.000000
71
213
72
54
73
212
0
VERTEX
8
0
6
CONTINUOUS
62
252
70
128
10
0.000000
20
0.000000
30
0.000000
71
50
72
46
73
49
0
VERTEX
8
0
6
CONTINUOUS
62
252
70
128
10
0.000000
20
0.000000
30
0.000000
71
49
72
46
73
47
0
VERTEX
8
0
6
CONTINUOUS
62
252
70
128
10
0.000000
20
0.000000
30
0.000000
71
49
72
47
73
48
0
VERTEX
8
0
6
CONTINUOUS
62
252
70
128
10
0.000000
20
0.000000
30
0.000000
71
101
72
102
73
3
0
VERTEX
8
0
6
CONTINUOUS
62
252
70
128
10
0.000000
20
0.000000
30
0.000000
71
3
72
102
73
103
0
VERTEX
8
0
6
CONTINUOUS
62
252
70
128
10
0.000000
20
0.000000
30
0.000000
71
3
72
103
73
104
0
VERTEX
8
0
6
CONTINUOUS
62
252
70
128
10
0.000000
20
0.000000
30
0.000000
71
137
72
138
73
13
0
VERTEX
8
0
6
CONTINUOUS
62
252
70
128
10
0.000000
20
0.000000
30
0.000000
71
13
72
138
73
139
0
VERTEX
8
0
6
CONTINUOUS
62
252
70
128
10
0.000000
20
0.000000
30
0.000000
71
175
72
176
73
26
0
VERTEX
8
0
6
CONTINUOUS
62
252
70
128
10
0.000000
20
0.000000
30
0.000000
71
26
72
176
73
177
0
VERTEX
8
0
6
CONTINUOUS
62
252
70
128
10
0.000000
20
0.000000
30
0.000000
71
209
72
210
73
37
0
VERTEX
8
0
6
CONTINUOUS
62
252
70
128
10
0.000000
20
0.000000
30
0.000000
71
37
72
210
73
211
0
SEQEND
0
ENDSEC
0
EOF
