  0
SECTION
  2
HEADER
  9
$ACADVER
  1
AC1003
  9
$INSBASE
 10
0.000000
 20
0.000000
  9
$EXTMIN
 10
0.000000
 20
0.000000
  9
$EXTMAX
 10
210.000000
 20
148.000000
  9
$LIMMIN
 10
0.000000
 20
0.000000
  9
$LIMMAX
 10
210.000000
 20
148.000000
  9
$VIEWCTR
 10
105.000000
 20
74.000000
  9
$VIEWSIZE
 40
148.000000
  9
$PEXTMIN
 10
0.000000
 20
0.000000
 30
0.000000
  9
$PEXTMAX
 10
210.000000
 20
148.000000
 30
0.000000
  9
$SNAPMODE
 70
     0
  9
$SNAPUNIT
 10
1.000000
 20
1.000000
  9
$SNAPBASE
 10
0.000000
 20
0.000000
  9
$SNAPANG
 50
0.000000
  9
$SNAPISOPAIR
 70
     0
  9
$SNAPSTYLE
 70
     0
  9
$GRIDMODE
 70
     0
  9
$GRIDUNIT
 10
0.000000
 20
0.000000
  9
$ORTHOMODE
 70
     0
  9
$REGENMODE
 70
     1
  9
$FILLMODE
 70
     1
  9
$QTEXTMODE
 70
     0
  9
$DRAGMODE
 70
     2
  9
$LTSCALE
 40
0.250000
  9
$OSMODE
 70
     0
  9
$ATTMODE
 70
     1
  9
$TEXTSIZE
 40
0.200000
  9
$TRACEWID
 40
0.050000
  9
$TEXTSTYLE
  7
STANDARD
  9
$CLAYER
  8
0
  9
$CELTYPE
  6
BYLAYER
  9
$CECOLOR
 62
   256
  9
$DIMSCALE
 40
1.000000
  9
$DIMASZ
 40
1.000000
  9
$DIMEXO
 40
0.000000
  9
$DIMDLI
 40
0.500000
  9
$DIMRND
 40
0.000000
  9
$DIMDLE
 40
0.000000
  9
$DIMEXE
 40
0.000000
  9
$DIMTP
 40
0.000000
  9
$DIMTM
 40
0.000000
  9
$DIMTXT
 40
0.180000
  9
$DIMCEN
 40
0.000000
  9
$DIMTSZ
 40
0.000000
  9
$DIMTOL
 70
     0
  9
$DIMLIM
 70
     0
  9
$DIMTIH
 70
     1
  9
$DIMTOH
 70
     1
  9
$DIMSE1
 70
     0
  9
$DIMSE2
 70
     0
  9
$DIMTAD
 70
     0
  9
$DIMZIN
 70
     0
  9
$DIMBLK
  1

  9
$DIMASO
 70
     0
  9
$DIMSHO
 70
     0
  9
$DIMPOST
  1

  9
$DIMAPOST
  1

  9
$DIMALT
 70
     0
  9
$DIMALTD
 70
     0
  9
$DIMALTF
 40
25.400000
  9
$DIMLFAC
 40
1.000000
  9
$DIMTOFL
 70
     0
  9
$DIMTVP
 40
0.000000
  9
$DIMTIX
 70
     0
  9
$DIMSOXD
 70
     0
  9
$DIMSAH
 70
     0
  9
$DIMBLKL
  1

  9
$DIMBLKR
  1

  9
$LUNITS
 70
     2
  9
$LUPREC
 70
     2
  9
$AXISMODE
 70
     0
  9
$AXISUNIT
 10
1.000000
 20
1.000000
  9
$SKETCHINC
 40
0.000000
  9
$FILLETRAD
 40
0.000000
  9
$AUNITS
 70
     1
  9
$AUPREC
 70
     2
  9
$MENU
  1
ACAD
  9
$ELEVATION
 40
0.000000
  9
$THICKNESS
 40
0.000000
  9
$VIEWDIR
 10
0.000000
 20
0.000000
 30
1.000000
  9
$LIMCHECK
 70
     1
  9
$BLIPMODE
 70
     1
  9
$CHAMFERA
 40
0.000000
  9
$CHAMFERB
 40
0.000000
  9
$FASTZOOM
 70
     1
  9
$SKPOLY
 70
     0
  9
$TDCREATE
 40
0.000000
  9
$TDUPDATE
 40
0.000000
  9
$TDINDWG
 40
0.000000
  9
$TDUSRTIMER
 40
0.000000
  9
$USRTIMER
 70
     1
  9
$ANGBASE
 50
0.000000
  9
$ANGDIR
 70
     0
  9
$PDMODE
 70
     0
  9
$PDSIZE
 40
0.000000
  9
$PLINEWID
 40
0.000000
  9
$COORDS
 70
     2
  9
$USERI1
 70
     0
  9
$USERI2
 70
     0
  9
$USERI3
 70
     0
  9
$USERI4
 70
     0
  9
$USERI5
 70
     0
  9
$USERR1
 40
0.000000
  9
$USERR2
 40
0.000000
  9
$USERR3
 40
0.000000
  9
$USERR4
 40
0.000000
  9
$USERR5
 40
0.000000
  0
ENDSEC
  0
SECTION
  2
TABLES
  0
TABLE
  2
LTYPE
 70
     5
  0
LTYPE
  2
CONTINUOUS
 70
    64
  3
Solid line
 72
    65
 73
     0
 40
0.0
  0
LTYPE
  2
HIDDEN
 70
    64
  3
------------------------
 72
    65
 73
     2
 40
12.6
 49
8.4
 49
-4.2
  0
LTYPE
  2
DOT
 70
    64
  3
ÑÑÑÑÑÑÑÑÑÑÑÑÑÑÑÑÑÑÑÑÑÑÑÑ
 72
    65
 73
     2
 40
8.0
 49
6.0
 49
-2.0
  0
LTYPE
  2
DASHDOT
 70
    64
  3
--Ñ--Ñ--Ñ--Ñ--Ñ--Ñ--Ñ--
 72
    65
 73
     4
 40
50.5
 49
30.0
 49
-9.0
 49
2.5
 49
-9.0
  0
LTYPE
  2
DIVIDE
 70
    64
  3
--ÑÑ--ÑÑ--ÑÑ--ÑÑ--ÑÑ--
 72
    65
 73
     6
 40
58.0
 49
30.0
 49
-9.0
 49
2.5
 49
-5.0
 49
2.5
 49
-9.0
  0
ENDTAB
  0
TABLE
  2
LAYER
 70
1
  0
LAYER
  2
1
 70
64
 62
7
  6
CONTINUOUS
  0
ENDTAB
  0
TABLE
  2
STYLE
 70
     2
  0
STYLE
  2
STANDARD
 70
    64
 40
0.0
 41
1.0
 50
0.0
 71
     0
 42
0.2
  3
TXT
  4

  0
STYLE
  2
KANJI
 70
    64
 40
0.0
 41
1.0
 50
0.0
 71
     0
 42
0.2
  3
TXT
  4
BIGFONT
  0
ENDTAB
  0
TABLE
  2
VIEW
 70
     0
  0
ENDTAB
  0
ENDSEC
  0
SECTION
  2
BLOCKS
  0
ENDSEC
  0
SECTION
  2
ENTITIES
  0
LINE
  8
1
 62
7
  6
CONTINUOUS
 10
141.494418
 20
398.032758
 11
141.498323
 21
398.036663
  0
LINE
  8
1
 62
7
  6
CONTINUOUS
 10
141.491390
 20
398.015588
 11
141.512465
 21
398.036663
  0
LINE
  8
1
 62
7
  6
CONTINUOUS
 10
141.488363
 20
397.998419
 11
141.526607
 21
398.036663
  0
LINE
  8
1
 62
7
  6
CONTINUOUS
 10
141.485335
 20
397.981249
 11
141.540749
 21
398.036663
  0
LINE
  8
1
 62
7
  6
CONTINUOUS
 10
141.482308
 20
397.964080
 11
141.554892
 21
398.036663
  0
LINE
  8
1
 62
7
  6
CONTINUOUS
 10
141.479280
 20
397.946910
 11
141.569034
 21
398.036663
  0
LINE
  8
1
 62
7
  6
CONTINUOUS
 10
141.476253
 20
397.929740
 11
141.583176
 21
398.036663
  0
LINE
  8
1
 62
7
  6
CONTINUOUS
 10
141.473225
 20
397.912571
 11
141.597318
 21
398.036663
  0
LINE
  8
1
 62
7
  6
CONTINUOUS
 10
141.470198
 20
397.895401
 11
141.611460
 21
398.036663
  0
LINE
  8
1
 62
7
  6
CONTINUOUS
 10
141.467171
 20
397.878232
 11
141.625602
 21
398.036663
  0
LINE
  8
1
 62
7
  6
CONTINUOUS
 10
141.464143
 20
397.861062
 11
141.639744
 21
398.036663
  0
LINE
  8
1
 62
7
  6
CONTINUOUS
 10
141.461116
 20
397.843892
 11
141.653886
 21
398.036663
  0
LINE
  8
1
 62
7
  6
CONTINUOUS
 10
141.458088
 20
397.826723
 11
141.668029
 21
398.036663
  0
LINE
  8
1
 62
7
  6
CONTINUOUS
 10
141.455061
 20
397.809553
 11
141.682171
 21
398.036663
  0
LINE
  8
1
 62
7
  6
CONTINUOUS
 10
141.452033
 20
397.792384
 11
141.696313
 21
398.036663
  0
LINE
  8
1
 62
7
  6
CONTINUOUS
 10
141.449006
 20
397.775214
 11
141.710455
 21
398.036663
  0
LINE
  8
1
 62
7
  6
CONTINUOUS
 10
141.445978
 20
397.758044
 11
141.724597
 21
398.036663
  0
LINE
  8
1
 62
7
  6
CONTINUOUS
 10
141.442951
 20
397.740875
 11
141.738739
 21
398.036663
  0
LINE
  8
1
 62
7
  6
CONTINUOUS
 10
141.439923
 20
397.723705
 11
141.752881
 21
398.036663
  0
LINE
  8
1
 62
7
  6
CONTINUOUS
 10
141.436896
 20
397.706536
 11
141.767024
 21
398.036663
  0
LINE
  8
1
 62
7
  6
CONTINUOUS
 10
141.433868
 20
397.689366
 11
141.781166
 21
398.036663
  0
LINE
  8
1
 62
7
  6
CONTINUOUS
 10
141.430841
 20
397.672196
 11
141.795308
 21
398.036663
  0
LINE
  8
1
 62
7
  6
CONTINUOUS
 10
141.427814
 20
397.655027
 11
141.809450
 21
398.036663
  0
LINE
  8
1
 62
7
  6
CONTINUOUS
 10
141.424786
 20
397.637857
 11
141.823592
 21
398.036663
  0
LINE
  8
1
 62
7
  6
CONTINUOUS
 10
141.421759
 20
397.620688
 11
141.837734
 21
398.036663
  0
LINE
  8
1
 62
7
  6
CONTINUOUS
 10
141.418731
 20
397.603518
 11
141.851876
 21
398.036663
  0
LINE
  8
1
 62
7
  6
CONTINUOUS
 10
141.415704
 20
397.586348
 11
141.866019
 21
398.036663
  0
LINE
  8
1
 62
7
  6
CONTINUOUS
 10
141.412676
 20
397.569179
 11
141.880161
 21
398.036663
  0
LINE
  8
1
 62
7
  6
CONTINUOUS
 10
141.409649
 20
397.552009
 11
141.894303
 21
398.036663
  0
LINE
  8
1
 62
7
  6
CONTINUOUS
 10
141.410445
 20
397.538663
 11
141.908445
 21
398.036663
  0
LINE
  8
1
 62
7
  6
CONTINUOUS
 10
141.424587
 20
397.538663
 11
141.922587
 21
398.036663
  0
LINE
  8
1
 62
7
  6
CONTINUOUS
 10
141.438729
 20
397.538663
 11
141.936729
 21
398.036663
  0
LINE
  8
1
 62
7
  6
CONTINUOUS
 10
141.452871
 20
397.538663
 11
141.950871
 21
398.036663
  0
LINE
  8
1
 62
7
  6
CONTINUOUS
 10
141.467013
 20
397.538663
 11
141.965013
 21
398.036663
  0
LINE
  8
1
 62
7
  6
CONTINUOUS
 10
141.481156
 20
397.538663
 11
141.979156
 21
398.036663
  0
LINE
  8
1
 62
7
  6
CONTINUOUS
 10
141.495298
 20
397.538663
 11
141.993298
 21
398.036663
  0
LINE
  8
1
 62
7
  6
CONTINUOUS
 10
141.509440
 20
397.538663
 11
142.007440
 21
398.036663
  0
LINE
  8
1
 62
7
  6
CONTINUOUS
 10
141.523582
 20
397.538663
 11
142.021582
 21
398.036663
  0
LINE
  8
1
 62
7
  6
CONTINUOUS
 10
141.537724
 20
397.538663
 11
142.035724
 21
398.036663
  0
LINE
  8
1
 62
7
  6
CONTINUOUS
 10
141.551866
 20
397.538663
 11
142.049866
 21
398.036663
  0
LINE
  8
1
 62
7
  6
CONTINUOUS
 10
141.566008
 20
397.538663
 11
142.064008
 21
398.036663
  0
LINE
  8
1
 62
7
  6
CONTINUOUS
 10
141.580151
 20
397.538663
 11
142.078151
 21
398.036663
  0
LINE
  8
1
 62
7
  6
CONTINUOUS
 10
141.594293
 20
397.538663
 11
142.092293
 21
398.036663
  0
LINE
  8
1
 62
7
  6
CONTINUOUS
 10
141.608435
 20
397.538663
 11
142.106435
 21
398.036663
  0
LINE
  8
1
 62
7
  6
CONTINUOUS
 10
141.622577
 20
397.538663
 11
142.120577
 21
398.036663
  0
LINE
  8
1
 62
7
  6
CONTINUOUS
 10
141.636719
 20
397.538663
 11
142.134719
 21
398.036663
  0
LINE
  8
1
 62
7
  6
CONTINUOUS
 10
141.650861
 20
397.538663
 11
142.148861
 21
398.036663
  0
LINE
  8
1
 62
7
  6
CONTINUOUS
 10
141.665003
 20
397.538663
 11
142.163003
 21
398.036663
  0
LINE
  8
1
 62
7
  6
CONTINUOUS
 10
141.679145
 20
397.538663
 11
142.177145
 21
398.036663
  0
LINE
  8
1
 62
7
  6
CONTINUOUS
 10
141.693288
 20
397.538663
 11
142.191288
 21
398.036663
  0
LINE
  8
1
 62
7
  6
CONTINUOUS
 10
141.707430
 20
397.538663
 11
142.205430
 21
398.036663
  0
LINE
  8
1
 62
7
  6
CONTINUOUS
 10
141.721572
 20
397.538663
 11
142.219572
 21
398.036663
  0
LINE
  8
1
 62
7
  6
CONTINUOUS
 10
141.735714
 20
397.538663
 11
142.233714
 21
398.036663
  0
LINE
  8
1
 62
7
  6
CONTINUOUS
 10
141.749856
 20
397.538663
 11
142.247856
 21
398.036663
  0
LINE
  8
1
 62
7
  6
CONTINUOUS
 10
141.763998
 20
397.538663
 11
142.261998
 21
398.036663
  0
LINE
  8
1
 62
7
  6
CONTINUOUS
 10
141.778140
 20
397.538663
 11
142.276140
 21
398.036663
  0
LINE
  8
1
 62
7
  6
CONTINUOUS
 10
141.792283
 20
397.538663
 11
142.290283
 21
398.036663
  0
LINE
  8
1
 62
7
  6
CONTINUOUS
 10
141.806425
 20
397.538663
 11
142.304425
 21
398.036663
  0
LINE
  8
1
 62
7
  6
CONTINUOUS
 10
141.820567
 20
397.538663
 11
142.318567
 21
398.036663
  0
LINE
  8
1
 62
7
  6
CONTINUOUS
 10
141.834709
 20
397.538663
 11
142.332709
 21
398.036663
  0
LINE
  8
1
 62
7
  6
CONTINUOUS
 10
141.848851
 20
397.538663
 11
142.346851
 21
398.036663
  0
LINE
  8
1
 62
7
  6
CONTINUOUS
 10
141.862993
 20
397.538663
 11
142.360993
 21
398.036663
  0
LINE
  8
1
 62
7
  6
CONTINUOUS
 10
141.877135
 20
397.538663
 11
142.375135
 21
398.036663
  0
LINE
  8
1
 62
7
  6
CONTINUOUS
 10
141.891278
 20
397.538663
 11
142.389278
 21
398.036663
  0
LINE
  8
1
 62
7
  6
CONTINUOUS
 10
141.905420
 20
397.538663
 11
142.403420
 21
398.036663
  0
LINE
  8
1
 62
7
  6
CONTINUOUS
 10
141.911569
 20
397.530670
 11
142.417562
 21
398.036663
  0
LINE
  8
1
 62
7
  6
CONTINUOUS
 10
141.908541
 20
397.513500
 11
142.431704
 21
398.036663
  0
LINE
  8
1
 62
7
  6
CONTINUOUS
 10
141.905514
 20
397.496331
 11
142.445846
 21
398.036663
  0
LINE
  8
1
 62
7
  6
CONTINUOUS
 10
141.902486
 20
397.479161
 11
142.459988
 21
398.036663
  0
LINE
  8
1
 62
7
  6
CONTINUOUS
 10
141.899459
 20
397.461992
 11
142.474130
 21
398.036663
  0
LINE
  8
1
 62
7
  6
CONTINUOUS
 10
141.896431
 20
397.444822
 11
142.488272
 21
398.036663
  0
LINE
  8
1
 62
7
  6
CONTINUOUS
 10
141.893404
 20
397.427652
 11
142.502415
 21
398.036663
  0
LINE
  8
1
 62
7
  6
CONTINUOUS
 10
141.890376
 20
397.410483
 11
142.516557
 21
398.036663
  0
LINE
  8
1
 62
7
  6
CONTINUOUS
 10
141.887349
 20
397.393313
 11
142.530699
 21
398.036663
  0
LINE
  8
1
 62
7
  6
CONTINUOUS
 10
141.884321
 20
397.376144
 11
142.544841
 21
398.036663
  0
LINE
  8
1
 62
7
  6
CONTINUOUS
 10
141.881294
 20
397.358974
 11
142.558983
 21
398.036663
  0
LINE
  8
1
 62
7
  6
CONTINUOUS
 10
141.878266
 20
397.341804
 11
142.573125
 21
398.036663
  0
LINE
  8
1
 62
7
  6
CONTINUOUS
 10
141.875239
 20
397.324635
 11
142.587267
 21
398.036663
  0
LINE
  8
1
 62
7
  6
CONTINUOUS
 10
141.872211
 20
397.307465
 11
142.601410
 21
398.036663
  0
LINE
  8
1
 62
7
  6
CONTINUOUS
 10
141.869184
 20
397.290296
 11
142.615552
 21
398.036663
  0
LINE
  8
1
 62
7
  6
CONTINUOUS
 10
141.866157
 20
397.273126
 11
142.629694
 21
398.036663
  0
LINE
  8
1
 62
7
  6
CONTINUOUS
 10
141.863129
 20
397.255956
 11
142.643836
 21
398.036663
  0
LINE
  8
1
 62
7
  6
CONTINUOUS
 10
141.860102
 20
397.238787
 11
142.657978
 21
398.036663
  0
LINE
  8
1
 62
7
  6
CONTINUOUS
 10
141.857074
 20
397.221617
 11
142.672120
 21
398.036663
  0
LINE
  8
1
 62
7
  6
CONTINUOUS
 10
141.854047
 20
397.204448
 11
142.686262
 21
398.036663
  0
LINE
  8
1
 62
7
  6
CONTINUOUS
 10
141.851019
 20
397.187278
 11
142.700405
 21
398.036663
  0
LINE
  8
1
 62
7
  6
CONTINUOUS
 10
141.847992
 20
397.170108
 11
142.714547
 21
398.036663
  0
LINE
  8
1
 62
7
  6
CONTINUOUS
 10
141.844964
 20
397.152939
 11
142.728689
 21
398.036663
  0
LINE
  8
1
 62
7
  6
CONTINUOUS
 10
141.841937
 20
397.135769
 11
142.742831
 21
398.036663
  0
LINE
  8
1
 62
7
  6
CONTINUOUS
 10
141.838909
 20
397.118600
 11
142.756973
 21
398.036663
  0
LINE
  8
1
 62
7
  6
CONTINUOUS
 10
141.835882
 20
397.101430
 11
142.771115
 21
398.036663
  0
LINE
  8
1
 62
7
  6
CONTINUOUS
 10
141.832854
 20
397.084260
 11
142.785257
 21
398.036663
  0
LINE
  8
1
 62
7
  6
CONTINUOUS
 10
141.829827
 20
397.067091
 11
142.799399
 21
398.036663
  0
LINE
  8
1
 62
7
  6
CONTINUOUS
 10
141.826800
 20
397.049921
 11
142.813542
 21
398.036663
  0
LINE
  8
1
 62
7
  6
CONTINUOUS
 10
141.823772
 20
397.032752
 11
142.827684
 21
398.036663
  0
LINE
  8
1
 62
7
  6
CONTINUOUS
 10
141.820745
 20
397.015582
 11
142.841826
 21
398.036663
  0
LINE
  8
1
 62
7
  6
CONTINUOUS
 10
141.817717
 20
396.998412
 11
142.855968
 21
398.036663
  0
LINE
  8
1
 62
7
  6
CONTINUOUS
 10
141.814690
 20
396.981243
 11
142.870110
 21
398.036663
  0
LINE
  8
1
 62
7
  6
CONTINUOUS
 10
141.811662
 20
396.964073
 11
142.884252
 21
398.036663
  0
LINE
  8
1
 62
7
  6
CONTINUOUS
 10
141.808635
 20
396.946904
 11
142.898394
 21
398.036663
  0
LINE
  8
1
 62
7
  6
CONTINUOUS
 10
141.805607
 20
396.929734
 11
142.912537
 21
398.036663
  0
LINE
  8
1
 62
7
  6
CONTINUOUS
 10
142.428679
 20
397.538663
 11
142.926679
 21
398.036663
  0
LINE
  8
1
 62
7
  6
CONTINUOUS
 10
141.802580
 20
396.912564
 11
142.416516
 21
397.526500
  0
LINE
  8
1
 62
7
  6
CONTINUOUS
 10
142.442821
 20
397.538663
 11
142.940821
 21
398.036663
  0
LINE
  8
1
 62
7
  6
CONTINUOUS
 10
141.799552
 20
396.895395
 11
142.413488
 21
397.509331
  0
LINE
  8
1
 62
7
  6
CONTINUOUS
 10
142.456963
 20
397.538663
 11
142.954963
 21
398.036663
  0
LINE
  8
1
 62
7
  6
CONTINUOUS
 10
141.796525
 20
396.878225
 11
142.410461
 21
397.492161
  0
LINE
  8
1
 62
7
  6
CONTINUOUS
 10
142.471105
 20
397.538663
 11
142.969105
 21
398.036663
  0
LINE
  8
1
 62
7
  6
CONTINUOUS
 10
141.793497
 20
396.861056
 11
142.407433
 21
397.474991
  0
LINE
  8
1
 62
7
  6
CONTINUOUS
 10
142.485247
 20
397.538663
 11
142.983247
 21
398.036663
  0
LINE
  8
1
 62
7
  6
CONTINUOUS
 10
141.790470
 20
396.843886
 11
142.404406
 21
397.457822
  0
LINE
  8
1
 62
7
  6
CONTINUOUS
 10
142.499389
 20
397.538663
 11
142.997389
 21
398.036663
  0
LINE
  8
1
 62
7
  6
CONTINUOUS
 10
141.787443
 20
396.826716
 11
142.401378
 21
397.440652
  0
LINE
  8
1
 62
7
  6
CONTINUOUS
 10
142.513531
 20
397.538663
 11
143.011531
 21
398.036663
  0
LINE
  8
1
 62
7
  6
CONTINUOUS
 10
141.784415
 20
396.809547
 11
142.398351
 21
397.423483
  0
LINE
  8
1
 62
7
  6
CONTINUOUS
 10
142.527674
 20
397.538663
 11
143.025674
 21
398.036663
  0
LINE
  8
1
 62
7
  6
CONTINUOUS
 10
141.781388
 20
396.792377
 11
142.395324
 21
397.406313
  0
LINE
  8
1
 62
7
  6
CONTINUOUS
 10
142.541816
 20
397.538663
 11
143.039816
 21
398.036663
  0
LINE
  8
1
 62
7
  6
CONTINUOUS
 10
141.778360
 20
396.775208
 11
142.392296
 21
397.389143
  0
LINE
  8
1
 62
7
  6
CONTINUOUS
 10
142.555958
 20
397.538663
 11
143.053958
 21
398.036663
  0
LINE
  8
1
 62
7
  6
CONTINUOUS
 10
141.775333
 20
396.758038
 11
142.389269
 21
397.371974
  0
LINE
  8
1
 62
7
  6
CONTINUOUS
 10
142.570100
 20
397.538663
 11
143.068100
 21
398.036663
  0
LINE
  8
1
 62
7
  6
CONTINUOUS
 10
141.772305
 20
396.740868
 11
142.386241
 21
397.354804
  0
LINE
  8
1
 62
7
  6
CONTINUOUS
 10
142.584242
 20
397.538663
 11
143.082242
 21
398.036663
  0
LINE
  8
1
 62
7
  6
CONTINUOUS
 10
141.769278
 20
396.723699
 11
142.383214
 21
397.337635
  0
LINE
  8
1
 62
7
  6
CONTINUOUS
 10
142.598384
 20
397.538663
 11
143.096384
 21
398.036663
  0
LINE
  8
1
 62
7
  6
CONTINUOUS
 10
141.766250
 20
396.706529
 11
142.380186
 21
397.320465
  0
LINE
  8
1
 62
7
  6
CONTINUOUS
 10
142.612526
 20
397.538663
 11
143.110526
 21
398.036663
  0
LINE
  8
1
 62
7
  6
CONTINUOUS
 10
141.763223
 20
396.689360
 11
142.377159
 21
397.303295
  0
LINE
  8
1
 62
7
  6
CONTINUOUS
 10
142.626669
 20
397.538663
 11
143.124669
 21
398.036663
  0
LINE
  8
1
 62
7
  6
CONTINUOUS
 10
141.760195
 20
396.672190
 11
142.374131
 21
397.286126
  0
LINE
  8
1
 62
7
  6
CONTINUOUS
 10
142.640811
 20
397.538663
 11
143.138811
 21
398.036663
  0
LINE
  8
1
 62
7
  6
CONTINUOUS
 10
141.757168
 20
396.655020
 11
142.371104
 21
397.268956
  0
LINE
  8
1
 62
7
  6
CONTINUOUS
 10
142.654953
 20
397.538663
 11
143.152953
 21
398.036663
  0
LINE
  8
1
 62
7
  6
CONTINUOUS
 10
141.754140
 20
396.637851
 11
142.368076
 21
397.251787
  0
LINE
  8
1
 62
7
  6
CONTINUOUS
 10
142.669095
 20
397.538663
 11
143.167095
 21
398.036663
  0
LINE
  8
1
 62
7
  6
CONTINUOUS
 10
141.751113
 20
396.620681
 11
142.365049
 21
397.234617
  0
LINE
  8
1
 62
7
  6
CONTINUOUS
 10
142.683237
 20
397.538663
 11
143.181237
 21
398.036663
  0
LINE
  8
1
 62
7
  6
CONTINUOUS
 10
141.748085
 20
396.603512
 11
142.362021
 21
397.217447
  0
LINE
  8
1
 62
7
  6
CONTINUOUS
 10
142.697379
 20
397.538663
 11
143.195379
 21
398.036663
  0
LINE
  8
1
 62
7
  6
CONTINUOUS
 10
141.745058
 20
396.586342
 11
142.358994
 21
397.200278
  0
LINE
  8
1
 62
7
  6
CONTINUOUS
 10
142.711521
 20
397.538663
 11
143.209521
 21
398.036663
  0
LINE
  8
1
 62
7
  6
CONTINUOUS
 10
141.742031
 20
396.569172
 11
142.355966
 21
397.183108
  0
LINE
  8
1
 62
7
  6
CONTINUOUS
 10
142.725664
 20
397.538663
 11
143.223664
 21
398.036663
  0
LINE
  8
1
 62
7
  6
CONTINUOUS
 10
141.739003
 20
396.552003
 11
142.352939
 21
397.165939
  0
LINE
  8
1
 62
7
  6
CONTINUOUS
 10
142.739806
 20
397.538663
 11
143.237806
 21
398.036663
  0
LINE
  8
1
 62
7
  6
CONTINUOUS
 10
141.735976
 20
396.534833
 11
142.349912
 21
397.148769
  0
LINE
  8
1
 62
7
  6
CONTINUOUS
 10
142.753948
 20
397.538663
 11
143.251948
 21
398.036663
  0
LINE
  8
1
 62
7
  6
CONTINUOUS
 10
141.732948
 20
396.517664
 11
142.346884
 21
397.131599
  0
LINE
  8
1
 62
7
  6
CONTINUOUS
 10
142.768090
 20
397.538663
 11
143.266090
 21
398.036663
  0
LINE
  8
1
 62
7
  6
CONTINUOUS
 10
141.729921
 20
396.500494
 11
142.343857
 21
397.114430
  0
LINE
  8
1
 62
7
  6
CONTINUOUS
 10
142.782232
 20
397.538663
 11
143.280232
 21
398.036663
  0
LINE
  8
1
 62
7
  6
CONTINUOUS
 10
141.726893
 20
396.483324
 11
142.340829
 21
397.097260
  0
LINE
  8
1
 62
7
  6
CONTINUOUS
 10
142.796374
 20
397.538663
 11
143.294374
 21
398.036663
  0
LINE
  8
1
 62
7
  6
CONTINUOUS
 10
141.723866
 20
396.466155
 11
142.337802
 21
397.080091
  0
LINE
  8
1
 62
7
  6
CONTINUOUS
 10
142.810516
 20
397.538663
 11
143.308516
 21
398.036663
  0
LINE
  8
1
 62
7
  6
CONTINUOUS
 10
141.720838
 20
396.448985
 11
142.334774
 21
397.062921
  0
LINE
  8
1
 62
7
  6
CONTINUOUS
 10
142.824658
 20
397.538663
 11
143.322658
 21
398.036663
  0
LINE
  8
1
 62
7
  6
CONTINUOUS
 10
141.717811
 20
396.431816
 11
142.331747
 21
397.045751
  0
LINE
  8
1
 62
7
  6
CONTINUOUS
 10
142.838801
 20
397.538663
 11
143.336801
 21
398.036663
  0
LINE
  8
1
 62
7
  6
CONTINUOUS
 10
141.714783
 20
396.414646
 11
142.328719
 21
397.028582
  0
LINE
  8
1
 62
7
  6
CONTINUOUS
 10
142.852943
 20
397.538663
 11
143.350943
 21
398.036663
  0
LINE
  8
1
 62
7
  6
CONTINUOUS
 10
141.711756
 20
396.397476
 11
142.325692
 21
397.011412
  0
LINE
  8
1
 62
7
  6
CONTINUOUS
 10
142.867085
 20
397.538663
 11
143.365085
 21
398.036663
  0
LINE
  8
1
 62
7
  6
CONTINUOUS
 10
141.708728
 20
396.380307
 11
142.322664
 21
396.994243
  0
LINE
  8
1
 62
7
  6
CONTINUOUS
 10
142.881227
 20
397.538663
 11
143.379227
 21
398.036663
  0
LINE
  8
1
 62
7
  6
CONTINUOUS
 10
141.705701
 20
396.363137
 11
142.319637
 21
396.977073
  0
LINE
  8
1
 62
7
  6
CONTINUOUS
 10
142.895369
 20
397.538663
 11
143.393369
 21
398.036663
  0
LINE
  8
1
 62
7
  6
CONTINUOUS
 10
141.702674
 20
396.345968
 11
142.316609
 21
396.959903
  0
LINE
  8
1
 62
7
  6
CONTINUOUS
 10
142.909511
 20
397.538663
 11
143.407511
 21
398.036663
  0
LINE
  8
1
 62
7
  6
CONTINUOUS
 10
141.699646
 20
396.328798
 11
142.313582
 21
396.942734
  0
LINE
  8
1
 62
7
  6
CONTINUOUS
 10
142.923653
 20
397.538663
 11
143.421653
 21
398.036663
  0
LINE
  8
1
 62
7
  6
CONTINUOUS
 10
141.696619
 20
396.311628
 11
142.310555
 21
396.925564
  0
LINE
  8
1
 62
7
  6
CONTINUOUS
 10
142.921463
 20
397.522331
 11
143.435796
 21
398.036663
  0
LINE
  8
1
 62
7
  6
CONTINUOUS
 10
141.693591
 20
396.294459
 11
142.307527
 21
396.908395
  0
LINE
  8
1
 62
7
  6
CONTINUOUS
 10
142.918436
 20
397.505161
 11
143.449938
 21
398.036663
  0
LINE
  8
1
 62
7
  6
CONTINUOUS
 10
141.690564
 20
396.277289
 11
142.304500
 21
396.891225
  0
LINE
  8
1
 62
7
  6
CONTINUOUS
 10
142.915408
 20
397.487991
 11
143.464080
 21
398.036663
  0
LINE
  8
1
 62
7
  6
CONTINUOUS
 10
141.687536
 20
396.260120
 11
142.301472
 21
396.874055
  0
LINE
  8
1
 62
7
  6
CONTINUOUS
 10
142.912381
 20
397.470822
 11
143.478222
 21
398.036663
  0
LINE
  8
1
 62
7
  6
CONTINUOUS
 10
141.684509
 20
396.242950
 11
142.298445
 21
396.856886
  0
LINE
  8
1
 62
7
  6
CONTINUOUS
 10
142.909353
 20
397.453652
 11
143.492364
 21
398.036663
  0
LINE
  8
1
 62
7
  6
CONTINUOUS
 10
141.681481
 20
396.225780
 11
142.295417
 21
396.839716
  0
LINE
  8
1
 62
7
  6
CONTINUOUS
 10
142.906326
 20
397.436483
 11
143.506506
 21
398.036663
  0
LINE
  8
1
 62
7
  6
CONTINUOUS
 10
141.678454
 20
396.208611
 11
142.292390
 21
396.822547
  0
LINE
  8
1
 62
7
  6
CONTINUOUS
 10
142.903298
 20
397.419313
 11
143.520648
 21
398.036663
  0
LINE
  8
1
 62
7
  6
CONTINUOUS
 10
141.675426
 20
396.191441
 11
142.289362
 21
396.805377
  0
LINE
  8
1
 62
7
  6
CONTINUOUS
 10
142.900271
 20
397.402143
 11
143.534791
 21
398.036663
  0
LINE
  8
1
 62
7
  6
CONTINUOUS
 10
141.672399
 20
396.174272
 11
142.286335
 21
396.788208
  0
LINE
  8
1
 62
7
  6
CONTINUOUS
 10
142.897243
 20
397.384974
 11
143.548933
 21
398.036663
  0
LINE
  8
1
 62
7
  6
CONTINUOUS
 10
141.669371
 20
396.157102
 11
142.283307
 21
396.771038
  0
LINE
  8
1
 62
7
  6
CONTINUOUS
 10
141.055436
 20
395.543166
 11
141.058933
 21
395.546663
  0
LINE
  8
1
 62
7
  6
CONTINUOUS
 10
142.894216
 20
397.367804
 11
143.563075
 21
398.036663
  0
LINE
  8
1
 62
7
  6
CONTINUOUS
 10
141.666344
 20
396.139932
 11
142.280280
 21
396.753868
  0
LINE
  8
1
 62
7
  6
CONTINUOUS
 10
141.052408
 20
395.525996
 11
141.073075
 21
395.546663
  0
LINE
  8
1
 62
7
  6
CONTINUOUS
 10
142.891188
 20
397.350635
 11
143.577217
 21
398.036663
  0
LINE
  8
1
 62
7
  6
CONTINUOUS
 10
141.663317
 20
396.122763
 11
142.277252
 21
396.736699
  0
LINE
  8
1
 62
7
  6
CONTINUOUS
 10
141.049381
 20
395.508827
 11
141.087217
 21
395.546663
  0
LINE
  8
1
 62
7
  6
CONTINUOUS
 10
142.888161
 20
397.333465
 11
143.591359
 21
398.036663
  0
LINE
  8
1
 62
7
  6
CONTINUOUS
 10
141.660289
 20
396.105593
 11
142.274225
 21
396.719529
  0
LINE
  8
1
 62
7
  6
CONTINUOUS
 10
141.046353
 20
395.491657
 11
141.101359
 21
395.546663
  0
LINE
  8
1
 62
7
  6
CONTINUOUS
 10
142.885133
 20
397.316295
 11
143.605501
 21
398.036663
  0
LINE
  8
1
 62
7
  6
CONTINUOUS
 10
141.657262
 20
396.088424
 11
142.271197
 21
396.702360
  0
LINE
  8
1
 62
7
  6
CONTINUOUS
 10
141.043326
 20
395.474488
 11
141.115501
 21
395.546663
  0
LINE
  8
1
 62
7
  6
CONTINUOUS
 10
142.882106
 20
397.299126
 11
143.619643
 21
398.036663
  0
LINE
  8
1
 62
7
  6
CONTINUOUS
 10
141.654234
 20
396.071254
 11
142.268170
 21
396.685190
  0
LINE
  8
1
 62
7
  6
CONTINUOUS
 10
141.040298
 20
395.457318
 11
141.129643
 21
395.546663
  0
LINE
  8
1
 62
7
  6
CONTINUOUS
 10
142.879078
 20
397.281956
 11
143.633785
 21
398.036663
  0
LINE
  8
1
 62
7
  6
CONTINUOUS
 10
141.651207
 20
396.054084
 11
142.265143
 21
396.668020
  0
LINE
  8
1
 62
7
  6
CONTINUOUS
 10
141.037271
 20
395.440148
 11
141.143785
 21
395.546663
  0
LINE
  8
1
 62
7
  6
CONTINUOUS
 10
142.876051
 20
397.264787
 11
143.647928
 21
398.036663
  0
LINE
  8
1
 62
7
  6
CONTINUOUS
 10
141.648179
 20
396.036915
 11
142.262115
 21
396.650851
  0
LINE
  8
1
 62
7
  6
CONTINUOUS
 10
141.034243
 20
395.422979
 11
141.157928
 21
395.546663
  0
LINE
  8
1
 62
7
  6
CONTINUOUS
 10
142.873024
 20
397.247617
 11
143.662070
 21
398.036663
  0
LINE
  8
1
 62
7
  6
CONTINUOUS
 10
141.645152
 20
396.019745
 11
142.259088
 21
396.633681
  0
LINE
  8
1
 62
7
  6
CONTINUOUS
 10
141.031216
 20
395.405809
 11
141.172070
 21
395.546663
  0
LINE
  8
1
 62
7
  6
CONTINUOUS
 10
142.869996
 20
397.230447
 11
143.676212
 21
398.036663
  0
LINE
  8
1
 62
7
  6
CONTINUOUS
 10
141.642124
 20
396.002576
 11
142.256060
 21
396.616512
  0
LINE
  8
1
 62
7
  6
CONTINUOUS
 10
141.028188
 20
395.388640
 11
141.186212
 21
395.546663
  0
LINE
  8
1
 62
7
  6
CONTINUOUS
 10
142.866969
 20
397.213278
 11
143.690354
 21
398.036663
  0
LINE
  8
1
 62
7
  6
CONTINUOUS
 10
141.639097
 20
395.985406
 11
142.253033
 21
396.599342
  0
LINE
  8
1
 62
7
  6
CONTINUOUS
 10
141.025161
 20
395.371470
 11
141.200354
 21
395.546663
  0
LINE
  8
1
 62
7
  6
CONTINUOUS
 10
142.863941
 20
397.196108
 11
143.704496
 21
398.036663
  0
LINE
  8
1
 62
7
  6
CONTINUOUS
 10
141.636069
 20
395.968236
 11
142.250005
 21
396.582172
  0
LINE
  8
1
 62
7
  6
CONTINUOUS
 10
141.022133
 20
395.354300
 11
141.214496
 21
395.546663
  0
LINE
  8
1
 62
7
  6
CONTINUOUS
 10
142.860914
 20
397.178939
 11
143.718638
 21
398.036663
  0
LINE
  8
1
 62
7
  6
CONTINUOUS
 10
141.633042
 20
395.951067
 11
142.246978
 21
396.565003
  0
LINE
  8
1
 62
7
  6
CONTINUOUS
 10
141.019106
 20
395.337131
 11
141.228638
 21
395.546663
  0
LINE
  8
1
 62
7
  6
CONTINUOUS
 10
142.857886
 20
397.161769
 11
143.732780
 21
398.036663
  0
LINE
  8
1
 62
7
  6
CONTINUOUS
 10
141.630014
 20
395.933897
 11
142.243950
 21
396.547833
  0
LINE
  8
1
 62
7
  6
CONTINUOUS
 10
141.016078
 20
395.319961
 11
141.242780
 21
395.546663
  0
LINE
  8
1
 62
7
  6
CONTINUOUS
 10
142.854859
 20
397.144599
 11
143.746923
 21
398.036663
  0
LINE
  8
1
 62
7
  6
CONTINUOUS
 10
141.626987
 20
395.916728
 11
142.240923
 21
396.530664
  0
LINE
  8
1
 62
7
  6
CONTINUOUS
 10
141.013051
 20
395.302792
 11
141.256923
 21
395.546663
  0
LINE
  8
1
 62
7
  6
CONTINUOUS
 10
142.851831
 20
397.127430
 11
143.761065
 21
398.036663
  0
LINE
  8
1
 62
7
  6
CONTINUOUS
 10
141.623959
 20
395.899558
 11
142.237895
 21
396.513494
  0
LINE
  8
1
 62
7
  6
CONTINUOUS
 10
141.010024
 20
395.285622
 11
141.271065
 21
395.546663
  0
LINE
  8
1
 62
7
  6
CONTINUOUS
 10
142.848804
 20
397.110260
 11
143.775207
 21
398.036663
  0
LINE
  8
1
 62
7
  6
CONTINUOUS
 10
141.620932
 20
395.882388
 11
142.234868
 21
396.496324
  0
LINE
  8
1
 62
7
  6
CONTINUOUS
 10
141.006996
 20
395.268452
 11
141.285207
 21
395.546663
  0
LINE
  8
1
 62
7
  6
CONTINUOUS
 10
142.845776
 20
397.093091
 11
143.789349
 21
398.036663
  0
LINE
  8
1
 62
7
  6
CONTINUOUS
 10
141.617905
 20
395.865219
 11
142.231840
 21
396.479155
  0
LINE
  8
1
 62
7
  6
CONTINUOUS
 10
141.003969
 20
395.251283
 11
141.299349
 21
395.546663
  0
LINE
  8
1
 62
7
  6
CONTINUOUS
 10
142.842749
 20
397.075921
 11
143.803491
 21
398.036663
  0
LINE
  8
1
 62
7
  6
CONTINUOUS
 10
141.614877
 20
395.848049
 11
142.228813
 21
396.461985
  0
LINE
  8
1
 62
7
  6
CONTINUOUS
 10
141.000941
 20
395.234113
 11
141.313491
 21
395.546663
  0
LINE
  8
1
 62
7
  6
CONTINUOUS
 10
142.839721
 20
397.058751
 11
143.817633
 21
398.036663
  0
LINE
  8
1
 62
7
  6
CONTINUOUS
 10
141.611850
 20
395.830880
 11
142.225786
 21
396.444816
  0
LINE
  8
1
 62
7
  6
CONTINUOUS
 10
140.997914
 20
395.216944
 11
141.327633
 21
395.546663
  0
LINE
  8
1
 62
7
  6
CONTINUOUS
 10
142.836694
 20
397.041582
 11
143.831775
 21
398.036663
  0
LINE
  8
1
 62
7
  6
CONTINUOUS
 10
141.608822
 20
395.813710
 11
142.222758
 21
396.427646
  0
LINE
  8
1
 62
7
  6
CONTINUOUS
 10
140.994886
 20
395.199774
 11
141.341775
 21
395.546663
  0
LINE
  8
1
 62
7
  6
CONTINUOUS
 10
142.833667
 20
397.024412
 11
143.845917
 21
398.036663
  0
LINE
  8
1
 62
7
  6
CONTINUOUS
 10
141.605795
 20
395.796540
 11
142.219731
 21
396.410476
  0
LINE
  8
1
 62
7
  6
CONTINUOUS
 10
140.991859
 20
395.182604
 11
141.355917
 21
395.546663
  0
LINE
  8
1
 62
7
  6
CONTINUOUS
 10
142.830639
 20
397.007243
 11
143.860060
 21
398.036663
  0
LINE
  8
1
 62
7
  6
CONTINUOUS
 10
141.602767
 20
395.779371
 11
142.216703
 21
396.393307
  0
LINE
  8
1
 62
7
  6
CONTINUOUS
 10
140.988831
 20
395.165435
 11
141.370060
 21
395.546663
  0
LINE
  8
1
 62
7
  6
CONTINUOUS
 10
142.827612
 20
396.990073
 11
143.874202
 21
398.036663
  0
LINE
  8
1
 62
7
  6
CONTINUOUS
 10
141.599740
 20
395.762201
 11
142.213676
 21
396.376137
  0
LINE
  8
1
 62
7
  6
CONTINUOUS
 10
140.985804
 20
395.148265
 11
141.384202
 21
395.546663
  0
LINE
  8
1
 62
7
  6
CONTINUOUS
 10
142.824584
 20
396.972903
 11
143.888344
 21
398.036663
  0
LINE
  8
1
 62
7
  6
CONTINUOUS
 10
141.596712
 20
395.745032
 11
142.210648
 21
396.358968
  0
LINE
  8
1
 62
7
  6
CONTINUOUS
 10
140.982776
 20
395.131096
 11
141.398344
 21
395.546663
  0
LINE
  8
1
 62
7
  6
CONTINUOUS
 10
142.821557
 20
396.955734
 11
143.902486
 21
398.036663
  0
LINE
  8
1
 62
7
  6
CONTINUOUS
 10
141.593685
 20
395.727862
 11
142.207621
 21
396.341798
  0
LINE
  8
1
 62
7
  6
CONTINUOUS
 10
140.979749
 20
395.113926
 11
141.412486
 21
395.546663
  0
LINE
  8
1
 62
7
  6
CONTINUOUS
 10
142.818529
 20
396.938564
 11
143.916628
 21
398.036663
  0
LINE
  8
1
 62
7
  6
CONTINUOUS
 10
141.590657
 20
395.710692
 11
142.204593
 21
396.324628
  0
LINE
  8
1
 62
7
  6
CONTINUOUS
 10
140.976721
 20
395.096756
 11
141.426628
 21
395.546663
  0
LINE
  8
1
 62
7
  6
CONTINUOUS
 10
143.432770
 20
397.538663
 11
143.930770
 21
398.036663
  0
LINE
  8
1
 62
7
  6
CONTINUOUS
 10
142.815502
 20
396.921395
 11
143.429438
 21
397.535331
  0
LINE
  8
1
 62
7
  6
CONTINUOUS
 10
141.587630
 20
395.693523
 11
142.201566
 21
396.307459
  0
LINE
  8
1
 62
7
  6
CONTINUOUS
 10
140.973694
 20
395.079587
 11
141.440770
 21
395.546663
  0
LINE
  8
1
 62
7
  6
CONTINUOUS
 10
143.446912
 20
397.538663
 11
143.944912
 21
398.036663
  0
LINE
  8
1
 62
7
  6
CONTINUOUS
 10
142.812474
 20
396.904225
 11
143.426410
 21
397.518161
  0
LINE
  8
1
 62
7
  6
CONTINUOUS
 10
141.584602
 20
395.676353
 11
142.198538
 21
396.290289
  0
LINE
  8
1
 62
7
  6
CONTINUOUS
 10
140.970667
 20
395.062417
 11
141.454912
 21
395.546663
  0
LINE
  8
1
 62
7
  6
CONTINUOUS
 10
143.461055
 20
397.538663
 11
143.959055
 21
398.036663
  0
LINE
  8
1
 62
7
  6
CONTINUOUS
 10
142.809447
 20
396.887055
 11
143.423383
 21
397.500991
  0
LINE
  8
1
 62
7
  6
CONTINUOUS
 10
141.581575
 20
395.659184
 11
142.195511
 21
396.273120
  0
LINE
  8
1
 62
7
  6
CONTINUOUS
 10
140.971055
 20
395.048663
 11
141.469055
 21
395.546663
  0
LINE
  8
1
 62
7
  6
CONTINUOUS
 10
143.475197
 20
397.538663
 11
143.973197
 21
398.036663
  0
LINE
  8
1
 62
7
  6
CONTINUOUS
 10
142.806419
 20
396.869886
 11
143.420355
 21
397.483822
  0
LINE
  8
1
 62
7
  6
CONTINUOUS
 10
141.578548
 20
395.642014
 11
142.192483
 21
396.255950
  0
LINE
  8
1
 62
7
  6
CONTINUOUS
 10
140.985197
 20
395.048663
 11
141.483197
 21
395.546663
  0
LINE
  8
1
 62
7
  6
CONTINUOUS
 10
143.489339
 20
397.538663
 11
143.987339
 21
398.036663
  0
LINE
  8
1
 62
7
  6
CONTINUOUS
 10
142.803392
 20
396.852716
 11
143.417328
 21
397.466652
  0
LINE
  8
1
 62
7
  6
CONTINUOUS
 10
141.575520
 20
395.624844
 11
142.189456
 21
396.238780
  0
LINE
  8
1
 62
7
  6
CONTINUOUS
 10
140.999339
 20
395.048663
 11
141.497339
 21
395.546663
  0
LINE
  8
1
 62
7
  6
CONTINUOUS
 10
143.503481
 20
397.538663
 11
144.001481
 21
398.036663
  0
LINE
  8
1
 62
7
  6
CONTINUOUS
 10
142.800364
 20
396.835547
 11
143.414300
 21
397.449483
  0
LINE
  8
1
 62
7
  6
CONTINUOUS
 10
141.572493
 20
395.607675
 11
142.186429
 21
396.221611
  0
LINE
  8
1
 62
7
  6
CONTINUOUS
 10
141.013481
 20
395.048663
 11
141.511481
 21
395.546663
  0
LINE
  8
1
 62
7
  6
CONTINUOUS
 10
143.517623
 20
397.538663
 11
144.015623
 21
398.036663
  0
LINE
  8
1
 62
7
  6
CONTINUOUS
 10
142.797337
 20
396.818377
 11
143.411273
 21
397.432313
  0
LINE
  8
1
 62
7
  6
CONTINUOUS
 10
141.569465
 20
395.590505
 11
142.183401
 21
396.204441
  0
LINE
  8
1
 62
7
  6
CONTINUOUS
 10
141.027623
 20
395.048663
 11
141.525623
 21
395.546663
  0
LINE
  8
1
 62
7
  6
CONTINUOUS
 10
143.531765
 20
397.538663
 11
144.029765
 21
398.036663
  0
LINE
  8
1
 62
7
  6
CONTINUOUS
 10
142.794310
 20
396.801207
 11
143.408245
 21
397.415143
  0
LINE
  8
1
 62
7
  6
CONTINUOUS
 10
141.566438
 20
395.573336
 11
142.180374
 21
396.187272
  0
LINE
  8
1
 62
7
  6
CONTINUOUS
 10
141.041765
 20
395.048663
 11
141.539765
 21
395.546663
  0
LINE
  8
1
 62
7
  6
CONTINUOUS
 10
143.545907
 20
397.538663
 11
144.043907
 21
398.036663
  0
LINE
  8
1
 62
7
  6
CONTINUOUS
 10
142.791282
 20
396.784038
 11
143.405218
 21
397.397974
  0
LINE
  8
1
 62
7
  6
CONTINUOUS
 10
141.563410
 20
395.556166
 11
142.177346
 21
396.170102
  0
LINE
  8
1
 62
7
  6
CONTINUOUS
 10
141.055907
 20
395.048663
 11
141.553907
 21
395.546663
  0
LINE
  8
1
 62
7
  6
CONTINUOUS
 10
143.560050
 20
397.538663
 11
144.058050
 21
398.036663
  0
LINE
  8
1
 62
7
  6
CONTINUOUS
 10
142.788255
 20
396.766868
 11
143.402191
 21
397.380804
  0
LINE
  8
1
 62
7
  6
CONTINUOUS
 10
141.070050
 20
395.048663
 11
142.174319
 21
396.152932
  0
LINE
  8
1
 62
7
  6
CONTINUOUS
 10
143.574192
 20
397.538663
 11
144.072192
 21
398.036663
  0
LINE
  8
1
 62
7
  6
CONTINUOUS
 10
142.785227
 20
396.749699
 11
143.399163
 21
397.363635
  0
LINE
  8
1
 62
7
  6
CONTINUOUS
 10
141.084192
 20
395.048663
 11
142.171291
 21
396.135763
  0
LINE
  8
1
 62
7
  6
CONTINUOUS
 10
143.588334
 20
397.538663
 11
144.086334
 21
398.036663
  0
LINE
  8
1
 62
7
  6
CONTINUOUS
 10
142.782200
 20
396.732529
 11
143.396136
 21
397.346465
  0
LINE
  8
1
 62
7
  6
CONTINUOUS
 10
141.098334
 20
395.048663
 11
142.168264
 21
396.118593
  0
LINE
  8
1
 62
7
  6
CONTINUOUS
 10
143.602476
 20
397.538663
 11
144.100476
 21
398.036663
  0
LINE
  8
1
 62
7
  6
CONTINUOUS
 10
142.779172
 20
396.715359
 11
143.393108
 21
397.329295
  0
LINE
  8
1
 62
7
  6
CONTINUOUS
 10
141.112476
 20
395.048663
 11
142.165236
 21
396.101424
  0
LINE
  8
1
 62
7
  6
CONTINUOUS
 10
143.616618
 20
397.538663
 11
144.114618
 21
398.036663
  0
LINE
  8
1
 62
7
  6
CONTINUOUS
 10
142.776145
 20
396.698190
 11
143.390081
 21
397.312126
  0
LINE
  8
1
 62
7
  6
CONTINUOUS
 10
141.126618
 20
395.048663
 11
142.162209
 21
396.084254
  0
LINE
  8
1
 62
7
  6
CONTINUOUS
 10
143.630760
 20
397.538663
 11
144.128760
 21
398.036663
  0
LINE
  8
1
 62
7
  6
CONTINUOUS
 10
142.773117
 20
396.681020
 11
143.387053
 21
397.294956
  0
LINE
  8
1
 62
7
  6
CONTINUOUS
 10
141.140760
 20
395.048663
 11
142.159181
 21
396.067084
  0
LINE
  8
1
 62
7
  6
CONTINUOUS
 10
143.644902
 20
397.538663
 11
144.142902
 21
398.036663
  0
LINE
  8
1
 62
7
  6
CONTINUOUS
 10
142.770090
 20
396.663851
 11
143.384026
 21
397.277787
  0
LINE
  8
1
 62
7
  6
CONTINUOUS
 10
141.154902
 20
395.048663
 11
142.156154
 21
396.049915
  0
LINE
  8
1
 62
7
  6
CONTINUOUS
 10
143.659044
 20
397.538663
 11
144.157044
 21
398.036663
  0
LINE
  8
1
 62
7
  6
CONTINUOUS
 10
142.767062
 20
396.646681
 11
143.380998
 21
397.260617
  0
LINE
  8
1
 62
7
  6
CONTINUOUS
 10
141.169044
 20
395.048663
 11
142.153126
 21
396.032745
  0
LINE
  8
1
 62
7
  6
CONTINUOUS
 10
143.673187
 20
397.538663
 11
144.171187
 21
398.036663
  0
LINE
  8
1
 62
7
  6
CONTINUOUS
 10
142.764035
 20
396.629511
 11
143.377971
 21
397.243447
  0
LINE
  8
1
 62
7
  6
CONTINUOUS
 10
141.183187
 20
395.048663
 11
142.150099
 21
396.015576
  0
LINE
  8
1
 62
7
  6
CONTINUOUS
 10
143.687329
 20
397.538663
 11
144.185329
 21
398.036663
  0
LINE
  8
1
 62
7
  6
CONTINUOUS
 10
142.761007
 20
396.612342
 11
143.374943
 21
397.226278
  0
LINE
  8
1
 62
7
  6
CONTINUOUS
 10
141.197329
 20
395.048663
 11
142.147071
 21
395.998406
  0
LINE
  8
1
 62
7
  6
CONTINUOUS
 10
143.701471
 20
397.538663
 11
144.199471
 21
398.036663
  0
LINE
  8
1
 62
7
  6
CONTINUOUS
 10
142.757980
 20
396.595172
 11
143.371916
 21
397.209108
  0
LINE
  8
1
 62
7
  6
CONTINUOUS
 10
141.211471
 20
395.048663
 11
142.144044
 21
395.981236
  0
LINE
  8
1
 62
7
  6
CONTINUOUS
 10
143.715613
 20
397.538663
 11
144.213613
 21
398.036663
  0
LINE
  8
1
 62
7
  6
CONTINUOUS
 10
142.754952
 20
396.578003
 11
143.368888
 21
397.191939
  0
LINE
  8
1
 62
7
  6
CONTINUOUS
 10
141.225613
 20
395.048663
 11
142.141017
 21
395.964067
  0
LINE
  8
1
 62
7
  6
CONTINUOUS
 10
143.729755
 20
397.538663
 11
144.227755
 21
398.036663
  0
LINE
  8
1
 62
7
  6
CONTINUOUS
 10
142.751925
 20
396.560833
 11
143.365861
 21
397.174769
  0
LINE
  8
1
 62
7
  6
CONTINUOUS
 10
141.239755
 20
395.048663
 11
142.137989
 21
395.946897
  0
LINE
  8
1
 62
7
  6
CONTINUOUS
 10
143.743897
 20
397.538663
 11
144.241897
 21
398.036663
  0
LINE
  8
1
 62
7
  6
CONTINUOUS
 10
142.748898
 20
396.543663
 11
143.362833
 21
397.157599
  0
LINE
  8
1
 62
7
  6
CONTINUOUS
 10
141.253897
 20
395.048663
 11
142.134962
 21
395.929728
  0
LINE
  8
1
 62
7
  6
CONTINUOUS
 10
143.758039
 20
397.538663
 11
144.256039
 21
398.036663
  0
LINE
  8
1
 62
7
  6
CONTINUOUS
 10
142.745870
 20
396.526494
 11
143.359806
 21
397.140430
  0
LINE
  8
1
 62
7
  6
CONTINUOUS
 10
141.268039
 20
395.048663
 11
142.131934
 21
395.912558
  0
LINE
  8
1
 62
7
  6
CONTINUOUS
 10
143.772182
 20
397.538663
 11
144.270182
 21
398.036663
  0
LINE
  8
1
 62
7
  6
CONTINUOUS
 10
142.742843
 20
396.509324
 11
143.356779
 21
397.123260
  0
LINE
  8
1
 62
7
  6
CONTINUOUS
 10
141.282182
 20
395.048663
 11
142.128907
 21
395.895388
  0
LINE
  8
1
 62
7
  6
CONTINUOUS
 10
143.786324
 20
397.538663
 11
144.284324
 21
398.036663
  0
LINE
  8
1
 62
7
  6
CONTINUOUS
 10
142.739815
 20
396.492155
 11
143.353751
 21
397.106091
  0
LINE
  8
1
 62
7
  6
CONTINUOUS
 10
141.296324
 20
395.048663
 11
142.125879
 21
395.878219
  0
LINE
  8
1
 62
7
  6
CONTINUOUS
 10
143.800466
 20
397.538663
 11
144.298466
 21
398.036663
  0
LINE
  8
1
 62
7
  6
CONTINUOUS
 10
142.736788
 20
396.474985
 11
143.350724
 21
397.088921
  0
LINE
  8
1
 62
7
  6
CONTINUOUS
 10
141.310466
 20
395.048663
 11
142.122852
 21
395.861049
  0
LINE
  8
1
 62
7
  6
CONTINUOUS
 10
143.814608
 20
397.538663
 11
144.312608
 21
398.036663
  0
LINE
  8
1
 62
7
  6
CONTINUOUS
 10
142.733760
 20
396.457815
 11
143.347696
 21
397.071751
  0
LINE
  8
1
 62
7
  6
CONTINUOUS
 10
141.324608
 20
395.048663
 11
142.119824
 21
395.843880
  0
LINE
  8
1
 62
7
  6
CONTINUOUS
 10
143.828750
 20
397.538663
 11
144.326750
 21
398.036663
  0
LINE
  8
1
 62
7
  6
CONTINUOUS
 10
142.730733
 20
396.440646
 11
143.344669
 21
397.054582
  0
LINE
  8
1
 62
7
  6
CONTINUOUS
 10
141.338750
 20
395.048663
 11
142.116797
 21
395.826710
  0
LINE
  8
1
 62
7
  6
CONTINUOUS
 10
143.842892
 20
397.538663
 11
144.340892
 21
398.036663
  0
LINE
  8
1
 62
7
  6
CONTINUOUS
 10
142.727705
 20
396.423476
 11
143.341641
 21
397.037412
  0
LINE
  8
1
 62
7
  6
CONTINUOUS
 10
141.352892
 20
395.048663
 11
142.113769
 21
395.809540
  0
LINE
  8
1
 62
7
  6
CONTINUOUS
 10
143.857034
 20
397.538663
 11
144.355034
 21
398.036663
  0
LINE
  8
1
 62
7
  6
CONTINUOUS
 10
142.724678
 20
396.406307
 11
143.338614
 21
397.020243
  0
LINE
  8
1
 62
7
  6
CONTINUOUS
 10
141.367034
 20
395.048663
 11
142.110742
 21
395.792371
  0
LINE
  8
1
 62
7
  6
CONTINUOUS
 10
143.871177
 20
397.538663
 11
144.369177
 21
398.036663
  0
LINE
  8
1
 62
7
  6
CONTINUOUS
 10
142.721650
 20
396.389137
 11
143.335586
 21
397.003073
  0
LINE
  8
1
 62
7
  6
CONTINUOUS
 10
141.381177
 20
395.048663
 11
142.107714
 21
395.775201
  0
LINE
  8
1
 62
7
  6
CONTINUOUS
 10
143.885319
 20
397.538663
 11
144.383319
 21
398.036663
  0
LINE
  8
1
 62
7
  6
CONTINUOUS
 10
142.718623
 20
396.371967
 11
143.332559
 21
396.985903
  0
LINE
  8
1
 62
7
  6
CONTINUOUS
 10
141.395319
 20
395.048663
 11
142.104687
 21
395.758032
  0
LINE
  8
1
 62
7
  6
CONTINUOUS
 10
143.899461
 20
397.538663
 11
144.397461
 21
398.036663
  0
LINE
  8
1
 62
7
  6
CONTINUOUS
 10
142.715595
 20
396.354798
 11
143.329531
 21
396.968734
  0
LINE
  8
1
 62
7
  6
CONTINUOUS
 10
141.409461
 20
395.048663
 11
142.101660
 21
395.740862
  0
LINE
  8
1
 62
7
  6
CONTINUOUS
 10
143.913603
 20
397.538663
 11
144.411603
 21
398.036663
  0
LINE
  8
1
 62
7
  6
CONTINUOUS
 10
142.712568
 20
396.337628
 11
143.326504
 21
396.951564
  0
LINE
  8
1
 62
7
  6
CONTINUOUS
 10
141.423603
 20
395.048663
 11
142.098632
 21
395.723692
  0
LINE
  8
1
 62
7
  6
CONTINUOUS
 10
143.927745
 20
397.538663
 11
144.425745
 21
398.036663
  0
LINE
  8
1
 62
7
  6
CONTINUOUS
 10
142.709541
 20
396.320459
 11
143.323476
 21
396.934395
  0
LINE
  8
1
 62
7
  6
CONTINUOUS
 10
141.437745
 20
395.048663
 11
142.095605
 21
395.706523
  0
LINE
  8
1
 62
7
  6
CONTINUOUS
 10
143.934385
 20
397.531161
 11
144.439887
 21
398.036663
  0
LINE
  8
1
 62
7
  6
CONTINUOUS
 10
142.706513
 20
396.303289
 11
143.320449
 21
396.917225
  0
LINE
  8
1
 62
7
  6
CONTINUOUS
 10
141.451887
 20
395.048663
 11
142.092577
 21
395.689353
  0
LINE
  8
1
 62
7
  6
CONTINUOUS
 10
143.931357
 20
397.513991
 11
144.454029
 21
398.036663
  0
LINE
  8
1
 62
7
  6
CONTINUOUS
 10
142.703486
 20
396.286119
 11
143.317422
 21
396.900055
  0
LINE
  8
1
 62
7
  6
CONTINUOUS
 10
141.466029
 20
395.048663
 11
142.089550
 21
395.672184
  0
LINE
  8
1
 62
7
  6
CONTINUOUS
 10
143.928330
 20
397.496822
 11
144.468171
 21
398.036663
  0
LINE
  8
1
 62
7
  6
CONTINUOUS
 10
142.700458
 20
396.268950
 11
143.314394
 21
396.882886
  0
LINE
  8
1
 62
7
  6
CONTINUOUS
 10
141.480171
 20
395.048663
 11
142.086522
 21
395.655014
  0
LINE
  8
1
 62
7
  6
CONTINUOUS
 10
143.925303
 20
397.479652
 11
144.482314
 21
398.036663
  0
LINE
  8
1
 62
7
  6
CONTINUOUS
 10
142.697431
 20
396.251780
 11
143.311367
 21
396.865716
  0
LINE
  8
1
 62
7
  6
CONTINUOUS
 10
141.494314
 20
395.048663
 11
142.083495
 21
395.637844
  0
LINE
  8
1
 62
7
  6
CONTINUOUS
 10
143.922275
 20
397.462483
 11
144.496456
 21
398.036663
  0
LINE
  8
1
 62
7
  6
CONTINUOUS
 10
142.694403
 20
396.234611
 11
143.308339
 21
396.848547
  0
LINE
  8
1
 62
7
  6
CONTINUOUS
 10
141.508456
 20
395.048663
 11
142.080467
 21
395.620675
  0
LINE
  8
1
 62
7
  6
CONTINUOUS
 10
143.919248
 20
397.445313
 11
144.510598
 21
398.036663
  0
LINE
  8
1
 62
7
  6
CONTINUOUS
 10
142.691376
 20
396.217441
 11
143.305312
 21
396.831377
  0
LINE
  8
1
 62
7
  6
CONTINUOUS
 10
141.522598
 20
395.048663
 11
142.077440
 21
395.603505
  0
LINE
  8
1
 62
7
  6
CONTINUOUS
 10
143.916220
 20
397.428143
 11
144.524740
 21
398.036663
  0
LINE
  8
1
 62
7
  6
CONTINUOUS
 10
142.688348
 20
396.200271
 11
143.302284
 21
396.814207
  0
LINE
  8
1
 62
7
  6
CONTINUOUS
 10
141.536740
 20
395.048663
 11
142.074412
 21
395.586336
  0
LINE
  8
1
 62
7
  6
CONTINUOUS
 10
143.913193
 20
397.410974
 11
144.538882
 21
398.036663
  0
LINE
  8
1
 62
7
  6
CONTINUOUS
 10
142.685321
 20
396.183102
 11
143.299257
 21
396.797038
  0
LINE
  8
1
 62
7
  6
CONTINUOUS
 10
141.550882
 20
395.048663
 11
142.071385
 21
395.569166
  0
LINE
  8
1
 62
7
  6
CONTINUOUS
 10
143.910165
 20
397.393804
 11
144.553024
 21
398.036663
  0
LINE
  8
1
 62
7
  6
CONTINUOUS
 10
142.682293
 20
396.165932
 11
143.296229
 21
396.779868
  0
LINE
  8
1
 62
7
  6
CONTINUOUS
 10
141.565024
 20
395.048663
 11
142.068357
 21
395.551996
  0
LINE
  8
1
 62
7
  6
CONTINUOUS
 10
143.907138
 20
397.376635
 11
144.567166
 21
398.036663
  0
LINE
  8
1
 62
7
  6
CONTINUOUS
 10
142.679266
 20
396.148763
 11
143.293202
 21
396.762699
  0
LINE
  8
1
 62
7
  6
CONTINUOUS
 10
141.579166
 20
395.048663
 11
142.077166
 21
395.546663
  0
LINE
  8
1
 62
7
  6
CONTINUOUS
 10
143.904110
 20
397.359465
 11
144.581309
 21
398.036663
  0
LINE
  8
1
 62
7
  6
CONTINUOUS
 10
142.676238
 20
396.131593
 11
143.290174
 21
396.745529
  0
LINE
  8
1
 62
7
  6
CONTINUOUS
 10
141.593309
 20
395.048663
 11
142.091309
 21
395.546663
  0
LINE
  8
1
 62
7
  6
CONTINUOUS
 10
143.901083
 20
397.342295
 11
144.595451
 21
398.036663
  0
LINE
  8
1
 62
7
  6
CONTINUOUS
 10
142.673211
 20
396.114423
 11
143.287147
 21
396.728359
  0
LINE
  8
1
 62
7
  6
CONTINUOUS
 10
141.607451
 20
395.048663
 11
142.105451
 21
395.546663
  0
LINE
  8
1
 62
7
  6
CONTINUOUS
 10
143.898055
 20
397.325126
 11
144.609593
 21
398.036663
  0
LINE
  8
1
 62
7
  6
CONTINUOUS
 10
142.670184
 20
396.097254
 11
143.284119
 21
396.711190
  0
LINE
  8
1
 62
7
  6
CONTINUOUS
 10
141.621593
 20
395.048663
 11
142.119593
 21
395.546663
  0
LINE
  8
1
 62
7
  6
CONTINUOUS
 10
143.895028
 20
397.307956
 11
144.623735
 21
398.036663
  0
LINE
  8
1
 62
7
  6
CONTINUOUS
 10
142.667156
 20
396.080084
 11
143.281092
 21
396.694020
  0
LINE
  8
1
 62
7
  6
CONTINUOUS
 10
141.635735
 20
395.048663
 11
142.133735
 21
395.546663
  0
LINE
  8
1
 62
7
  6
CONTINUOUS
 10
143.892000
 20
397.290787
 11
144.637877
 21
398.036663
  0
LINE
  8
1
 62
7
  6
CONTINUOUS
 10
142.664129
 20
396.062915
 11
143.278064
 21
396.676851
  0
LINE
  8
1
 62
7
  6
CONTINUOUS
 10
141.649877
 20
395.048663
 11
142.147877
 21
395.546663
  0
LINE
  8
1
 62
7
  6
CONTINUOUS
 10
143.888973
 20
397.273617
 11
144.652019
 21
398.036663
  0
LINE
  8
1
 62
7
  6
CONTINUOUS
 10
142.661101
 20
396.045745
 11
143.275037
 21
396.659681
  0
LINE
  8
1
 62
7
  6
CONTINUOUS
 10
141.664019
 20
395.048663
 11
142.162019
 21
395.546663
  0
LINE
  8
1
 62
7
  6
CONTINUOUS
 10
143.885945
 20
397.256447
 11
144.666161
 21
398.036663
  0
LINE
  8
1
 62
7
  6
CONTINUOUS
 10
142.658074
 20
396.028575
 11
143.272010
 21
396.642511
  0
LINE
  8
1
 62
7
  6
CONTINUOUS
 10
141.678161
 20
395.048663
 11
142.176161
 21
395.546663
  0
LINE
  8
1
 62
7
  6
CONTINUOUS
 10
143.882918
 20
397.239278
 11
144.680303
 21
398.036663
  0
LINE
  8
1
 62
7
  6
CONTINUOUS
 10
142.655046
 20
396.011406
 11
143.268982
 21
396.625342
  0
LINE
  8
1
 62
7
  6
CONTINUOUS
 10
141.692303
 20
395.048663
 11
142.190303
 21
395.546663
  0
LINE
  8
1
 62
7
  6
CONTINUOUS
 10
143.879891
 20
397.222108
 11
144.694446
 21
398.036663
  0
LINE
  8
1
 62
7
  6
CONTINUOUS
 10
142.652019
 20
395.994236
 11
143.265955
 21
396.608172
  0
LINE
  8
1
 62
7
  6
CONTINUOUS
 10
141.706446
 20
395.048663
 11
142.204446
 21
395.546663
  0
LINE
  8
1
 62
7
  6
CONTINUOUS
 10
143.876863
 20
397.204939
 11
144.708588
 21
398.036663
  0
LINE
  8
1
 62
7
  6
CONTINUOUS
 10
142.648991
 20
395.977067
 11
143.262927
 21
396.591003
  0
LINE
  8
1
 62
7
  6
CONTINUOUS
 10
141.720588
 20
395.048663
 11
142.218588
 21
395.546663
  0
LINE
  8
1
 62
7
  6
CONTINUOUS
 10
143.873836
 20
397.187769
 11
144.722730
 21
398.036663
  0
LINE
  8
1
 62
7
  6
CONTINUOUS
 10
142.645964
 20
395.959897
 11
143.259900
 21
396.573833
  0
LINE
  8
1
 62
7
  6
CONTINUOUS
 10
141.734730
 20
395.048663
 11
142.232730
 21
395.546663
  0
LINE
  8
1
 62
7
  6
CONTINUOUS
 10
143.870808
 20
397.170599
 11
144.736872
 21
398.036663
  0
LINE
  8
1
 62
7
  6
CONTINUOUS
 10
142.642936
 20
395.942727
 11
143.256872
 21
396.556663
  0
LINE
  8
1
 62
7
  6
CONTINUOUS
 10
141.748872
 20
395.048663
 11
142.246872
 21
395.546663
  0
LINE
  8
1
 62
7
  6
CONTINUOUS
 10
143.867781
 20
397.153430
 11
144.751014
 21
398.036663
  0
LINE
  8
1
 62
7
  6
CONTINUOUS
 10
142.639909
 20
395.925558
 11
143.253845
 21
396.539494
  0
LINE
  8
1
 62
7
  6
CONTINUOUS
 10
141.763014
 20
395.048663
 11
142.261014
 21
395.546663
  0
LINE
  8
1
 62
7
  6
CONTINUOUS
 10
143.864753
 20
397.136260
 11
144.765156
 21
398.036663
  0
LINE
  8
1
 62
7
  6
CONTINUOUS
 10
142.636881
 20
395.908388
 11
143.250817
 21
396.522324
  0
LINE
  8
1
 62
7
  6
CONTINUOUS
 10
141.777156
 20
395.048663
 11
142.275156
 21
395.546663
  0
LINE
  8
1
 62
7
  6
CONTINUOUS
 10
143.861726
 20
397.119091
 11
144.779298
 21
398.036663
  0
LINE
  8
1
 62
7
  6
CONTINUOUS
 10
142.633854
 20
395.891219
 11
143.247790
 21
396.505155
  0
LINE
  8
1
 62
7
  6
CONTINUOUS
 10
141.791298
 20
395.048663
 11
142.289298
 21
395.546663
  0
LINE
  8
1
 62
7
  6
CONTINUOUS
 10
143.858698
 20
397.101921
 11
144.793441
 21
398.036663
  0
LINE
  8
1
 62
7
  6
CONTINUOUS
 10
142.630826
 20
395.874049
 11
143.244762
 21
396.487985
  0
LINE
  8
1
 62
7
  6
CONTINUOUS
 10
141.805441
 20
395.048663
 11
142.303441
 21
395.546663
  0
LINE
  8
1
 62
7
  6
CONTINUOUS
 10
143.855671
 20
397.084751
 11
144.807583
 21
398.036663
  0
LINE
  8
1
 62
7
  6
CONTINUOUS
 10
142.627799
 20
395.856879
 11
143.241735
 21
396.470815
  0
LINE
  8
1
 62
7
  6
CONTINUOUS
 10
141.819583
 20
395.048663
 11
142.317583
 21
395.546663
  0
LINE
  8
1
 62
7
  6
CONTINUOUS
 10
143.852643
 20
397.067582
 11
144.821725
 21
398.036663
  0
LINE
  8
1
 62
7
  6
CONTINUOUS
 10
142.624772
 20
395.839710
 11
143.238707
 21
396.453646
  0
LINE
  8
1
 62
7
  6
CONTINUOUS
 10
141.833725
 20
395.048663
 11
142.331725
 21
395.546663
  0
LINE
  8
1
 62
7
  6
CONTINUOUS
 10
143.849616
 20
397.050412
 11
144.835867
 21
398.036663
  0
LINE
  8
1
 62
7
  6
CONTINUOUS
 10
142.621744
 20
395.822540
 11
143.235680
 21
396.436476
  0
LINE
  8
1
 62
7
  6
CONTINUOUS
 10
141.847867
 20
395.048663
 11
142.345867
 21
395.546663
  0
LINE
  8
1
 62
7
  6
CONTINUOUS
 10
143.846588
 20
397.033243
 11
144.850009
 21
398.036663
  0
LINE
  8
1
 62
7
  6
CONTINUOUS
 10
142.618717
 20
395.805371
 11
143.232653
 21
396.419307
  0
LINE
  8
1
 62
7
  6
CONTINUOUS
 10
141.862009
 20
395.048663
 11
142.360009
 21
395.546663
  0
LINE
  8
1
 62
7
  6
CONTINUOUS
 10
143.843561
 20
397.016073
 11
144.864151
 21
398.036663
  0
LINE
  8
1
 62
7
  6
CONTINUOUS
 10
142.615689
 20
395.788201
 11
143.229625
 21
396.402137
  0
LINE
  8
1
 62
7
  6
CONTINUOUS
 10
141.876151
 20
395.048663
 11
142.374151
 21
395.546663
  0
LINE
  8
1
 62
7
  6
CONTINUOUS
 10
143.840534
 20
396.998903
 11
144.878293
 21
398.036663
  0
LINE
  8
1
 62
7
  6
CONTINUOUS
 10
142.612662
 20
395.771031
 11
143.226598
 21
396.384967
  0
LINE
  8
1
 62
7
  6
CONTINUOUS
 10
141.890293
 20
395.048663
 11
142.388293
 21
395.546663
  0
LINE
  8
1
 62
7
  6
CONTINUOUS
 10
143.837506
 20
396.981734
 11
144.892436
 21
398.036663
  0
LINE
  8
1
 62
7
  6
CONTINUOUS
 10
142.609634
 20
395.753862
 11
143.223570
 21
396.367798
  0
LINE
  8
1
 62
7
  6
CONTINUOUS
 10
141.904436
 20
395.048663
 11
142.402436
 21
395.546663
  0
LINE
  8
1
 62
7
  6
CONTINUOUS
 10
143.834479
 20
396.964564
 11
144.906578
 21
398.036663
  0
LINE
  8
1
 62
7
  6
CONTINUOUS
 10
142.606607
 20
395.736692
 11
143.220543
 21
396.350628
  0
LINE
  8
1
 62
7
  6
CONTINUOUS
 10
141.918578
 20
395.048663
 11
142.416578
 21
395.546663
  0
LINE
  8
1
 62
7
  6
CONTINUOUS
 10
143.831451
 20
396.947395
 11
144.920720
 21
398.036663
  0
LINE
  8
1
 62
7
  6
CONTINUOUS
 10
142.603579
 20
395.719523
 11
143.217515
 21
396.333459
  0
LINE
  8
1
 62
7
  6
CONTINUOUS
 10
141.932720
 20
395.048663
 11
142.430720
 21
395.546663
  0
LINE
  8
1
 62
7
  6
CONTINUOUS
 10
143.828424
 20
396.930225
 11
144.934862
 21
398.036663
  0
LINE
  8
1
 62
7
  6
CONTINUOUS
 10
142.600552
 20
395.702353
 11
143.214488
 21
396.316289
  0
LINE
  8
1
 62
7
  6
CONTINUOUS
 10
141.946862
 20
395.048663
 11
142.444862
 21
395.546663
  0
LINE
  8
1
 62
7
  6
CONTINUOUS
 10
144.451004
 20
397.538663
 11
144.949004
 21
398.036663
  0
LINE
  8
1
 62
7
  6
CONTINUOUS
 10
143.825396
 20
396.913055
 11
144.439332
 21
397.526991
  0
LINE
  8
1
 62
7
  6
CONTINUOUS
 10
142.597524
 20
395.685184
 11
143.211460
 21
396.299119
  0
LINE
  8
1
 62
7
  6
CONTINUOUS
 10
141.961004
 20
395.048663
 11
142.459004
 21
395.546663
  0
LINE
  8
1
 62
7
  6
CONTINUOUS
 10
144.465146
 20
397.538663
 11
144.963146
 21
398.036663
  0
LINE
  8
1
 62
7
  6
CONTINUOUS
 10
143.822369
 20
396.895886
 11
144.436305
 21
397.509822
  0
LINE
  8
1
 62
7
  6
CONTINUOUS
 10
142.594497
 20
395.668014
 11
143.208433
 21
396.281950
  0
LINE
  8
1
 62
7
  6
CONTINUOUS
 10
141.975146
 20
395.048663
 11
142.473146
 21
395.546663
  0
LINE
  8
1
 62
7
  6
CONTINUOUS
 10
144.479288
 20
397.538663
 11
144.977288
 21
398.036663
  0
LINE
  8
1
 62
7
  6
CONTINUOUS
 10
143.819341
 20
396.878716
 11
144.433277
 21
397.492652
  0
LINE
  8
1
 62
7
  6
CONTINUOUS
 10
142.591469
 20
395.650844
 11
143.205405
 21
396.264780
  0
LINE
  8
1
 62
7
  6
CONTINUOUS
 10
141.989288
 20
395.048663
 11
142.487288
 21
395.546663
  0
LINE
  8
1
 62
7
  6
CONTINUOUS
 10
144.493430
 20
397.538663
 11
144.991430
 21
398.036663
  0
LINE
  8
1
 62
7
  6
CONTINUOUS
 10
143.816314
 20
396.861547
 11
144.430250
 21
397.475482
  0
LINE
  8
1
 62
7
  6
CONTINUOUS
 10
142.588442
 20
395.633675
 11
143.202378
 21
396.247611
  0
LINE
  8
1
 62
7
  6
CONTINUOUS
 10
142.003430
 20
395.048663
 11
142.501430
 21
395.546663
  0
LINE
  8
1
 62
7
  6
CONTINUOUS
 10
144.507573
 20
397.538663
 11
145.005573
 21
398.036663
  0
LINE
  8
1
 62
7
  6
CONTINUOUS
 10
143.813286
 20
396.844377
 11
144.427222
 21
397.458313
  0
LINE
  8
1
 62
7
  6
CONTINUOUS
 10
142.585415
 20
395.616505
 11
143.199350
 21
396.230441
  0
LINE
  8
1
 62
7
  6
CONTINUOUS
 10
142.017573
 20
395.048663
 11
142.515573
 21
395.546663
  0
LINE
  8
1
 62
7
  6
CONTINUOUS
 10
144.521715
 20
397.538663
 11
145.019715
 21
398.036663
  0
LINE
  8
1
 62
7
  6
CONTINUOUS
 10
143.810259
 20
396.827207
 11
144.424195
 21
397.441143
  0
LINE
  8
1
 62
7
  6
CONTINUOUS
 10
142.582387
 20
395.599336
 11
143.196323
 21
396.213271
  0
LINE
  8
1
 62
7
  6
CONTINUOUS
 10
142.031715
 20
395.048663
 11
142.529715
 21
395.546663
  0
LINE
  8
1
 62
7
  6
CONTINUOUS
 10
144.535857
 20
397.538663
 11
145.033857
 21
398.036663
  0
LINE
  8
1
 62
7
  6
CONTINUOUS
 10
143.807231
 20
396.810038
 11
144.421167
 21
397.423974
  0
LINE
  8
1
 62
7
  6
CONTINUOUS
 10
142.579360
 20
395.582166
 11
143.193296
 21
396.196102
  0
LINE
  8
1
 62
7
  6
CONTINUOUS
 10
142.045857
 20
395.048663
 11
142.543857
 21
395.546663
  0
LINE
  8
1
 62
7
  6
CONTINUOUS
 10
144.549999
 20
397.538663
 11
145.032076
 21
398.020740
  0
LINE
  8
1
 62
7
  6
CONTINUOUS
 10
143.804204
 20
396.792868
 11
144.418140
 21
397.406804
  0
LINE
  8
1
 62
7
  6
CONTINUOUS
 10
142.576332
 20
395.564996
 11
143.190268
 21
396.178932
  0
LINE
  8
1
 62
7
  6
CONTINUOUS
 10
142.059999
 20
395.048663
 11
142.557999
 21
395.546663
  0
LINE
  8
1
 62
7
  6
CONTINUOUS
 10
144.564141
 20
397.538663
 11
145.029048
 21
398.003570
  0
LINE
  8
1
 62
7
  6
CONTINUOUS
 10
143.801177
 20
396.775699
 11
144.415112
 21
397.389634
  0
LINE
  8
1
 62
7
  6
CONTINUOUS
 10
142.573305
 20
395.547827
 11
143.187241
 21
396.161763
  0
LINE
  8
1
 62
7
  6
CONTINUOUS
 10
142.074141
 20
395.048663
 11
142.572141
 21
395.546663
  0
LINE
  8
1
 62
7
  6
CONTINUOUS
 10
144.578283
 20
397.538663
 11
145.026021
 21
397.986401
  0
LINE
  8
1
 62
7
  6
CONTINUOUS
 10
143.798149
 20
396.758529
 11
144.412085
 21
397.372465
  0
LINE
  8
1
 62
7
  6
CONTINUOUS
 10
142.088283
 20
395.048663
 11
143.184213
 21
396.144593
  0
LINE
  8
1
 62
7
  6
CONTINUOUS
 10
144.592425
 20
397.538663
 11
145.022993
 21
397.969231
  0
LINE
  8
1
 62
7
  6
CONTINUOUS
 10
143.795122
 20
396.741359
 11
144.409058
 21
397.355295
  0
LINE
  8
1
 62
7
  6
CONTINUOUS
 10
142.102425
 20
395.048663
 11
143.181186
 21
396.127423
  0
LINE
  8
1
 62
7
  6
CONTINUOUS
 10
144.606568
 20
397.538663
 11
145.019966
 21
397.952062
  0
LINE
  8
1
 62
7
  6
CONTINUOUS
 10
143.792094
 20
396.724190
 11
144.406030
 21
397.338126
  0
LINE
  8
1
 62
7
  6
CONTINUOUS
 10
142.116568
 20
395.048663
 11
143.178158
 21
396.110254
  0
LINE
  8
1
 62
7
  6
CONTINUOUS
 10
144.620710
 20
397.538663
 11
145.016938
 21
397.934892
  0
LINE
  8
1
 62
7
  6
CONTINUOUS
 10
143.789067
 20
396.707020
 11
144.403003
 21
397.320956
  0
LINE
  8
1
 62
7
  6
CONTINUOUS
 10
142.130710
 20
395.048663
 11
143.175131
 21
396.093084
  0
LINE
  8
1
 62
7
  6
CONTINUOUS
 10
144.634852
 20
397.538663
 11
145.013911
 21
397.917722
  0
LINE
  8
1
 62
7
  6
CONTINUOUS
 10
143.786039
 20
396.689851
 11
144.399975
 21
397.303786
  0
LINE
  8
1
 62
7
  6
CONTINUOUS
 10
142.144852
 20
395.048663
 11
143.172103
 21
396.075915
  0
LINE
  8
1
 62
7
  6
CONTINUOUS
 10
144.648994
 20
397.538663
 11
145.010884
 21
397.900553
  0
LINE
  8
1
 62
7
  6
CONTINUOUS
 10
143.783012
 20
396.672681
 11
144.396948
 21
397.286617
  0
LINE
  8
1
 62
7
  6
CONTINUOUS
 10
142.158994
 20
395.048663
 11
143.169076
 21
396.058745
  0
LINE
  8
1
 62
7
  6
CONTINUOUS
 10
144.663136
 20
397.538663
 11
145.007856
 21
397.883383
  0
LINE
  8
1
 62
7
  6
CONTINUOUS
 10
143.779984
 20
396.655511
 11
144.393920
 21
397.269447
  0
LINE
  8
1
 62
7
  6
CONTINUOUS
 10
142.173136
 20
395.048663
 11
143.166048
 21
396.041575
  0
LINE
  8
1
 62
7
  6
CONTINUOUS
 10
144.677278
 20
397.538663
 11
145.004829
 21
397.866214
  0
LINE
  8
1
 62
7
  6
CONTINUOUS
 10
143.776957
 20
396.638342
 11
144.390893
 21
397.252278
  0
LINE
  8
1
 62
7
  6
CONTINUOUS
 10
142.187278
 20
395.048663
 11
143.163021
 21
396.024406
  0
LINE
  8
1
 62
7
  6
CONTINUOUS
 10
144.691420
 20
397.538663
 11
145.001801
 21
397.849044
  0
LINE
  8
1
 62
7
  6
CONTINUOUS
 10
143.773929
 20
396.621172
 11
144.387865
 21
397.235108
  0
LINE
  8
1
 62
7
  6
CONTINUOUS
 10
142.201420
 20
395.048663
 11
143.159993
 21
396.007236
  0
LINE
  8
1
 62
7
  6
CONTINUOUS
 10
144.705563
 20
397.538663
 11
144.998774
 21
397.831874
  0
LINE
  8
1
 62
7
  6
CONTINUOUS
 10
143.770902
 20
396.604003
 11
144.384838
 21
397.217938
  0
LINE
  8
1
 62
7
  6
CONTINUOUS
 10
142.215563
 20
395.048663
 11
143.156966
 21
395.990067
  0
LINE
  8
1
 62
7
  6
CONTINUOUS
 10
144.719705
 20
397.538663
 11
144.995746
 21
397.814705
  0
LINE
  8
1
 62
7
  6
CONTINUOUS
 10
143.767874
 20
396.586833
 11
144.381810
 21
397.200769
  0
LINE
  8
1
 62
7
  6
CONTINUOUS
 10
142.229705
 20
395.048663
 11
143.153938
 21
395.972897
  0
LINE
  8
1
 62
7
  6
CONTINUOUS
 10
144.733847
 20
397.538663
 11
144.992719
 21
397.797535
  0
LINE
  8
1
 62
7
  6
CONTINUOUS
 10
143.764847
 20
396.569663
 11
144.378783
 21
397.183599
  0
LINE
  8
1
 62
7
  6
CONTINUOUS
 10
142.243847
 20
395.048663
 11
143.150911
 21
395.955727
  0
LINE
  8
1
 62
7
  6
CONTINUOUS
 10
144.747989
 20
397.538663
 11
144.989691
 21
397.780366
  0
LINE
  8
1
 62
7
  6
CONTINUOUS
 10
143.761819
 20
396.552494
 11
144.375755
 21
397.166430
  0
LINE
  8
1
 62
7
  6
CONTINUOUS
 10
142.257989
 20
395.048663
 11
143.147884
 21
395.938558
  0
LINE
  8
1
 62
7
  6
CONTINUOUS
 10
144.762131
 20
397.538663
 11
144.986664
 21
397.763196
  0
LINE
  8
1
 62
7
  6
CONTINUOUS
 10
143.758792
 20
396.535324
 11
144.372728
 21
397.149260
  0
LINE
  8
1
 62
7
  6
CONTINUOUS
 10
142.272131
 20
395.048663
 11
143.144856
 21
395.921388
  0
LINE
  8
1
 62
7
  6
CONTINUOUS
 10
144.776273
 20
397.538663
 11
144.983636
 21
397.746026
  0
LINE
  8
1
 62
7
  6
CONTINUOUS
 10
143.755765
 20
396.518155
 11
144.369700
 21
397.132090
  0
LINE
  8
1
 62
7
  6
CONTINUOUS
 10
142.286273
 20
395.048663
 11
143.141829
 21
395.904219
  0
LINE
  8
1
 62
7
  6
CONTINUOUS
 10
144.790415
 20
397.538663
 11
144.980609
 21
397.728857
  0
LINE
  8
1
 62
7
  6
CONTINUOUS
 10
143.752737
 20
396.500985
 11
144.366673
 21
397.114921
  0
LINE
  8
1
 62
7
  6
CONTINUOUS
 10
142.300415
 20
395.048663
 11
143.138801
 21
395.887049
  0
LINE
  8
1
 62
7
  6
CONTINUOUS
 10
144.804557
 20
397.538663
 11
144.977581
 21
397.711687
  0
LINE
  8
1
 62
7
  6
CONTINUOUS
 10
143.749710
 20
396.483815
 11
144.363646
 21
397.097751
  0
LINE
  8
1
 62
7
  6
CONTINUOUS
 10
142.314557
 20
395.048663
 11
143.135774
 21
395.869879
  0
LINE
  8
1
 62
7
  6
CONTINUOUS
 10
144.818700
 20
397.538663
 11
144.974554
 21
397.694518
  0
LINE
  8
1
 62
7
  6
CONTINUOUS
 10
143.746682
 20
396.466646
 11
144.360618
 21
397.080582
  0
LINE
  8
1
 62
7
  6
CONTINUOUS
 10
142.328700
 20
395.048663
 11
143.132746
 21
395.852710
  0
LINE
  8
1
 62
7
  6
CONTINUOUS
 10
144.832842
 20
397.538663
 11
144.971527
 21
397.677348
  0
LINE
  8
1
 62
7
  6
CONTINUOUS
 10
143.743655
 20
396.449476
 11
144.357591
 21
397.063412
  0
LINE
  8
1
 62
7
  6
CONTINUOUS
 10
142.342842
 20
395.048663
 11
143.129719
 21
395.835540
  0
LINE
  8
1
 62
7
  6
CONTINUOUS
 10
144.846984
 20
397.538663
 11
144.968499
 21
397.660178
  0
LINE
  8
1
 62
7
  6
CONTINUOUS
 10
143.740627
 20
396.432307
 11
144.354563
 21
397.046242
  0
LINE
  8
1
 62
7
  6
CONTINUOUS
 10
142.356984
 20
395.048663
 11
143.126691
 21
395.818371
  0
LINE
  8
1
 62
7
  6
CONTINUOUS
 10
144.861126
 20
397.538663
 11
144.965472
 21
397.643009
  0
LINE
  8
1
 62
7
  6
CONTINUOUS
 10
143.737600
 20
396.415137
 11
144.351536
 21
397.029073
  0
LINE
  8
1
 62
7
  6
CONTINUOUS
 10
142.371126
 20
395.048663
 11
143.123664
 21
395.801201
  0
LINE
  8
1
 62
7
  6
CONTINUOUS
 10
144.875268
 20
397.538663
 11
144.962444
 21
397.625839
  0
LINE
  8
1
 62
7
  6
CONTINUOUS
 10
143.734572
 20
396.397967
 11
144.348508
 21
397.011903
  0
LINE
  8
1
 62
7
  6
CONTINUOUS
 10
142.385268
 20
395.048663
 11
143.120636
 21
395.784031
  0
LINE
  8
1
 62
7
  6
CONTINUOUS
 10
144.889410
 20
397.538663
 11
144.959417
 21
397.608670
  0
LINE
  8
1
 62
7
  6
CONTINUOUS
 10
143.731545
 20
396.380798
 11
144.345481
 21
396.994734
  0
LINE
  8
1
 62
7
  6
CONTINUOUS
 10
142.399410
 20
395.048663
 11
143.117609
 21
395.766862
  0
LINE
  8
1
 62
7
  6
CONTINUOUS
 10
144.903552
 20
397.538663
 11
144.956389
 21
397.591500
  0
LINE
  8
1
 62
7
  6
CONTINUOUS
 10
143.728517
 20
396.363628
 11
144.342453
 21
396.977564
  0
LINE
  8
1
 62
7
  6
CONTINUOUS
 10
142.413552
 20
395.048663
 11
143.114581
 21
395.749692
  0
LINE
  8
1
 62
7
  6
CONTINUOUS
 10
144.917695
 20
397.538663
 11
144.953362
 21
397.574330
  0
LINE
  8
1
 62
7
  6
CONTINUOUS
 10
143.725490
 20
396.346459
 11
144.339426
 21
396.960394
  0
LINE
  8
1
 62
7
  6
CONTINUOUS
 10
142.427695
 20
395.048663
 11
143.111554
 21
395.732523
  0
LINE
  8
1
 62
7
  6
CONTINUOUS
 10
144.931837
 20
397.538663
 11
144.950334
 21
397.557161
  0
LINE
  8
1
 62
7
  6
CONTINUOUS
 10
143.722462
 20
396.329289
 11
144.336398
 21
396.943225
  0
LINE
  8
1
 62
7
  6
CONTINUOUS
 10
142.441837
 20
395.048663
 11
143.108527
 21
395.715353
  0
LINE
  8
1
 62
7
  6
CONTINUOUS
 10
144.945979
 20
397.538663
 11
144.947307
 21
397.539991
  0
LINE
  8
1
 62
7
  6
CONTINUOUS
 10
143.719435
 20
396.312119
 11
144.333371
 21
396.926055
  0
LINE
  8
1
 62
7
  6
CONTINUOUS
 10
142.455979
 20
395.048663
 11
143.105499
 21
395.698183
  0
LINE
  8
1
 62
7
  6
CONTINUOUS
 10
143.716408
 20
396.294950
 11
144.330343
 21
396.908886
  0
LINE
  8
1
 62
7
  6
CONTINUOUS
 10
142.470121
 20
395.048663
 11
143.102472
 21
395.681014
  0
LINE
  8
1
 62
7
  6
CONTINUOUS
 10
143.713380
 20
396.277780
 11
144.327316
 21
396.891716
  0
LINE
  8
1
 62
7
  6
CONTINUOUS
 10
142.484263
 20
395.048663
 11
143.099444
 21
395.663844
  0
LINE
  8
1
 62
7
  6
CONTINUOUS
 10
143.710353
 20
396.260611
 11
144.324289
 21
396.874546
  0
LINE
  8
1
 62
7
  6
CONTINUOUS
 10
142.498405
 20
395.048663
 11
143.096417
 21
395.646675
  0
LINE
  8
1
 62
7
  6
CONTINUOUS
 10
143.707325
 20
396.243441
 11
144.321261
 21
396.857377
  0
LINE
  8
1
 62
7
  6
CONTINUOUS
 10
142.512547
 20
395.048663
 11
143.093389
 21
395.629505
  0
LINE
  8
1
 62
7
  6
CONTINUOUS
 10
143.704298
 20
396.226271
 11
144.318234
 21
396.840207
  0
LINE
  8
1
 62
7
  6
CONTINUOUS
 10
142.526689
 20
395.048663
 11
143.090362
 21
395.612335
  0
LINE
  8
1
 62
7
  6
CONTINUOUS
 10
143.701270
 20
396.209102
 11
144.315206
 21
396.823038
  0
LINE
  8
1
 62
7
  6
CONTINUOUS
 10
142.540832
 20
395.048663
 11
143.087334
 21
395.595166
  0
LINE
  8
1
 62
7
  6
CONTINUOUS
 10
143.698243
 20
396.191932
 11
144.312179
 21
396.805868
  0
LINE
  8
1
 62
7
  6
CONTINUOUS
 10
142.554974
 20
395.048663
 11
143.084307
 21
395.577996
  0
LINE
  8
1
 62
7
  6
CONTINUOUS
 10
143.695215
 20
396.174763
 11
144.309151
 21
396.788698
  0
LINE
  8
1
 62
7
  6
CONTINUOUS
 10
142.569116
 20
395.048663
 11
143.081279
 21
395.560827
  0
LINE
  8
1
 62
7
  6
CONTINUOUS
 10
143.692188
 20
396.157593
 11
144.306124
 21
396.771529
  0
LINE
  8
1
 62
7
  6
CONTINUOUS
 10
142.583258
 20
395.048663
 11
143.081258
 21
395.546663
  0
LINE
  8
1
 62
7
  6
CONTINUOUS
 10
143.689160
 20
396.140423
 11
144.303096
 21
396.754359
  0
LINE
  8
1
 62
7
  6
CONTINUOUS
 10
142.597400
 20
395.048663
 11
143.095400
 21
395.546663
  0
LINE
  8
1
 62
7
  6
CONTINUOUS
 10
143.686133
 20
396.123254
 11
144.300069
 21
396.737190
  0
LINE
  8
1
 62
7
  6
CONTINUOUS
 10
142.611542
 20
395.048663
 11
143.109542
 21
395.546663
  0
LINE
  8
1
 62
7
  6
CONTINUOUS
 10
143.683105
 20
396.106084
 11
144.297041
 21
396.720020
  0
LINE
  8
1
 62
7
  6
CONTINUOUS
 10
142.625684
 20
395.048663
 11
143.123684
 21
395.546663
  0
LINE
  8
1
 62
7
  6
CONTINUOUS
 10
143.680078
 20
396.088915
 11
144.294014
 21
396.702850
  0
LINE
  8
1
 62
7
  6
CONTINUOUS
 10
142.639827
 20
395.048663
 11
143.137827
 21
395.546663
  0
LINE
  8
1
 62
7
  6
CONTINUOUS
 10
143.677051
 20
396.071745
 11
144.290986
 21
396.685681
  0
LINE
  8
1
 62
7
  6
CONTINUOUS
 10
142.653969
 20
395.048663
 11
143.151969
 21
395.546663
  0
LINE
  8
1
 62
7
  6
CONTINUOUS
 10
143.674023
 20
396.054575
 11
144.287959
 21
396.668511
  0
LINE
  8
1
 62
7
  6
CONTINUOUS
 10
142.668111
 20
395.048663
 11
143.166111
 21
395.546663
  0
LINE
  8
1
 62
7
  6
CONTINUOUS
 10
143.670996
 20
396.037406
 11
144.284931
 21
396.651342
  0
LINE
  8
1
 62
7
  6
CONTINUOUS
 10
142.682253
 20
395.048663
 11
143.180253
 21
395.546663
  0
LINE
  8
1
 62
7
  6
CONTINUOUS
 10
143.667968
 20
396.020236
 11
144.281904
 21
396.634172
  0
LINE
  8
1
 62
7
  6
CONTINUOUS
 10
142.696395
 20
395.048663
 11
143.194395
 21
395.546663
  0
LINE
  8
1
 62
7
  6
CONTINUOUS
 10
143.664941
 20
396.003067
 11
144.278877
 21
396.617003
  0
LINE
  8
1
 62
7
  6
CONTINUOUS
 10
142.710537
 20
395.048663
 11
143.208537
 21
395.546663
  0
LINE
  8
1
 62
7
  6
CONTINUOUS
 10
143.661913
 20
395.985897
 11
144.275849
 21
396.599833
  0
LINE
  8
1
 62
7
  6
CONTINUOUS
 10
142.724679
 20
395.048663
 11
143.222679
 21
395.546663
  0
LINE
  8
1
 62
7
  6
CONTINUOUS
 10
143.658886
 20
395.968727
 11
144.272822
 21
396.582663
  0
LINE
  8
1
 62
7
  6
CONTINUOUS
 10
142.738822
 20
395.048663
 11
143.236822
 21
395.546663
  0
LINE
  8
1
 62
7
  6
CONTINUOUS
 10
143.655858
 20
395.951558
 11
144.269794
 21
396.565494
  0
LINE
  8
1
 62
7
  6
CONTINUOUS
 10
142.752964
 20
395.048663
 11
143.250964
 21
395.546663
  0
LINE
  8
1
 62
7
  6
CONTINUOUS
 10
143.652831
 20
395.934388
 11
144.266767
 21
396.548324
  0
LINE
  8
1
 62
7
  6
CONTINUOUS
 10
142.767106
 20
395.048663
 11
143.265106
 21
395.546663
  0
LINE
  8
1
 62
7
  6
CONTINUOUS
 10
143.649803
 20
395.917219
 11
144.263739
 21
396.531155
  0
LINE
  8
1
 62
7
  6
CONTINUOUS
 10
142.781248
 20
395.048663
 11
143.279248
 21
395.546663
  0
LINE
  8
1
 62
7
  6
CONTINUOUS
 10
143.646776
 20
395.900049
 11
144.260712
 21
396.513985
  0
LINE
  8
1
 62
7
  6
CONTINUOUS
 10
142.795390
 20
395.048663
 11
143.293390
 21
395.546663
  0
LINE
  8
1
 62
7
  6
CONTINUOUS
 10
143.643748
 20
395.882879
 11
144.257684
 21
396.496815
  0
LINE
  8
1
 62
7
  6
CONTINUOUS
 10
142.809532
 20
395.048663
 11
143.307532
 21
395.546663
  0
LINE
  8
1
 62
7
  6
CONTINUOUS
 10
143.640721
 20
395.865710
 11
144.254657
 21
396.479646
  0
LINE
  8
1
 62
7
  6
CONTINUOUS
 10
142.823674
 20
395.048663
 11
143.321674
 21
395.546663
  0
LINE
  8
1
 62
7
  6
CONTINUOUS
 10
143.637693
 20
395.848540
 11
144.251629
 21
396.462476
  0
LINE
  8
1
 62
7
  6
CONTINUOUS
 10
142.837816
 20
395.048663
 11
143.335816
 21
395.546663
  0
LINE
  8
1
 62
7
  6
CONTINUOUS
 10
143.634666
 20
395.831371
 11
144.248602
 21
396.445307
  0
LINE
  8
1
 62
7
  6
CONTINUOUS
 10
142.851959
 20
395.048663
 11
143.349959
 21
395.546663
  0
LINE
  8
1
 62
7
  6
CONTINUOUS
 10
143.631639
 20
395.814201
 11
144.245574
 21
396.428137
  0
LINE
  8
1
 62
7
  6
CONTINUOUS
 10
142.866101
 20
395.048663
 11
143.364101
 21
395.546663
  0
LINE
  8
1
 62
7
  6
CONTINUOUS
 10
143.628611
 20
395.797031
 11
144.242547
 21
396.410967
  0
LINE
  8
1
 62
7
  6
CONTINUOUS
 10
142.880243
 20
395.048663
 11
143.378243
 21
395.546663
  0
LINE
  8
1
 62
7
  6
CONTINUOUS
 10
143.625584
 20
395.779862
 11
144.239520
 21
396.393798
  0
LINE
  8
1
 62
7
  6
CONTINUOUS
 10
142.894385
 20
395.048663
 11
143.392385
 21
395.546663
  0
LINE
  8
1
 62
7
  6
CONTINUOUS
 10
143.622556
 20
395.762692
 11
144.236492
 21
396.376628
  0
LINE
  8
1
 62
7
  6
CONTINUOUS
 10
142.908527
 20
395.048663
 11
143.406527
 21
395.546663
  0
LINE
  8
1
 62
7
  6
CONTINUOUS
 10
143.619529
 20
395.745523
 11
144.233465
 21
396.359459
  0
LINE
  8
1
 62
7
  6
CONTINUOUS
 10
142.922669
 20
395.048663
 11
143.420669
 21
395.546663
  0
LINE
  8
1
 62
7
  6
CONTINUOUS
 10
143.616501
 20
395.728353
 11
144.230437
 21
396.342289
  0
LINE
  8
1
 62
7
  6
CONTINUOUS
 10
142.936811
 20
395.048663
 11
143.434811
 21
395.546663
  0
LINE
  8
1
 62
7
  6
CONTINUOUS
 10
143.613474
 20
395.711183
 11
144.227410
 21
396.325119
  0
LINE
  8
1
 62
7
  6
CONTINUOUS
 10
142.950954
 20
395.048663
 11
143.448954
 21
395.546663
  0
LINE
  8
1
 62
7
  6
CONTINUOUS
 10
143.610446
 20
395.694014
 11
144.224382
 21
396.307950
  0
LINE
  8
1
 62
7
  6
CONTINUOUS
 10
142.965096
 20
395.048663
 11
143.463096
 21
395.546663
  0
LINE
  8
1
 62
7
  6
CONTINUOUS
 10
143.607419
 20
395.676844
 11
144.221355
 21
396.290780
  0
LINE
  8
1
 62
7
  6
CONTINUOUS
 10
142.979238
 20
395.048663
 11
143.477238
 21
395.546663
  0
LINE
  8
1
 62
7
  6
CONTINUOUS
 10
143.604391
 20
395.659675
 11
144.218327
 21
396.273611
  0
LINE
  8
1
 62
7
  6
CONTINUOUS
 10
142.993380
 20
395.048663
 11
143.491380
 21
395.546663
  0
LINE
  8
1
 62
7
  6
CONTINUOUS
 10
143.601364
 20
395.642505
 11
144.215300
 21
396.256441
  0
LINE
  8
1
 62
7
  6
CONTINUOUS
 10
143.007522
 20
395.048663
 11
143.505522
 21
395.546663
  0
LINE
  8
1
 62
7
  6
CONTINUOUS
 10
143.598336
 20
395.625335
 11
144.212272
 21
396.239271
  0
LINE
  8
1
 62
7
  6
CONTINUOUS
 10
143.021664
 20
395.048663
 11
143.519664
 21
395.546663
  0
LINE
  8
1
 62
7
  6
CONTINUOUS
 10
143.595309
 20
395.608166
 11
144.209245
 21
396.222102
  0
LINE
  8
1
 62
7
  6
CONTINUOUS
 10
143.035806
 20
395.048663
 11
143.533806
 21
395.546663
  0
LINE
  8
1
 62
7
  6
CONTINUOUS
 10
143.592282
 20
395.590996
 11
144.206217
 21
396.204932
  0
LINE
  8
1
 62
7
  6
CONTINUOUS
 10
143.049949
 20
395.048663
 11
143.547949
 21
395.546663
  0
LINE
  8
1
 62
7
  6
CONTINUOUS
 10
143.589254
 20
395.573827
 11
144.203190
 21
396.187763
  0
LINE
  8
1
 62
7
  6
CONTINUOUS
 10
143.064091
 20
395.048663
 11
143.562091
 21
395.546663
  0
LINE
  8
1
 62
7
  6
CONTINUOUS
 10
143.586227
 20
395.556657
 11
144.200163
 21
396.170593
  0
LINE
  8
1
 62
7
  6
CONTINUOUS
 10
143.078233
 20
395.048663
 11
143.576233
 21
395.546663
  0
LINE
  8
1
 62
7
  6
CONTINUOUS
 10
143.092375
 20
395.048663
 11
144.197135
 21
396.153423
  0
LINE
  8
1
 62
7
  6
CONTINUOUS
 10
143.106517
 20
395.048663
 11
144.194108
 21
396.136254
  0
LINE
  8
1
 62
7
  6
CONTINUOUS
 10
143.120659
 20
395.048663
 11
144.191080
 21
396.119084
  0
LINE
  8
1
 62
7
  6
CONTINUOUS
 10
143.134801
 20
395.048663
 11
144.188053
 21
396.101915
  0
LINE
  8
1
 62
7
  6
CONTINUOUS
 10
143.148943
 20
395.048663
 11
144.185025
 21
396.084745
  0
LINE
  8
1
 62
7
  6
CONTINUOUS
 10
143.163086
 20
395.048663
 11
144.181998
 21
396.067575
  0
LINE
  8
1
 62
7
  6
CONTINUOUS
 10
143.177228
 20
395.048663
 11
144.178970
 21
396.050406
  0
LINE
  8
1
 62
7
  6
CONTINUOUS
 10
143.191370
 20
395.048663
 11
144.175943
 21
396.033236
  0
LINE
  8
1
 62
7
  6
CONTINUOUS
 10
143.205512
 20
395.048663
 11
144.172915
 21
396.016067
  0
LINE
  8
1
 62
7
  6
CONTINUOUS
 10
143.219654
 20
395.048663
 11
144.169888
 21
395.998897
  0
LINE
  8
1
 62
7
  6
CONTINUOUS
 10
143.233796
 20
395.048663
 11
144.166860
 21
395.981727
  0
LINE
  8
1
 62
7
  6
CONTINUOUS
 10
143.247938
 20
395.048663
 11
144.163833
 21
395.964558
  0
LINE
  8
1
 62
7
  6
CONTINUOUS
 10
143.262081
 20
395.048663
 11
144.160805
 21
395.947388
  0
LINE
  8
1
 62
7
  6
CONTINUOUS
 10
143.276223
 20
395.048663
 11
144.157778
 21
395.930219
  0
LINE
  8
1
 62
7
  6
CONTINUOUS
 10
143.290365
 20
395.048663
 11
144.154751
 21
395.913049
  0
LINE
  8
1
 62
7
  6
CONTINUOUS
 10
143.304507
 20
395.048663
 11
144.151723
 21
395.895879
  0
LINE
  8
1
 62
7
  6
CONTINUOUS
 10
143.318649
 20
395.048663
 11
144.148696
 21
395.878710
  0
LINE
  8
1
 62
7
  6
CONTINUOUS
 10
143.332791
 20
395.048663
 11
144.145668
 21
395.861540
  0
LINE
  8
1
 62
7
  6
CONTINUOUS
 10
143.346933
 20
395.048663
 11
144.142641
 21
395.844371
  0
LINE
  8
1
 62
7
  6
CONTINUOUS
 10
143.361075
 20
395.048663
 11
144.139613
 21
395.827201
  0
LINE
  8
1
 62
7
  6
CONTINUOUS
 10
143.375218
 20
395.048663
 11
144.136586
 21
395.810031
  0
LINE
  8
1
 62
7
  6
CONTINUOUS
 10
143.389360
 20
395.048663
 11
144.133558
 21
395.792862
  0
LINE
  8
1
 62
7
  6
CONTINUOUS
 10
143.403502
 20
395.048663
 11
144.130531
 21
395.775692
  0
LINE
  8
1
 62
7
  6
CONTINUOUS
 10
143.417644
 20
395.048663
 11
144.127503
 21
395.758523
  0
LINE
  8
1
 62
7
  6
CONTINUOUS
 10
143.431786
 20
395.048663
 11
144.124476
 21
395.741353
  0
LINE
  8
1
 62
7
  6
CONTINUOUS
 10
143.445928
 20
395.048663
 11
144.121448
 21
395.724183
  0
LINE
  8
1
 62
7
  6
CONTINUOUS
 10
143.460070
 20
395.048663
 11
144.118421
 21
395.707014
  0
LINE
  8
1
 62
7
  6
CONTINUOUS
 10
143.474213
 20
395.048663
 11
144.115394
 21
395.689844
  0
LINE
  8
1
 62
7
  6
CONTINUOUS
 10
143.488355
 20
395.048663
 11
144.112366
 21
395.672675
  0
LINE
  8
1
 62
7
  6
CONTINUOUS
 10
143.502497
 20
395.048663
 11
144.109339
 21
395.655505
  0
LINE
  8
1
 62
7
  6
CONTINUOUS
 10
143.516639
 20
395.048663
 11
144.106311
 21
395.638335
  0
LINE
  8
1
 62
7
  6
CONTINUOUS
 10
143.530781
 20
395.048663
 11
144.103284
 21
395.621166
  0
LINE
  8
1
 62
7
  6
CONTINUOUS
 10
143.544923
 20
395.048663
 11
144.100256
 21
395.603996
  0
LINE
  8
1
 62
7
  6
CONTINUOUS
 10
143.559065
 20
395.048663
 11
144.097229
 21
395.586827
  0
LINE
  8
1
 62
7
  6
CONTINUOUS
 10
143.573208
 20
395.048663
 11
144.094201
 21
395.569657
  0
LINE
  8
1
 62
7
  6
CONTINUOUS
 10
143.587350
 20
395.048663
 11
144.091174
 21
395.552487
  0
LINE
  8
1
 62
7
  6
CONTINUOUS
 10
143.601492
 20
395.048663
 11
144.099492
 21
395.546663
  0
LINE
  8
1
 62
7
  6
CONTINUOUS
 10
143.615634
 20
395.048663
 11
144.113634
 21
395.546663
  0
LINE
  8
1
 62
7
  6
CONTINUOUS
 10
143.629776
 20
395.048663
 11
144.127776
 21
395.546663
  0
LINE
  8
1
 62
7
  6
CONTINUOUS
 10
143.643918
 20
395.048663
 11
144.141918
 21
395.546663
  0
LINE
  8
1
 62
7
  6
CONTINUOUS
 10
143.658060
 20
395.048663
 11
144.156060
 21
395.546663
  0
LINE
  8
1
 62
7
  6
CONTINUOUS
 10
143.672202
 20
395.048663
 11
144.170202
 21
395.546663
  0
LINE
  8
1
 62
7
  6
CONTINUOUS
 10
143.686345
 20
395.048663
 11
144.184345
 21
395.546663
  0
LINE
  8
1
 62
7
  6
CONTINUOUS
 10
143.700487
 20
395.048663
 11
144.198487
 21
395.546663
  0
LINE
  8
1
 62
7
  6
CONTINUOUS
 10
143.714629
 20
395.048663
 11
144.212629
 21
395.546663
  0
LINE
  8
1
 62
7
  6
CONTINUOUS
 10
143.728771
 20
395.048663
 11
144.226771
 21
395.546663
  0
LINE
  8
1
 62
7
  6
CONTINUOUS
 10
143.742913
 20
395.048663
 11
144.240913
 21
395.546663
  0
LINE
  8
1
 62
7
  6
CONTINUOUS
 10
143.757055
 20
395.048663
 11
144.255055
 21
395.546663
  0
LINE
  8
1
 62
7
  6
CONTINUOUS
 10
143.771197
 20
395.048663
 11
144.269197
 21
395.546663
  0
LINE
  8
1
 62
7
  6
CONTINUOUS
 10
143.785340
 20
395.048663
 11
144.283340
 21
395.546663
  0
LINE
  8
1
 62
7
  6
CONTINUOUS
 10
143.799482
 20
395.048663
 11
144.297482
 21
395.546663
  0
LINE
  8
1
 62
7
  6
CONTINUOUS
 10
143.813624
 20
395.048663
 11
144.311624
 21
395.546663
  0
LINE
  8
1
 62
7
  6
CONTINUOUS
 10
143.827766
 20
395.048663
 11
144.325766
 21
395.546663
  0
LINE
  8
1
 62
7
  6
CONTINUOUS
 10
143.841908
 20
395.048663
 11
144.339908
 21
395.546663
  0
LINE
  8
1
 62
7
  6
CONTINUOUS
 10
143.856050
 20
395.048663
 11
144.354050
 21
395.546663
  0
LINE
  8
1
 62
7
  6
CONTINUOUS
 10
143.870192
 20
395.048663
 11
144.368192
 21
395.546663
  0
LINE
  8
1
 62
7
  6
CONTINUOUS
 10
143.884335
 20
395.048663
 11
144.382335
 21
395.546663
  0
LINE
  8
1
 62
7
  6
CONTINUOUS
 10
143.898477
 20
395.048663
 11
144.396477
 21
395.546663
  0
LINE
  8
1
 62
7
  6
CONTINUOUS
 10
143.912619
 20
395.048663
 11
144.410619
 21
395.546663
  0
LINE
  8
1
 62
7
  6
CONTINUOUS
 10
143.926761
 20
395.048663
 11
144.424761
 21
395.546663
  0
LINE
  8
1
 62
7
  6
CONTINUOUS
 10
143.940903
 20
395.048663
 11
144.438903
 21
395.546663
  0
LINE
  8
1
 62
7
  6
CONTINUOUS
 10
143.955045
 20
395.048663
 11
144.453045
 21
395.546663
  0
LINE
  8
1
 62
7
  6
CONTINUOUS
 10
143.969187
 20
395.048663
 11
144.467187
 21
395.546663
  0
LINE
  8
1
 62
7
  6
CONTINUOUS
 10
143.983329
 20
395.048663
 11
144.481329
 21
395.546663
  0
LINE
  8
1
 62
7
  6
CONTINUOUS
 10
143.997472
 20
395.048663
 11
144.495472
 21
395.546663
  0
LINE
  8
1
 62
7
  6
CONTINUOUS
 10
144.011614
 20
395.048663
 11
144.509614
 21
395.546663
  0
LINE
  8
1
 62
7
  6
CONTINUOUS
 10
144.025756
 20
395.048663
 11
144.523756
 21
395.546663
  0
LINE
  8
1
 62
7
  6
CONTINUOUS
 10
144.039898
 20
395.048663
 11
144.537898
 21
395.546663
  0
LINE
  8
1
 62
7
  6
CONTINUOUS
 10
144.054040
 20
395.048663
 11
144.552040
 21
395.546663
  0
LINE
  8
1
 62
7
  6
CONTINUOUS
 10
144.068182
 20
395.048663
 11
144.566182
 21
395.546663
  0
LINE
  8
1
 62
7
  6
CONTINUOUS
 10
144.082324
 20
395.048663
 11
144.580324
 21
395.546663
  0
LINE
  8
1
 62
7
  6
CONTINUOUS
 10
144.096467
 20
395.048663
 11
144.594467
 21
395.546663
  0
LINE
  8
1
 62
7
  6
CONTINUOUS
 10
144.110609
 20
395.048663
 11
144.593094
 21
395.531148
  0
LINE
  8
1
 62
7
  6
CONTINUOUS
 10
144.124751
 20
395.048663
 11
144.590066
 21
395.513979
  0
LINE
  8
1
 62
7
  6
CONTINUOUS
 10
144.138893
 20
395.048663
 11
144.587039
 21
395.496809
  0
LINE
  8
1
 62
7
  6
CONTINUOUS
 10
144.153035
 20
395.048663
 11
144.584011
 21
395.479639
  0
LINE
  8
1
 62
7
  6
CONTINUOUS
 10
144.167177
 20
395.048663
 11
144.580984
 21
395.462470
  0
LINE
  8
1
 62
7
  6
CONTINUOUS
 10
144.181319
 20
395.048663
 11
144.577956
 21
395.445300
  0
LINE
  8
1
 62
7
  6
CONTINUOUS
 10
144.195462
 20
395.048663
 11
144.574929
 21
395.428131
  0
LINE
  8
1
 62
7
  6
CONTINUOUS
 10
144.209604
 20
395.048663
 11
144.571901
 21
395.410961
  0
LINE
  8
1
 62
7
  6
CONTINUOUS
 10
144.223746
 20
395.048663
 11
144.568874
 21
395.393791
  0
LINE
  8
1
 62
7
  6
CONTINUOUS
 10
144.237888
 20
395.048663
 11
144.565846
 21
395.376622
  0
LINE
  8
1
 62
7
  6
CONTINUOUS
 10
144.252030
 20
395.048663
 11
144.562819
 21
395.359452
  0
LINE
  8
1
 62
7
  6
CONTINUOUS
 10
144.266172
 20
395.048663
 11
144.559791
 21
395.342283
  0
LINE
  8
1
 62
7
  6
CONTINUOUS
 10
144.280314
 20
395.048663
 11
144.556764
 21
395.325113
  0
LINE
  8
1
 62
7
  6
CONTINUOUS
 10
144.294456
 20
395.048663
 11
144.553737
 21
395.307943
  0
LINE
  8
1
 62
7
  6
CONTINUOUS
 10
144.308599
 20
395.048663
 11
144.550709
 21
395.290774
  0
LINE
  8
1
 62
7
  6
CONTINUOUS
 10
144.322741
 20
395.048663
 11
144.547682
 21
395.273604
  0
LINE
  8
1
 62
7
  6
CONTINUOUS
 10
144.336883
 20
395.048663
 11
144.544654
 21
395.256435
  0
LINE
  8
1
 62
7
  6
CONTINUOUS
 10
144.351025
 20
395.048663
 11
144.541627
 21
395.239265
  0
LINE
  8
1
 62
7
  6
CONTINUOUS
 10
144.365167
 20
395.048663
 11
144.538599
 21
395.222095
  0
LINE
  8
1
 62
7
  6
CONTINUOUS
 10
144.379309
 20
395.048663
 11
144.535572
 21
395.204926
  0
LINE
  8
1
 62
7
  6
CONTINUOUS
 10
144.393451
 20
395.048663
 11
144.532544
 21
395.187756
  0
LINE
  8
1
 62
7
  6
CONTINUOUS
 10
144.407594
 20
395.048663
 11
144.529517
 21
395.170587
  0
LINE
  8
1
 62
7
  6
CONTINUOUS
 10
144.421736
 20
395.048663
 11
144.526489
 21
395.153417
  0
LINE
  8
1
 62
7
  6
CONTINUOUS
 10
144.435878
 20
395.048663
 11
144.523462
 21
395.136247
  0
LINE
  8
1
 62
7
  6
CONTINUOUS
 10
144.450020
 20
395.048663
 11
144.520434
 21
395.119078
  0
LINE
  8
1
 62
7
  6
CONTINUOUS
 10
144.464162
 20
395.048663
 11
144.517407
 21
395.101908
  0
LINE
  8
1
 62
7
  6
CONTINUOUS
 10
144.478304
 20
395.048663
 11
144.514380
 21
395.084739
  0
LINE
  8
1
 62
7
  6
CONTINUOUS
 10
144.492446
 20
395.048663
 11
144.511352
 21
395.067569
  0
LINE
  8
1
 62
7
  6
CONTINUOUS
 10
144.506588
 20
395.048663
 11
144.508325
 21
395.050399
  0
LINE
  8
1
 62
7
  6
CONTINUOUS
 10
200.083154
 20
356.172659
 11
170.498825
 21
356.172659
  0
LINE
  8
1
 62
7
  6
CONTINUOUS
 10
171.088247
 20
383.847908
 11
200.561754
 21
383.847908
  0
LINE
  8
1
 62
7
  6
CONTINUOUS
 10
159.936355
 20
409.811663
 11
159.936355
 21
411.388160
  0
LINE
  8
1
 62
7
  6
CONTINUOUS
 10
202.001467
 20
410.838160
 11
192.001467
 21
410.838160
  0
LINE
  8
1
 62
7
  6
CONTINUOUS
 10
202.001467
 20
411.738160
 11
202.001467
 21
410.838160
  0
LINE
  8
1
 62
7
  6
CONTINUOUS
 10
192.001467
 20
411.738160
 11
202.001467
 21
411.738160
  0
LINE
  8
1
 62
7
  6
CONTINUOUS
 10
202.001467
 20
412.338160
 11
192.001467
 21
412.338160
  0
LINE
  8
1
 62
7
  6
CONTINUOUS
 10
202.001467
 20
413.238160
 11
202.001467
 21
412.338160
  0
LINE
  8
1
 62
7
  6
CONTINUOUS
 10
192.001467
 20
413.238160
 11
202.001467
 21
413.238160
  0
LINE
  8
1
 62
7
  6
CONTINUOUS
 10
174.721176
 20
412.038160
 11
160.920502
 21
412.038160
  0
LINE
  8
1
 62
7
  6
CONTINUOUS
 10
192.001467
 20
413.538160
 11
192.001467
 21
410.538160
  0
LINE
  8
1
 62
7
  6
CONTINUOUS
 10
176.278732
 20
412.038160
 11
192.001467
 21
412.038160
  0
LINE
  8
1
 62
7
  6
CONTINUOUS
 10
176.278732
 20
410.538160
 11
192.001467
 21
410.538160
  0
LINE
  8
1
 62
7
  6
CONTINUOUS
 10
161.425041
 20
410.538160
 11
174.721176
 21
410.538160
  0
LINE
  8
1
 62
7
  6
CONTINUOUS
 10
176.278732
 20
413.538160
 11
192.001467
 21
413.538160
  0
LINE
  8
1
 62
7
  6
CONTINUOUS
 10
161.425041
 20
413.538160
 11
174.721176
 21
413.538160
  0
LINE
  8
1
 62
7
  6
CONTINUOUS
 10
105.436355
 20
363.573664
 11
157.436355
 21
363.573664
  0
LINE
  8
1
 62
7
  6
CONTINUOUS
 10
161.436355
 20
367.573664
 11
161.436355
 21
410.388160
  0
LINE
  8
1
 62
7
  6
CONTINUOUS
 10
157.436355
 20
423.573664
 11
105.436355
 21
423.573664
  0
LINE
  8
1
 62
7
  6
CONTINUOUS
 10
101.436355
 20
419.573664
 11
101.436355
 21
367.573664
  0
LINE
  8
1
 62
7
  6
CONTINUOUS
 10
102.786355
 20
408.489008
 11
102.786355
 21
379.448359
  0
LINE
  8
1
 62
7
  6
CONTINUOUS
 10
146.351699
 20
364.923664
 11
116.521010
 21
364.923664
  0
LINE
  8
1
 62
7
  6
CONTINUOUS
 10
160.086355
 20
378.658319
 11
160.086355
 21
406.340618
  0
LINE
  8
1
 62
7
  6
CONTINUOUS
 10
160.436355
 20
412.688160
 11
159.936355
 21
412.688160
  0
LINE
  8
1
 62
7
  6
CONTINUOUS
 10
161.436355
 20
413.688160
 11
161.436355
 21
419.573664
  0
LINE
  8
1
 62
7
  6
CONTINUOUS
 10
159.936355
 20
412.688160
 11
159.936355
 21
414.316208
  0
LINE
  8
1
 62
7
  6
CONTINUOUS
 10
160.436355
 20
411.388160
 11
159.936355
 21
411.388160
  0
LINE
  8
1
 62
7
  6
CONTINUOUS
 10
146.351699
 20
422.223664
 11
116.521010
 21
422.223664
  0
LINE
  8
1
 62
7
  6
CONTINUOUS
 10
152.436355
 20
418.573664
 11
160.436355
 21
418.573664
  0
LINE
  8
1
 62
7
  6
CONTINUOUS
 10
102.436355
 20
418.573664
 11
110.436355
 21
418.573664
  0
LINE
  8
1
 62
7
  6
CONTINUOUS
 10
102.436355
 20
368.573664
 11
110.436355
 21
368.573664
  0
LINE
  8
1
 62
7
  6
CONTINUOUS
 10
160.436355
 20
368.573664
 11
152.436355
 21
368.573664
  0
LINE
  8
1
 62
7
  6
CONTINUOUS
 10
156.436355
 20
422.573664
 11
156.436355
 21
415.213831
  0
LINE
  8
1
 62
7
  6
CONTINUOUS
 10
156.436355
 20
372.573664
 11
156.436355
 21
364.573664
  0
LINE
  8
1
 62
7
  6
CONTINUOUS
 10
106.436355
 20
414.573664
 11
106.436355
 21
422.573664
  0
LINE
  8
1
 62
7
  6
CONTINUOUS
 10
106.436355
 20
364.573664
 11
106.436355
 21
372.573664
  0
LINE
  8
1
 62
7
  6
DASHDOT
 10
165.436355
 20
393.573664
 11
97.436355
 21
393.573664
  0
LINE
  8
1
 62
7
  6
CONTINUOUS
 10
118.590787
 20
398.573664
 11
118.986465
 21
400.817664
  0
LINE
  8
1
 62
7
  6
CONTINUOUS
 10
118.986465
 20
400.817664
 11
119.875354
 21
400.817664
  0
LINE
  8
1
 62
7
  6
CONTINUOUS
 10
119.875354
 20
400.817664
 11
120.008431
 21
401.572381
  0
LINE
  8
1
 62
7
  6
CONTINUOUS
 10
120.008431
 20
401.572381
 11
119.119542
 21
401.572381
  0
LINE
  8
1
 62
7
  6
CONTINUOUS
 10
119.119542
 20
401.572381
 11
119.295869
 21
402.573661
  0
LINE
  8
1
 62
7
  6
CONTINUOUS
 10
123.295869
 20
402.573661
 11
123.119542
 21
401.572381
  0
LINE
  8
1
 62
7
  6
CONTINUOUS
 10
123.119542
 20
401.572381
 11
122.719542
 21
401.572381
  0
LINE
  8
1
 62
7
  6
CONTINUOUS
 10
122.719542
 20
401.572381
 11
122.190787
 21
398.573664
  0
LINE
  8
1
 62
7
  6
CONTINUOUS
 10
122.190787
 20
398.573664
 11
118.590787
 21
398.573664
  0
LINE
  8
1
 62
7
  6
CONTINUOUS
 10
119.295869
 20
402.573661
 11
123.295869
 21
402.573661
  0
LINE
  8
1
 62
7
  6
CONTINUOUS
 10
141.495106
 20
398.036663
 11
141.407295
 21
397.538663
  0
LINE
  8
1
 62
7
  6
CONTINUOUS
 10
141.407295
 20
397.538663
 11
141.912978
 21
397.538663
  0
LINE
  8
1
 62
7
  6
CONTINUOUS
 10
141.912978
 20
397.538663
 11
141.561735
 21
395.546663
  0
LINE
  8
1
 62
7
  6
CONTINUOUS
 10
141.561735
 20
395.546663
 11
141.056052
 21
395.546663
  0
LINE
  8
1
 62
7
  6
CONTINUOUS
 10
141.056052
 20
395.546663
 11
140.968241
 21
395.048663
  0
LINE
  8
1
 62
7
  6
CONTINUOUS
 10
140.968241
 20
395.048663
 11
144.508018
 21
395.048663
  0
LINE
  8
1
 62
7
  6
CONTINUOUS
 10
142.418660
 20
397.538663
 11
142.067417
 21
395.546663
  0
LINE
  8
1
 62
7
  6
CONTINUOUS
 10
142.924343
 20
397.538663
 11
142.573100
 21
395.546663
  0
LINE
  8
1
 62
7
  6
CONTINUOUS
 10
143.430025
 20
397.538663
 11
143.092818
 21
395.626267
  0
LINE
  8
1
 62
7
  6
CONTINUOUS
 10
143.935708
 20
397.538663
 11
143.584464
 21
395.546663
  0
LINE
  8
1
 62
7
  6
CONTINUOUS
 10
144.441390
 20
397.538663
 11
144.090147
 21
395.546663
  0
LINE
  8
1
 62
7
  6
CONTINUOUS
 10
144.090147
 20
395.546663
 11
144.595829
 21
395.546663
  0
LINE
  8
1
 62
7
  6
CONTINUOUS
 10
144.441390
 20
397.538663
 11
144.947073
 21
397.538663
  0
LINE
  8
1
 62
7
  6
CONTINUOUS
 10
144.947073
 20
397.538663
 11
145.034884
 21
398.036663
  0
LINE
  8
1
 62
7
  6
CONTINUOUS
 10
141.495106
 20
398.036663
 11
145.034884
 21
398.036663
  0
LINE
  8
1
 62
7
  6
CONTINUOUS
 10
144.595829
 20
395.546663
 11
144.508018
 21
395.048663
  0
LINE
  8
1
 62
7
  6
CONTINUOUS
 10
142.067417
 20
395.546663
 11
142.573100
 21
395.546663
  0
LINE
  8
1
 62
7
  6
CONTINUOUS
 10
142.418660
 20
397.538663
 11
142.924343
 21
397.538663
  0
LINE
  8
1
 62
7
  6
CONTINUOUS
 10
143.430025
 20
397.538663
 11
143.935708
 21
397.538663
  0
LINE
  8
1
 62
7
  6
CONTINUOUS
 10
143.584464
 20
395.546663
 11
143.078782
 21
395.546663
  0
LINE
  8
1
 62
7
  6
CONTINUOUS
 10
143.078782
 20
395.546663
 11
143.092818
 21
395.626267
  0
LINE
  8
1
 62
7
  6
DASHDOT
 10
126.436355
 20
381.612096
 11
136.436355
 21
381.612096
  0
LINE
  8
1
 62
7
  6
DASHDOT
 10
136.436355
 20
381.612096
 11
136.436355
 21
378.770980
  0
LINE
  8
1
 62
7
  6
DASHDOT
 10
136.436355
 20
378.770980
 11
126.436355
 21
378.770980
  0
LINE
  8
1
 62
7
  6
DASHDOT
 10
126.436355
 20
378.770980
 11
126.436355
 21
381.612096
  0
LINE
  8
1
 62
7
  6
CONTINUOUS
 10
119.817405
 20
382.573664
 11
143.055305
 21
382.573664
  0
LINE
  8
1
 62
7
  6
DASHDOT
 10
132.978091
 20
383.472914
 11
120.627359
 21
383.472914
  0
LINE
  8
1
 62
7
  6
DASHDOT
 10
120.627359
 20
384.744848
 11
132.978091
 21
384.744848
  0
LINE
  8
1
 62
7
  6
DASHDOT
 10
132.978091
 20
384.744848
 11
132.978091
 21
383.472914
  0
LINE
  8
1
 62
7
  6
DASHDOT
 10
120.627359
 20
383.472914
 11
120.627359
 21
384.744848
  0
LINE
  8
1
 62
7
  6
CONTINUOUS
 10
140.026153
 20
407.072381
 11
122.846556
 21
407.072381
  0
LINE
  8
1
 62
7
  6
DASHDOT
 10
131.436355
 20
427.573664
 11
131.436355
 21
359.573664
  0
LINE
  8
1
 62
7
  6
CONTINUOUS
 10
232.593016
 20
390.573664
 11
232.593016
 21
373.673664
  0
LINE
  8
1
 62
7
  6
CONTINUOUS
 10
232.593016
 20
373.673664
 11
225.593016
 21
372.573664
  0
LINE
  8
1
 62
7
  6
CONTINUOUS
 10
238.093016
 20
373.673664
 11
245.093016
 21
372.573664
  0
LINE
  8
1
 62
7
  6
CONTINUOUS
 10
232.593016
 20
373.673664
 11
238.093016
 21
373.673664
  0
LINE
  8
1
 62
7
  6
CONTINUOUS
 10
227.593016
 20
404.501077
 11
232.593016
 21
408.577632
  0
LINE
  8
1
 62
7
  6
CONTINUOUS
 10
238.093016
 20
413.473664
 11
230.989276
 21
413.473664
  0
LINE
  8
1
 62
7
  6
CONTINUOUS
 10
232.593016
 20
408.577632
 11
225.593016
 21
408.577632
  0
LINE
  8
1
 62
7
  6
CONTINUOUS
 10
238.093016
 20
413.473664
 11
238.093016
 21
396.573664
  0
LINE
  8
1
 62
7
  6
CONTINUOUS
 10
245.093016
 20
423.573664
 11
245.093016
 21
406.573664
  0
LINE
  8
1
 62
7
  6
CONTINUOUS
 10
238.093016
 20
413.473664
 11
245.093016
 21
414.573664
  0
LINE
  8
1
 62
7
  6
CONTINUOUS
 10
245.093016
 20
363.573664
 11
245.093016
 21
380.573664
  0
LINE
  8
1
 62
7
  6
CONTINUOUS
 10
225.593016
 20
364.923664
 11
245.093016
 21
364.923664
  0
LINE
  8
1
 62
7
  6
CONTINUOUS
 10
225.593016
 20
422.223664
 11
245.093016
 21
422.223664
  0
LINE
  8
1
 62
7
  6
DASHDOT
 10
218.593016
 20
393.573664
 11
252.093016
 21
393.573664
  0
LINE
  8
1
 62
7
  6
DASHDOT
 10
250.093016
 20
368.573664
 11
220.593016
 21
368.573664
  0
LINE
  8
1
 62
7
  6
DASHDOT
 10
250.093016
 20
418.573664
 11
233.550519
 21
418.573664
  0
LINE
  8
1
 62
7
  6
DASHDOT
 10
220.593016
 20
418.573664
 11
230.485467
 21
418.573664
  0
LINE
  8
1
 62
7
  6
CONTINUOUS
 10
232.593016
 20
408.577632
 11
232.593016
 21
396.573664
  0
LINE
  8
1
 62
7
  6
CONTINUOUS
 10
225.593016
 20
404.501077
 11
227.593016
 21
404.501077
  0
LINE
  8
1
 62
7
  6
CONTINUOUS
 10
225.593016
 20
380.573664
 11
225.593016
 21
363.573664
  0
LINE
  8
1
 62
7
  6
CONTINUOUS
 10
222.593016
 20
363.573664
 11
248.093016
 21
363.573664
  0
LINE
  8
1
 62
7
  6
CONTINUOUS
 10
225.593016
 20
423.573664
 11
225.593016
 21
412.680068
  0
LINE
  8
1
 62
7
  6
CONTINUOUS
 10
222.593016
 20
423.573664
 11
222.593016
 21
412.680068
  0
LINE
  8
1
 62
7
  6
CONTINUOUS
 10
248.093016
 20
423.573664
 11
222.593016
 21
423.573664
  0
LINE
  8
1
 62
7
  6
CONTINUOUS
 10
248.093016
 20
363.573664
 11
248.093016
 21
423.573664
  0
LINE
  8
1
 62
7
  6
CONTINUOUS
 10
238.093016
 20
390.573664
 11
238.093016
 21
373.673664
  0
LINE
  8
1
 62
7
  6
CONTINUOUS
 10
224.636647
 20
411.930068
 11
223.550344
 21
411.930068
  0
LINE
  8
1
 62
7
  6
CONTINUOUS
 10
222.593016
 20
411.180068
 11
222.593016
 21
363.573664
  0
LINE
  8
1
 62
7
  6
CONTINUOUS
 10
225.593016
 20
411.180068
 11
225.593016
 21
404.501077
  0
LINE
  8
1
 62
7
  6
CONTINUOUS
 10
225.593016
 20
412.680068
 11
222.593016
 21
412.680068
  0
LINE
  8
1
 62
7
  6
CONTINUOUS
 10
225.593016
 20
411.180068
 11
222.593016
 21
411.180068
  0
ARC
  8
1
 62
7
  6
CONTINUOUS
 10
131.436355
 20
393.573664
 40
26.727271
 50
-77.951523
 51
-51.616181
  0
ARC
  8
1
 62
7
  6
CONTINUOUS
 10
130.076555
 20
367.475203
 40
23.196790
 50
30.455789
 51
36.560454
  0
ARC
  8
1
 62
7
  6
CONTINUOUS
 10
131.436355
 20
393.573664
 40
26.727271
 50
24.905620
 51
31.751879
  0
ARC
  8
1
 62
7
  6
CONTINUOUS
 10
157.183056
 20
398.055411
 40
23.196790
 50
133.312932
 51
145.584116
  0
ARC
  8
1
 62
7
  6
CONTINUOUS
 10
131.436355
 20
393.573664
 40
26.727271
 50
127.762763
 51
128.383819
  0
ARC
  8
1
 62
7
  6
CONTINUOUS
 10
153.514877
 20
380.137715
 40
22.072696
 50
89.286552
 51
105.438294
  0
ARC
  8
1
 62
7
  6
CONTINUOUS
 10
134.697440
 20
367.934803
 40
22.072696
 50
37.857980
 51
54.009722
  0
ARC
  8
1
 62
7
  6
CONTINUOUS
 10
113.424339
 20
375.038476
 40
22.072696
 50
-13.570591
 51
2.581151
  0
ARC
  8
1
 62
7
  6
CONTINUOUS
 10
117.373933
 20
415.258548
 40
22.072696
 50
-116.427734
 51
-100.275992
  0
ARC
  8
1
 62
7
  6
CONTINUOUS
 10
139.622503
 20
418.088412
 40
22.072696
 50
-167.856305
 51
-151.704563
  0
ARC
  8
1
 62
7
  6
CONTINUOUS
 10
153.765907
 20
404.216478
 40
2.007919
 50
-89.320496
 51
17.766756
  0
ARC
  8
1
 62
7
  6
CONTINUOUS
 10
153.679490
 20
382.751403
 40
2.007919
 50
-140.749068
 51
-33.661816
  0
ARC
  8
1
 62
7
  6
CONTINUOUS
 10
136.843538
 20
369.435711
 40
2.007919
 50
167.822361
 51
-85.090387
  0
ARC
  8
1
 62
7
  6
CONTINUOUS
 10
115.935867
 20
374.296390
 40
2.007919
 50
149.292589
 51
-136.518959
  0
ARC
  8
1
 62
7
  6
CONTINUOUS
 10
106.700379
 20
393.673250
 40
2.007919
 50
64.965218
 51
172.052470
  0
ARC
  8
1
 62
7
  6
CONTINUOUS
 10
116.091585
 20
412.975119
 40
2.007919
 50
13.536647
 51
120.623899
  0
ARC
  8
1
 62
7
  6
CONTINUOUS
 10
131.436355
 20
393.573664
 40
26.727271
 50
53.238970
 51
54.456968
  0
ARC
  8
1
 62
7
  6
CONTINUOUS
 10
131.436355
 20
393.573664
 40
26.727271
 50
-26.522952
 51
3.028397
  0
ARC
  8
1
 62
7
  6
CONTINUOUS
 10
131.436355
 20
393.573664
 40
26.727271
 50
-129.380095
 51
-99.828746
  0
ARC
  8
1
 62
7
  6
CONTINUOUS
 10
131.436355
 20
393.573664
 40
26.727271
 50
179.191334
 51
-151.257317
  0
ARC
  8
1
 62
7
  6
CONTINUOUS
 10
131.436355
 20
393.573664
 40
26.727271
 50
135.939694
 51
157.314111
  0
ARC
  8
1
 62
7
  6
CONTINUOUS
 10
144.357383
 20
411.659531
 40
4.500000
 50
54.456968
 51
133.312932
  0
ARC
  8
1
 62
7
  6
CONTINUOUS
 10
153.632584
 20
394.747950
 40
4.500000
 50
3.028397
 51
81.884361
  0
ARC
  8
1
 62
7
  6
CONTINUOUS
 10
146.193572
 20
376.952108
 40
4.500000
 50
-16.956803
 51
30.455789
  0
ARC
  8
1
 62
7
  6
CONTINUOUS
 10
127.642073
 20
371.672636
 40
4.500000
 50
-99.828746
 51
-20.972782
  0
ARC
  8
1
 62
7
  6
CONTINUOUS
 10
111.947746
 20
382.885085
 40
4.500000
 50
-151.257317
 51
-72.401353
  0
ARC
  8
1
 62
7
  6
CONTINUOUS
 10
110.928739
 20
402.146252
 40
4.500000
 50
157.314111
 51
-123.829925
  0
ARC
  8
1
 62
7
  6
CONTINUOUS
 10
150.993131
 20
376.238406
 40
23.196790
 50
81.884361
 51
96.167702
  0
ARC
  8
1
 62
7
  6
CONTINUOUS
 10
110.183935
 20
378.364674
 40
23.196790
 50
-20.972782
 51
-6.689441
  0
ARC
  8
1
 62
7
  6
CONTINUOUS
 10
106.294821
 20
400.706824
 40
23.196790
 50
-72.401353
 51
-58.118012
  0
ARC
  8
1
 62
7
  6
CONTINUOUS
 10
121.337794
 20
417.677559
 40
23.196790
 50
-123.829925
 51
-109.546584
  0
ARC
  8
1
 62
7
  6
CONTINUOUS
 10
137.037716
 20
417.667297
 40
2.007919
 50
-37.891925
 51
69.195327
  0
ARC
  8
1
 62
7
  6
CONTINUOUS
 10
155.706736
 20
402.458171
 40
22.072696
 50
140.715123
 51
156.866865
  0
ARC
  8
1
 62
7
  6
CONTINUOUS
 10
157.822831
 20
376.100255
 40
34.552783
 50
86.493145
 51
118.961531
  0
ARC
  8
1
 62
7
  6
CONTINUOUS
 10
157.822831
 20
376.100255
 40
37.499800
 50
86.769045
 51
121.523192
  0
ARC
  8
1
 62
7
  6
CONTINUOUS
 10
148.909763
 20
419.960141
 40
37.500000
 50
-173.899688
 51
-154.360262
  0
ARC
  8
1
 62
7
  6
CONTINUOUS
 10
148.909763
 20
419.960141
 40
34.500000
 50
179.628406
 51
-157.273611
  0
ARC
  8
1
 62
7
  6
CONTINUOUS
 10
131.436355
 20
393.573664
 40
32.300000
 50
133.768406
 51
152.498272
  0
ARC
  8
1
 62
7
  6
CONTINUOUS
 10
131.436355
 20
393.573664
 40
32.300000
 50
117.501728
 51
120.270802
  0
ARC
  8
1
 62
7
  6
CONTINUOUS
 10
131.436355
 20
393.573664
 40
32.300000
 50
-136.231594
 51
-117.501728
  0
ARC
  8
1
 62
7
  6
CONTINUOUS
 10
131.436355
 20
393.573664
 40
32.300000
 50
-62.498272
 51
-59.729198
  0
ARC
  8
1
 62
7
  6
CONTINUOUS
 10
131.436355
 20
393.573664
 40
18.000000
 50
-114.959948
 51
-45.039943
  0
ARC
  8
1
 62
7
  6
CONTINUOUS
 10
113.962946
 20
367.187187
 40
37.500000
 50
6.100312
 51
25.639738
  0
ARC
  8
1
 62
7
  6
CONTINUOUS
 10
131.436355
 20
393.573664
 40
32.300000
 50
-46.231594
 51
-27.501728
  0
ARC
  8
1
 62
7
  6
CONTINUOUS
 10
157.822831
 20
376.100255
 40
40.250000
 50
99.302363
 51
119.119990
  0
ARC
  8
1
 62
7
  6
CONTINUOUS
 10
157.822831
 20
376.100255
 40
31.750000
 50
88.553676
 51
111.068075
  0
ARC
  8
1
 62
7
  6
CONTINUOUS
 10
131.436355
 20
393.573664
 40
18.000000
 50
-24.959948
 51
36.198387
  0
ARC
  8
1
 62
7
  6
CONTINUOUS
 10
131.436355
 20
393.573664
 40
32.300000
 50
50.387543
 51
62.498272
  0
ARC
  8
1
 62
7
  6
CONTINUOUS
 10
157.822831
 20
376.100255
 40
38.750000
 50
87.582340
 51
122.862599
  0
ARC
  8
1
 62
7
  6
CONTINUOUS
 10
131.436355
 20
393.573664
 40
28.000000
 50
-45.871547
 51
30.465632
  0
ARC
  8
1
 62
7
  6
CONTINUOUS
 10
131.436355
 20
393.573664
 40
28.000000
 50
51.128639
 51
126.859307
  0
ARC
  8
1
 62
7
  6
CONTINUOUS
 10
157.822831
 20
376.100255
 40
36.071160
 50
85.073562
 51
120.181555
  0
ARC
  8
1
 62
7
  6
CONTINUOUS
 10
107.767347
 20
412.264250
 40
34.500000
 50
-96.055088
 51
-72.518498
  0
ARC
  8
1
 62
7
  6
CONTINUOUS
 10
107.767347
 20
412.264250
 40
37.500000
 50
-89.249581
 51
-68.613400
  0
ARC
  8
1
 62
7
  6
CONTINUOUS
 10
131.436355
 20
393.573664
 40
28.000000
 50
134.128453
 51
-145.635072
  0
ARC
  8
1
 62
7
  6
CONTINUOUS
 10
131.436355
 20
393.573664
 40
18.000000
 50
-115.076289
 51
-114.959948
  0
ARC
  8
1
 62
7
  6
CONTINUOUS
 10
131.436355
 20
393.573664
 40
32.300000
 50
-138.754409
 51
-136.231594
  0
ARC
  8
1
 62
7
  6
CONTINUOUS
 10
131.436355
 20
393.573664
 40
27.945071
 50
-138.004969
 51
-53.075186
  0
ARC
  8
1
 62
7
  6
CONTINUOUS
 10
113.962946
 20
367.187187
 40
34.500000
 50
-0.371594
 51
22.726389
  0
ARC
  8
1
 62
7
  6
CONTINUOUS
 10
131.436355
 20
393.573664
 40
18.000000
 50
155.040052
 51
-135.732467
  0
ARC
  8
1
 62
7
  6
CONTINUOUS
 10
157.822831
 20
376.100255
 40
33.250000
 50
87.259754
 51
118.078736
  0
ARC
  8
1
 62
7
  6
CONTINUOUS
 10
131.436355
 20
393.573664
 40
26.727271
 50
76.334191
 51
105.885540
  0
ARC
  8
1
 62
7
  6
CONTINUOUS
 10
125.352384
 20
414.952085
 40
4.500000
 50
105.885540
 51
-175.258496
  0
ARC
  8
1
 62
7
  6
CONTINUOUS
 10
143.985189
 20
416.497569
 40
23.196790
 50
-175.258496
 51
-160.975155
  0
ARC
  8
1
 62
7
  6
CONTINUOUS
 10
131.436355
 20
393.573664
 40
18.000000
 50
75.270743
 51
134.960057
  0
ARC
  8
1
 62
7
  6
CONTINUOUS
 10
131.655612
 20
366.436876
 40
24.854544
 50
-117.004457
 51
-62.995543
  0
ARC
  8
1
 62
7
  6
CONTINUOUS
 10
223.885845
 20
420.234173
 40
9.806285
 50
-79.974320
 51
-6.270266
  0
ARC
  8
1
 62
7
  6
CONTINUOUS
 10
222.851454
 20
421.000331
 40
8.010423
 50
-69.986019
 51
-13.636549
  0
ARC
  8
1
 62
7
  6
CONTINUOUS
 10
205.030040
 20
384.729580
 40
30.000000
 50
23.253675
 51
41.227452
  0
ARC
  8
1
 62
7
  6
CONTINUOUS
 10
205.030040
 20
402.417748
 40
30.000000
 50
-46.730365
 51
-23.253675
  0
ARC
  8
1
 62
7
  6
CONTINUOUS
 10
265.655993
 20
402.417748
 40
30.000000
 50
-156.746325
 51
-133.269635
  0
ARC
  8
1
 62
7
  6
CONTINUOUS
 10
265.655993
 20
384.729580
 40
30.000000
 50
133.269635
 51
156.746325
  0
ARC
  8
1
 62
7
  6
CONTINUOUS
 10
223.638364
 20
420.483493
 40
8.772706
 50
-71.023904
 51
-7.501245
  0
ARC
  8
1
 62
7
  6
CONTINUOUS
 10
224.900688
 20
416.834809
 40
4.911842
 50
-93.081479
 51
-71.108668
  0
ARC
  8
1
 62
7
  6
CONTINUOUS
 10
223.498066
 20
412.533942
 40
0.606132
 50
166.049682
 51
-85.052109
  0
ARC
  8
1
 62
7
  6
CONTINUOUS
 10
223.508878
 20
411.385976
 40
0.545670
 50
85.641754
 51
-157.830491
  0
CIRCLE
  8
1
 62
7
  6
CONTINUOUS
 10
156.436355
 20
418.573664
 40
2.250000
  0
CIRCLE
  8
1
 62
7
  6
CONTINUOUS
 10
156.436355
 20
368.573664
 40
2.250000
  0
CIRCLE
  8
1
 62
7
  6
CONTINUOUS
 10
106.436355
 20
418.573664
 40
2.250000
  0
CIRCLE
  8
1
 62
7
  6
CONTINUOUS
 10
106.436355
 20
368.573664
 40
2.250000
  0
CIRCLE
  8
1
 62
7
  6
CONTINUOUS
 10
131.436355
 20
393.573664
 40
16.000000
  0
ARC
  8
1
 62
7
  6
CONTINUOUS
 10
183.113575
 20
408.228574
 40
9.930964
 50
147.679849
 51
148.805331
  0
ARC
  8
1
 62
7
  6
CONTINUOUS
 10
177.280614
 20
411.760399
 40
3.112078
 50
148.805331
 51
152.303635
  0
ARC
  8
1
 62
7
  6
CONTINUOUS
 10
175.939448
 20
412.464418
 40
1.597360
 50
152.303635
 51
158.792509
  0
ARC
  8
1
 62
7
  6
CONTINUOUS
 10
175.333029
 20
412.699724
 40
0.946889
 50
158.792509
 51
169.089654
  0
ARC
  8
1
 62
7
  6
CONTINUOUS
 10
175.020165
 20
412.760031
 40
0.628265
 50
169.089654
 51
-176.103232
  0
ARC
  8
1
 62
7
  6
CONTINUOUS
 10
174.978485
 20
412.757191
 40
0.586489
 50
-176.103232
 51
-162.513088
  0
ARC
  8
1
 62
7
  6
CONTINUOUS
 10
175.484630
 20
412.916651
 40
1.117159
 50
-162.513088
 51
-155.055086
  0
ARC
  8
1
 62
7
  6
CONTINUOUS
 10
175.695990
 20
413.014963
 40
1.350264
 50
-155.055086
 51
-148.542126
  0
ARC
  8
1
 62
7
  6
CONTINUOUS
 10
179.607455
 20
415.407958
 40
5.935674
 50
-148.542126
 51
-146.995120
  0
ARC
  8
1
 62
7
  6
CONTINUOUS
 10
179.434869
 20
415.295858
 40
5.729878
 50
-146.995120
 51
-145.351115
  0
ARC
  8
1
 62
7
  6
CONTINUOUS
 10
169.379570
 20
408.426043
 40
6.448267
 50
32.375573
 51
34.067460
  0
ARC
  8
1
 62
7
  6
CONTINUOUS
 10
172.538733
 20
410.427317
 40
2.708561
 50
28.462933
 51
32.406010
  0
ARC
  8
1
 62
7
  6
CONTINUOUS
 10
173.586104
 20
410.993370
 40
1.518016
 50
21.791087
 51
28.520844
  0
ARC
  8
1
 62
7
  6
CONTINUOUS
 10
174.126161
 20
411.208132
 40
0.936825
 50
11.554433
 51
21.856301
  0
ARC
  8
1
 62
7
  6
CONTINUOUS
 10
174.414182
 20
411.267189
 40
0.642812
 50
-2.813925
 51
11.539240
  0
ARC
  8
1
 62
7
  6
CONTINUOUS
 10
174.408473
 20
411.274794
 40
0.648928
 50
-16.134385
 51
-3.459854
  0
ARC
  8
1
 62
7
  6
CONTINUOUS
 10
174.119288
 20
411.358505
 40
0.949986
 50
-25.174026
 51
-16.137474
  0
ARC
  8
1
 62
7
  6
CONTINUOUS
 10
173.571463
 20
411.614425
 40
1.554639
 50
-30.936897
 51
-25.121894
  0
ARC
  8
1
 62
7
  6
CONTINUOUS
 10
172.387466
 20
412.321355
 40
2.933623
 50
-34.102679
 51
-30.891432
  0
ARC
  8
1
 62
7
  6
CONTINUOUS
 10
167.025568
 20
415.947375
 40
9.406487
 50
-35.103243
 51
-34.079359
  0
ARC
  8
1
 62
7
  6
CONTINUOUS
 10
184.307174
 20
407.845437
 40
9.841899
 50
144.660714
 51
145.819301
  0
ARC
  8
1
 62
7
  6
CONTINUOUS
 10
178.691926
 20
411.658792
 40
3.054212
 50
145.819301
 51
149.440617
  0
ARC
  8
1
 62
7
  6
CONTINUOUS
 10
177.376635
 20
412.435395
 40
1.526763
 50
149.440617
 51
156.278433
  0
ARC
  8
1
 62
7
  6
CONTINUOUS
 10
176.776958
 20
412.698904
 40
0.871744
 50
156.278433
 51
167.404641
  0
ARC
  8
1
 62
7
  6
CONTINUOUS
 10
176.469453
 20
412.767613
 40
0.556657
 50
167.404641
 51
-176.159805
  0
ARC
  8
1
 62
7
  6
CONTINUOUS
 10
176.434076
 20
412.765238
 40
0.521200
 50
-176.159805
 51
-160.591958
  0
ARC
  8
1
 62
7
  6
CONTINUOUS
 10
176.969252
 20
412.953788
 40
1.088619
 50
-160.591958
 51
-152.710196
  0
ARC
  8
1
 62
7
  6
CONTINUOUS
 10
177.202794
 20
413.074275
 40
1.351410
 50
-152.710196
 51
-145.930047
  0
ARC
  8
1
 62
7
  6
CONTINUOUS
 10
185.431447
 20
418.639201
 40
11.285146
 50
-145.930047
 51
-145.076777
  0
ARC
  8
1
 62
7
  6
CONTINUOUS
 10
183.357636
 20
417.191241
 40
8.755862
 50
-145.076777
 51
-143.947295
  0
ARC
  8
1
 62
7
  6
CONTINUOUS
 10
172.811712
 20
409.584304
 40
4.247545
 50
32.587642
 51
35.289752
  0
ARC
  8
1
 62
7
  6
CONTINUOUS
 10
174.423868
 20
410.612992
 40
2.335153
 50
27.832788
 51
32.625662
  0
ARC
  8
1
 62
7
  6
CONTINUOUS
 10
175.231010
 20
411.037379
 40
1.423245
 50
20.399330
 51
27.895482
  0
ARC
  8
1
 62
7
  6
CONTINUOUS
 10
175.709595
 20
411.214265
 40
0.913018
 50
9.445390
 51
20.463564
  0
ARC
  8
1
 62
7
  6
CONTINUOUS
 10
175.975167
 20
411.258769
 40
0.643743
 50
-5.538355
 51
9.417029
  0
ARC
  8
1
 62
7
  6
CONTINUOUS
 10
175.959451
 20
411.267356
 40
0.660252
 50
-18.100294
 51
-6.148451
  0
ARC
  8
1
 62
7
  6
CONTINUOUS
 10
175.672707
 20
411.361049
 40
0.961915
 50
-26.647686
 51
-18.098520
  0
ARC
  8
1
 62
7
  6
CONTINUOUS
 10
175.138652
 20
411.627623
 40
1.558804
 50
-32.138776
 51
-26.601137
  0
ARC
  8
1
 62
7
  6
CONTINUOUS
 10
173.987304
 20
412.348521
 40
2.917219
 50
-35.173474
 51
-32.098410
  0
ARC
  8
1
 62
7
  6
CONTINUOUS
 10
168.757757
 20
416.029791
 40
9.312522
 50
-36.136001
 51
-35.152629
  0
ARC
  8
1
 62
7
  6
CONTINUOUS
 10
238.037371
 20
408.862453
 40
12.642306
 50
124.474989
 51
125.834026
  0
ARC
  8
1
 62
7
  6
CONTINUOUS
 10
233.008915
 20
416.192199
 40
3.753521
 50
120.125804
 51
124.530722
  0
ARC
  8
1
 62
7
  6
CONTINUOUS
 10
232.036470
 20
417.875567
 40
1.809467
 50
111.747543
 51
120.245807
  0
ARC
  8
1
 62
7
  6
CONTINUOUS
 10
231.734121
 20
418.639864
 40
0.987545
 50
97.637116
 51
111.884271
  0
ARC
  8
1
 62
7
  6
CONTINUOUS
 10
231.687774
 20
418.972141
 40
0.652059
 50
77.025066
 51
97.480950
  0
ARC
  8
1
 62
7
  6
CONTINUOUS
 10
231.635039
 20
418.814190
 40
0.817972
 50
62.478721
 51
75.909581
  0
ARC
  8
1
 62
7
  6
CONTINUOUS
 10
231.134565
 20
417.841933
 40
1.911474
 50
56.479542
 51
62.641140
  0
ARC
  8
1
 62
7
  6
CONTINUOUS
 10
219.726741
 20
400.554537
 40
22.623605
 50
56.028838
 51
56.571034
  0
ARC
  8
1
 62
7
  6
CONTINUOUS
 10
233.826733
 20
421.479284
 40
2.608414
 50
-123.996473
 51
-119.305542
  0
ARC
  8
1
 62
7
  6
CONTINUOUS
 10
233.097812
 20
420.180656
 40
1.119200
 50
-119.305542
 51
-108.751417
  0
ARC
  8
1
 62
7
  6
CONTINUOUS
 10
232.984681
 20
419.847410
 40
0.767274
 50
-108.751417
 51
-95.665854
  0
ARC
  8
1
 62
7
  6
CONTINUOUS
 10
233.051871
 20
420.524651
 40
1.447840
 50
-95.665854
 51
-88.677444
  0
ARC
  8
1
 62
7
  6
CONTINUOUS
 10
233.053353
 20
420.460458
 40
1.383630
 50
-88.677444
 51
-81.170190
  0
ARC
  8
1
 62
7
  6
CONTINUOUS
 10
232.279217
 20
425.443918
 40
6.426859
 50
-81.170190
 51
-79.513586
  0
ARC
  8
1
 62
7
  6
CONTINUOUS
 10
232.731646
 20
422.999595
 40
3.941017
 50
-79.513586
 51
-76.771846
  0
ARC
  8
1
 62
7
  6
CONTINUOUS
 10
160.436355
 20
413.688160
 40
1.000000
 50
-90.000000
 51
0.000000
  0
ARC
  8
1
 62
7
  6
CONTINUOUS
 10
157.436355
 20
419.573664
 40
4.000000
 50
0.000000
 51
90.000000
  0
ARC
  8
1
 62
7
  6
CONTINUOUS
 10
105.436355
 20
419.573664
 40
4.000000
 50
90.000000
 51
180.000000
  0
ARC
  8
1
 62
7
  6
CONTINUOUS
 10
105.436355
 20
367.573664
 40
4.000000
 50
180.000000
 51
-90.000000
  0
ARC
  8
1
 62
7
  6
CONTINUOUS
 10
157.436355
 20
367.573664
 40
4.000000
 50
-90.000000
 51
0.000000
  0
ARC
  8
1
 62
7
  6
CONTINUOUS
 10
160.436355
 20
410.388160
 40
1.000000
 50
0.000000
 51
90.000000
  0
ARC
  8
1
 62
7
  6
CONTINUOUS
 10
159.436355
 20
414.316208
 40
0.500000
 50
0.000000
 51
87.582340
  0
ARC
  8
1
 62
7
  6
CONTINUOUS
 10
159.436355
 20
409.811663
 40
0.500000
 50
-92.740246
 51
0.000000
  0
ARC
  8
1
 62
7
  6
CONTINUOUS
 10
118.010695
 20
407.018055
 40
1.000000
 50
-157.273611
 51
-45.039943
  0
ARC
  8
1
 62
7
  6
CONTINUOUS
 10
144.862014
 20
380.129272
 40
1.000000
 50
22.726389
 51
134.960057
  0
ARC
  8
1
 62
7
  6
CONTINUOUS
 10
150.475017
 20
384.711987
 40
3.000000
 50
155.040052
 51
-154.360262
  0
ARC
  8
1
 62
7
  6
CONTINUOUS
 10
136.775643
 20
413.883563
 40
3.000000
 50
-104.729257
 51
-60.880010
  0
ARC
  8
1
 62
7
  6
CONTINUOUS
 10
146.768916
 20
404.794740
 40
1.000000
 50
111.068075
 51
-143.801613
  0
ARC
  8
1
 62
7
  6
CONTINUOUS
 10
152.742103
 20
371.331697
 40
1.500000
 50
-173.899688
 51
-46.231594
  0
ARC
  8
1
 62
7
  6
CONTINUOUS
 10
151.074172
 20
417.301203
 40
1.500000
 50
-80.697637
 51
50.387543
  0
ARC
  8
1
 62
7
  6
CONTINUOUS
 10
110.130606
 20
415.815631
 40
1.500000
 50
6.100312
 51
133.768406
  0
ARC
  8
1
 62
7
  6
CONTINUOUS
 10
115.910457
 20
420.174162
 40
1.500000
 50
120.270802
 51
179.628406
  0
ARC
  8
1
 62
7
  6
CONTINUOUS
 10
146.962252
 20
366.973165
 40
1.500000
 50
-59.729198
 51
-0.371594
  0
ARC
  8
1
 62
7
  6
CONTINUOUS
 10
158.586355
 20
406.340618
 40
1.500000
 50
0.000000
 51
88.553676
  0
ARC
  8
1
 62
7
  6
CONTINUOUS
 10
108.278126
 20
373.267595
 40
1.500000
 50
90.750419
 51
-138.754409
  0
ARC
  8
1
 62
7
  6
CONTINUOUS
 10
104.286355
 20
379.448359
 40
1.500000
 50
180.000000
 51
-96.055088
  0
ARC
  8
1
 62
7
  6
CONTINUOUS
 10
122.536037
 20
374.553034
 40
3.000000
 50
64.923711
 51
111.386600
  0
ARC
  8
1
 62
7
  6
CONTINUOUS
 10
117.830675
 20
380.311481
 40
1.000000
 50
-72.518498
 51
44.267533
  0
ARC
  8
1
 62
7
  6
CONTINUOUS
 10
112.397692
 20
402.435341
 40
3.000000
 50
-24.959948
 51
25.639738
  0
LINE
  8
1
 62
7
  6
CONTINUOUS
 10
170.498825
 20
356.172659
 11
158.027345
 21
366.982674
  0
LINE
  8
1
 62
7
  6
CONTINUOUS
 10
160.973913
 20
365.038437
 11
160.370306
 21
364.342057
  0
LINE
  8
1
 62
7
  6
CONTINUOUS
 10
160.370306
 20
364.342057
 11
158.027345
 21
366.982674
  0
LINE
  8
1
 62
7
  6
CONTINUOUS
 10
158.027345
 20
366.982674
 11
160.973913
 21
365.038437
  0
LINE
  8
1
 62
7
  6
CONTINUOUS
 10
171.088247
 20
383.847908
 11
153.196860
 21
390.124279
  0
CIRCLE
  8
1
 62
7
  6
CONTINUOUS
 10
153.196860
 20
390.124279
 40
0.875000
  0
LINE
  8
1
 62
7
  6
CONTINUOUS
 10
122.658814
 20
343.267802
 11
120.370162
 21
344.292193
  0
LINE
  8
1
 62
7
  6
CONTINUOUS
 10
123.753003
 20
343.282882
 11
123.376507
 21
342.441730
  0
LINE
  8
1
 62
7
  6
CONTINUOUS
 10
123.376507
 20
342.441730
 11
120.370162
 21
344.292193
  0
LINE
  8
1
 62
7
  6
CONTINUOUS
 10
120.370162
 20
344.292193
 11
123.753003
 21
343.282882
  0
LINE
  8
1
 62
7
  6
CONTINUOUS
 10
243.831307
 20
344.276425
 11
227.372001
 21
344.276425
  0
LINE
  8
1
 62
7
  6
CONTINUOUS
 10
230.872001
 20
344.737209
 11
230.872001
 21
343.815642
  0
LINE
  8
1
 62
7
  6
CONTINUOUS
 10
230.872001
 20
343.815642
 11
227.372001
 21
344.276425
  0
LINE
  8
1
 62
7
  6
CONTINUOUS
 10
227.372001
 20
344.276425
 11
230.872001
 21
344.737209
  0
TEXT
  8
1
 62
7
  6
CONTINUOUS
 10
171.977791
 20
357.466754
 40
3.500000
 41
0.900000
  1
4-âË4.5ü}0.3
  7
KANJI
 50
0.000000
 51
0.000000
  0
TEXT
  8
1
 62
7
  6
CONTINUOUS
 10
174.072123
 20
385.738429
 40
3.500000
 41
0.900000
  1
7-BLADES
  7
KANJI
 50
0.000000
 51
0.000000
  0
TEXT
  8
1
 62
7
  6
CONTINUOUS
 10
118.914734
 20
398.778700
 40
1.500000
 41
0.675000
  1
S
  7
KANJI
 50
0.000000
 51
30.000000
  0
TEXT
  8
1
 62
7
  6
CONTINUOUS
 10
120.027633
 20
398.789496
 40
1.000000
 41
0.450000
  1
ERVO
  7
KANJI
 50
0.000000
 51
30.000000
  0
TEXT
  8
1
 62
7
  6
CONTINUOUS
 10
119.380000
 20
395.094380
 40
3.000000
 41
0.900000
  1
DCTiny25
  7
KANJI
 50
0.000000
 51
30.000000
  0
TEXT
  8
1
 62
7
  6
CONTINUOUS
 10
123.994986
 20
345.563505
 40
4.000000
 41
0.900000
  1
ë±ô]ò¹î³
  7
KANJI
 50
0.000000
 51
0.000000
  0
TEXT
  8
1
 62
7
  6
CONTINUOUS
 10
231.643086
 20
346.815318
 40
4.000000
 41
0.900000
  1
òù î³
  7
KANJI
 50
0.000000
 51
0.000000
  0
LINE
  8
1
 62
7
  6
CONTINUOUS
 10
101.436355
 20
444.573664
 11
161.436355
 21
444.573664
  0
LINE
  8
1
 62
7
  6
CONTINUOUS
 10
101.436355
 20
419.573664
 11
101.436355
 21
445.573664
  0
LINE
  8
1
 62
7
  6
CONTINUOUS
 10
161.436355
 20
419.573664
 11
161.436355
 21
445.573664
  0
LINE
  8
1
 62
7
  6
CONTINUOUS
 10
101.436355
 20
444.573664
 11
104.936355
 21
445.028664
  0
LINE
  8
1
 62
7
  6
CONTINUOUS
 10
104.936355
 20
445.028664
 11
104.936355
 21
444.118664
  0
LINE
  8
1
 62
7
  6
CONTINUOUS
 10
104.936355
 20
444.118664
 11
101.436355
 21
444.573664
  0
LINE
  8
1
 62
7
  6
CONTINUOUS
 10
161.436355
 20
444.573664
 11
157.936355
 21
444.118664
  0
LINE
  8
1
 62
7
  6
CONTINUOUS
 10
157.936355
 20
444.118664
 11
157.936355
 21
445.028664
  0
LINE
  8
1
 62
7
  6
CONTINUOUS
 10
157.936355
 20
445.028664
 11
161.436355
 21
444.573664
  0
TEXT
  8
1
 62
7
  6
CONTINUOUS
 10
127.944590
 20
445.573664
 40
3.200000
 41
0.900000
  1
60
  7
KANJI
 50
0.000000
 51
0.000000
  0
TEXT
  8
1
 62
7
  6
CONTINUOUS
 10
123.803413
 20
445.573664
 40
3.200000
 41
0.900000
  1
üá
  7
KANJI
 50
0.000000
 51
0.000000
  0
TEXT
  8
1
 62
7
  6
CONTINUOUS
 10
134.344590
 20
445.573664
 40
3.200000
 41
0.900000
  1
ü}1
  7
KANJI
 50
0.000000
 51
0.000000
  0
LINE
  8
1
 62
7
  6
CONTINUOUS
 10
106.436355
 20
435.573664
 11
156.436355
 21
435.573664
  0
LINE
  8
1
 62
7
  6
CONTINUOUS
 10
106.436355
 20
422.573664
 11
106.436355
 21
436.573664
  0
LINE
  8
1
 62
7
  6
CONTINUOUS
 10
156.436355
 20
422.573664
 11
156.436355
 21
436.573664
  0
LINE
  8
1
 62
7
  6
CONTINUOUS
 10
106.436355
 20
435.573664
 11
109.936355
 21
436.028664
  0
LINE
  8
1
 62
7
  6
CONTINUOUS
 10
109.936355
 20
436.028664
 11
109.936355
 21
435.118664
  0
LINE
  8
1
 62
7
  6
CONTINUOUS
 10
109.936355
 20
435.118664
 11
106.436355
 21
435.573664
  0
LINE
  8
1
 62
7
  6
CONTINUOUS
 10
156.436355
 20
435.573664
 11
152.936355
 21
435.118664
  0
LINE
  8
1
 62
7
  6
CONTINUOUS
 10
152.936355
 20
435.118664
 11
152.936355
 21
436.028664
  0
LINE
  8
1
 62
7
  6
CONTINUOUS
 10
152.936355
 20
436.028664
 11
156.436355
 21
435.573664
  0
TEXT
  8
1
 62
7
  6
CONTINUOUS
 10
125.504590
 20
436.573664
 40
3.200000
 41
0.900000
  1
50
  7
KANJI
 50
0.000000
 51
0.000000
  0
TEXT
  8
1
 62
7
  6
CONTINUOUS
 10
121.363413
 20
436.573664
 40
3.200000
 41
0.900000
  1
üá
  7
KANJI
 50
0.000000
 51
0.000000
  0
TEXT
  8
1
 62
7
  6
CONTINUOUS
 10
131.904590
 20
436.573664
 40
3.200000
 41
0.900000
  1
ü}0.3
  7
KANJI
 50
0.000000
 51
0.000000
  0
LINE
  8
1
 62
7
  6
CONTINUOUS
 10
161.436355
 20
444.573664
 11
202.001467
 21
444.573664
  0
LINE
  8
1
 62
7
  6
CONTINUOUS
 10
161.436355
 20
419.573664
 11
161.436355
 21
445.573664
  0
LINE
  8
1
 62
7
  6
CONTINUOUS
 10
202.001467
 20
413.238160
 11
202.001467
 21
445.573664
  0
LINE
  8
1
 62
7
  6
CONTINUOUS
 10
161.436355
 20
444.573664
 11
164.936355
 21
445.028664
  0
LINE
  8
1
 62
7
  6
CONTINUOUS
 10
164.936355
 20
445.028664
 11
164.936355
 21
444.118664
  0
LINE
  8
1
 62
7
  6
CONTINUOUS
 10
164.936355
 20
444.118664
 11
161.436355
 21
444.573664
  0
LINE
  8
1
 62
7
  6
CONTINUOUS
 10
202.001467
 20
444.573664
 11
198.501467
 21
444.118664
  0
LINE
  8
1
 62
7
  6
CONTINUOUS
 10
198.501467
 20
444.118664
 11
198.501467
 21
445.028664
  0
LINE
  8
1
 62
7
  6
CONTINUOUS
 10
198.501467
 20
445.028664
 11
202.001467
 21
444.573664
  0
TEXT
  8
1
 62
7
  6
CONTINUOUS
 10
172.796558
 20
445.573664
 40
3.200000
 41
0.900000
  1
300
  7
KANJI
 50
0.000000
 51
0.000000
  0
TEXT
  8
1
 62
7
  6
CONTINUOUS
 10
182.076558
 20
445.573664
 40
3.200000
 41
0.900000
  1
ü}30
  7
KANJI
 50
0.000000
 51
0.000000
  0
LINE
  8
1
 62
7
  6
CONTINUOUS
 10
192.001467
 20
435.573664
 11
202.001467
 21
435.573664
  0
LINE
  8
1
 62
7
  6
CONTINUOUS
 10
192.001467
 20
413.538160
 11
192.001467
 21
436.573664
  0
LINE
  8
1
 62
7
  6
CONTINUOUS
 10
202.001467
 20
413.238160
 11
202.001467
 21
436.573664
  0
LINE
  8
1
 62
7
  6
CONTINUOUS
 10
202.001467
 20
435.573664
 11
198.501467
 21
435.118664
  0
LINE
  8
1
 62
7
  6
CONTINUOUS
 10
198.501467
 20
435.118664
 11
198.501467
 21
436.028664
  0
LINE
  8
1
 62
7
  6
CONTINUOUS
 10
198.501467
 20
436.028664
 11
202.001467
 21
435.573664
  0
LINE
  8
1
 62
7
  6
CONTINUOUS
 10
192.001467
 20
435.573664
 11
195.501467
 21
436.028664
  0
LINE
  8
1
 62
7
  6
CONTINUOUS
 10
195.501467
 20
436.028664
 11
195.501467
 21
435.118664
  0
LINE
  8
1
 62
7
  6
CONTINUOUS
 10
195.501467
 20
435.118664
 11
192.001467
 21
435.573664
  0
TEXT
  8
1
 62
7
  6
CONTINUOUS
 10
195.081467
 20
436.573664
 40
3.200000
 41
0.900000
  1
10
  7
KANJI
 50
0.000000
 51
0.000000
  0
TEXT
  8
1
 62
7
  6
CONTINUOUS
 10
193.001467
 20
436.573664
 40
3.200000
 41
0.900000
  1
(
  7
KANJI
 50
0.000000
 51
0.000000
  0
TEXT
  8
1
 62
7
  6
CONTINUOUS
 10
200.521467
 20
436.573664
 40
3.200000
 41
0.900000
  1
)
  7
KANJI
 50
0.000000
 51
0.000000
  0
LINE
  8
1
 62
7
  6
CONTINUOUS
 10
222.593016
 20
435.573664
 11
248.093016
 21
435.573664
  0
LINE
  8
1
 62
7
  6
CONTINUOUS
 10
248.093016
 20
423.573664
 11
248.093016
 21
436.573664
  0
LINE
  8
1
 62
7
  6
CONTINUOUS
 10
222.593016
 20
423.573664
 11
222.593016
 21
436.573664
  0
LINE
  8
1
 62
7
  6
CONTINUOUS
 10
222.593016
 20
435.573664
 11
226.093016
 21
436.028664
  0
LINE
  8
1
 62
7
  6
CONTINUOUS
 10
226.093016
 20
436.028664
 11
226.093016
 21
435.118664
  0
LINE
  8
1
 62
7
  6
CONTINUOUS
 10
226.093016
 20
435.118664
 11
222.593016
 21
435.573664
  0
LINE
  8
1
 62
7
  6
CONTINUOUS
 10
248.093016
 20
435.573664
 11
244.593016
 21
435.118664
  0
LINE
  8
1
 62
7
  6
CONTINUOUS
 10
244.593016
 20
435.118664
 11
244.593016
 21
436.028664
  0
LINE
  8
1
 62
7
  6
CONTINUOUS
 10
244.593016
 20
436.028664
 11
248.093016
 21
435.573664
  0
TEXT
  8
1
 62
7
  6
CONTINUOUS
 10
225.380663
 20
436.573664
 40
3.200000
 41
0.900000
  1
25.5
  7
KANJI
 50
0.000000
 51
0.000000
  0
TEXT
  8
1
 62
7
  6
CONTINUOUS
 10
235.700663
 20
436.573664
 40
3.200000
 41
0.900000
  1
ü}0.5
  7
KANJI
 50
0.000000
 51
0.000000
  0
ENDSEC
  0
EOF
