  0
SECTION
  2
HEADER
  9
$ACADVER
  1
AC1003
  9
$INSBASE
 10
0.000000
 20
0.000000
  9
$EXTMIN
 10
0.000000
 20
0.000000
  9
$EXTMAX
 10
420.000000
 20
297.000000
  9
$LIMMIN
 10
0.000000
 20
0.000000
  9
$LIMMAX
 10
420.000000
 20
297.000000
  9
$VIEWCTR
 10
210.000000
 20
148.500000
  9
$VIEWSIZE
 40
297.000000
  9
$PEXTMIN
 10
0.000000
 20
0.000000
 30
0.000000
  9
$PEXTMAX
 10
420.000000
 20
297.000000
 30
0.000000
  9
$SNAPMODE
 70
     0
  9
$SNAPUNIT
 10
1.000000
 20
1.000000
  9
$SNAPBASE
 10
0.000000
 20
0.000000
  9
$SNAPANG
 50
0.000000
  9
$SNAPISOPAIR
 70
     0
  9
$SNAPSTYLE
 70
     0
  9
$GRIDMODE
 70
     0
  9
$GRIDUNIT
 10
0.000000
 20
0.000000
  9
$ORTHOMODE
 70
     0
  9
$REGENMODE
 70
     1
  9
$FILLMODE
 70
     1
  9
$QTEXTMODE
 70
     0
  9
$DRAGMODE
 70
     2
  9
$LTSCALE
 40
0.250000
  9
$OSMODE
 70
     0
  9
$ATTMODE
 70
     1
  9
$TEXTSIZE
 40
0.200000
  9
$TRACEWID
 40
0.050000
  9
$TEXTSTYLE
  7
STANDARD
  9
$CLAYER
  8
0
  9
$CELTYPE
  6
BYLAYER
  9
$CECOLOR
 62
   256
  9
$DIMSCALE
 40
1.000000
  9
$DIMASZ
 40
1.000000
  9
$DIMEXO
 40
0.000000
  9
$DIMDLI
 40
0.500000
  9
$DIMRND
 40
0.000000
  9
$DIMDLE
 40
0.000000
  9
$DIMEXE
 40
0.000000
  9
$DIMTP
 40
0.000000
  9
$DIMTM
 40
0.000000
  9
$DIMTXT
 40
0.180000
  9
$DIMCEN
 40
0.000000
  9
$DIMTSZ
 40
0.000000
  9
$DIMTOL
 70
     0
  9
$DIMLIM
 70
     0
  9
$DIMTIH
 70
     1
  9
$DIMTOH
 70
     1
  9
$DIMSE1
 70
     0
  9
$DIMSE2
 70
     0
  9
$DIMTAD
 70
     0
  9
$DIMZIN
 70
     0
  9
$DIMBLK
  1

  9
$DIMASO
 70
     0
  9
$DIMSHO
 70
     0
  9
$DIMPOST
  1

  9
$DIMAPOST
  1

  9
$DIMALT
 70
     0
  9
$DIMALTD
 70
     0
  9
$DIMALTF
 40
25.400000
  9
$DIMLFAC
 40
1.000000
  9
$DIMTOFL
 70
     0
  9
$DIMTVP
 40
0.000000
  9
$DIMTIX
 70
     0
  9
$DIMSOXD
 70
     0
  9
$DIMSAH
 70
     0
  9
$DIMBLKL
  1

  9
$DIMBLKR
  1

  9
$LUNITS
 70
     2
  9
$LUPREC
 70
     2
  9
$AXISMODE
 70
     0
  9
$AXISUNIT
 10
1.000000
 20
1.000000
  9
$SKETCHINC
 40
0.000000
  9
$FILLETRAD
 40
0.000000
  9
$AUNITS
 70
     1
  9
$AUPREC
 70
     2
  9
$MENU
  1
ACAD
  9
$ELEVATION
 40
0.000000
  9
$THICKNESS
 40
0.000000
  9
$VIEWDIR
 10
0.000000
 20
0.000000
 30
1.000000
  9
$LIMCHECK
 70
     1
  9
$BLIPMODE
 70
     1
  9
$CHAMFERA
 40
0.000000
  9
$CHAMFERB
 40
0.000000
  9
$FASTZOOM
 70
     1
  9
$SKPOLY
 70
     0
  9
$TDCREATE
 40
0.000000
  9
$TDUPDATE
 40
0.000000
  9
$TDINDWG
 40
0.000000
  9
$TDUSRTIMER
 40
0.000000
  9
$USRTIMER
 70
     1
  9
$ANGBASE
 50
0.000000
  9
$ANGDIR
 70
     0
  9
$PDMODE
 70
     0
  9
$PDSIZE
 40
0.000000
  9
$PLINEWID
 40
0.000000
  9
$COORDS
 70
     2
  9
$USERI1
 70
     0
  9
$USERI2
 70
     0
  9
$USERI3
 70
     0
  9
$USERI4
 70
     0
  9
$USERI5
 70
     0
  9
$USERR1
 40
0.000000
  9
$USERR2
 40
0.000000
  9
$USERR3
 40
0.000000
  9
$USERR4
 40
0.000000
  9
$USERR5
 40
0.000000
  0
ENDSEC
  0
SECTION
  2
TABLES
  0
TABLE
  2
LTYPE
 70
     5
  0
LTYPE
  2
CONTINUOUS
 70
    64
  3
Solid line
 72
    65
 73
     0
 40
0.0
  0
LTYPE
  2
HIDDEN
 70
    64
  3
------------------------
 72
    65
 73
     2
 40
12.6
 49
8.4
 49
-4.2
  0
LTYPE
  2
DOT
 70
    64
  3
････････････････････････
 72
    65
 73
     2
 40
8.0
 49
6.0
 49
-2.0
  0
LTYPE
  2
DASHDOT
 70
    64
  3
--･--･--･--･--･--･--･--
 72
    65
 73
     4
 40
50.5
 49
30.0
 49
-9.0
 49
2.5
 49
-9.0
  0
LTYPE
  2
DIVIDE
 70
    64
  3
--･･--･･--･･--･･--･･--
 72
    65
 73
     6
 40
58.0
 49
30.0
 49
-9.0
 49
2.5
 49
-5.0
 49
2.5
 49
-9.0
  0
ENDTAB
  0
TABLE
  2
LAYER
 70
1
  0
LAYER
  2
1
 70
64
 62
7
  6
CONTINUOUS
  0
ENDTAB
  0
TABLE
  2
STYLE
 70
     2
  0
STYLE
  2
STANDARD
 70
    64
 40
0.0
 41
1.0
 50
0.0
 71
     0
 42
0.2
  3
TXT
  4

  0
STYLE
  2
KANJI
 70
    64
 40
0.0
 41
1.0
 50
0.0
 71
     0
 42
0.2
  3
TXT
  4
BIGFONT
  0
ENDTAB
  0
TABLE
  2
VIEW
 70
     0
  0
ENDTAB
  0
ENDSEC
  0
SECTION
  2
BLOCKS
  0
ENDSEC
  0
SECTION
  2
ENTITIES
  0
LINE
  8
1
 62
7
  6
CONTINUOUS
 10
2120.035482
 20
3819.736892
 11
2140.035482
 21
3819.736892
  0
LINE
  8
1
 62
7
  6
CONTINUOUS
 10
2120.035482
 20
3819.736892
 11
2121.235482
 21
3819.736892
  0
LINE
  8
1
 62
7
  6
CONTINUOUS
 10
2120.035482
 20
3809.536892
 11
2120.035482
 21
3819.736892
  0
LINE
  8
1
 62
7
  6
CONTINUOUS
 10
2060.035482
 20
3810.736892
 11
2060.035482
 21
3819.736892
  0
LINE
  8
1
 62
7
  6
CONTINUOUS
 10
2140.035482
 20
3778.936892
 11
2140.035482
 21
3788.736892
  0
LINE
  8
1
 62
7
  6
CONTINUOUS
 10
2121.235482
 20
3778.936892
 11
2140.035482
 21
3778.936892
  0
LINE
  8
1
 62
7
  6
CONTINUOUS
 10
2140.035482
 20
3789.136892
 11
2140.035482
 21
3798.736892
  0
LINE
  8
1
 62
7
  6
CONTINUOUS
 10
2121.235482
 20
3789.136892
 11
2140.035482
 21
3789.136892
  0
LINE
  8
1
 62
7
  6
CONTINUOUS
 10
2140.035482
 20
3799.336892
 11
2140.035482
 21
3808.736892
  0
LINE
  8
1
 62
7
  6
CONTINUOUS
 10
2121.235482
 20
3799.336892
 11
2140.035482
 21
3799.336892
  0
LINE
  8
1
 62
7
  6
CONTINUOUS
 10
2140.035482
 20
3809.536892
 11
2140.035482
 21
3818.736892
  0
LINE
  8
1
 62
7
  6
CONTINUOUS
 10
2121.235482
 20
3809.536892
 11
2140.035482
 21
3809.536892
  0
LINE
  8
1
 62
7
  6
CONTINUOUS
 10
2121.235482
 20
3819.736892
 11
2140.035482
 21
3819.736892
  0
LINE
  8
1
 62
7
  6
CONTINUOUS
 10
2110.035482
 20
3819.736892
 11
2120.035482
 21
3819.736892
  0
LINE
  8
1
 62
7
  6
CONTINUOUS
 10
2100.035482
 20
3819.736892
 11
2110.035482
 21
3819.736892
  0
LINE
  8
1
 62
7
  6
CONTINUOUS
 10
2100.035482
 20
3818.736892
 11
2100.035482
 21
3819.736892
  0
LINE
  8
1
 62
7
  6
CONTINUOUS
 10
2140.035482
 20
3818.736892
 11
2140.035482
 21
3819.736892
  0
LINE
  8
1
 62
7
  6
CONTINUOUS
 10
2043.035482
 20
3768.736892
 11
2044.535482
 21
3768.736892
  0
LINE
  8
1
 62
7
  6
CONTINUOUS
 10
2043.035482
 20
3778.736892
 11
2043.035482
 21
3788.736892
  0
LINE
  8
1
 62
7
  6
CONTINUOUS
 10
2043.035482
 20
3778.736892
 11
2044.535482
 21
3778.736892
  0
LINE
  8
1
 62
7
  6
CONTINUOUS
 10
2043.035482
 20
3788.736892
 11
2043.035482
 21
3798.736892
  0
LINE
  8
1
 62
7
  6
CONTINUOUS
 10
2043.035482
 20
3788.736892
 11
2044.535482
 21
3788.736892
  0
LINE
  8
1
 62
7
  6
CONTINUOUS
 10
2043.035482
 20
3798.736892
 11
2043.035482
 21
3818.736892
  0
LINE
  8
1
 62
7
  6
CONTINUOUS
 10
2043.035482
 20
3798.736892
 11
2044.535482
 21
3798.736892
  0
LINE
  8
1
 62
7
  6
CONTINUOUS
 10
2043.035482
 20
3808.736892
 11
2044.535482
 21
3808.736892
  0
LINE
  8
1
 62
7
  6
CONTINUOUS
 10
2043.035482
 20
3818.736892
 11
2044.535482
 21
3818.736892
  0
LINE
  8
1
 62
7
  6
CONTINUOUS
 10
2043.035482
 20
3768.736892
 11
2043.035482
 21
3778.736892
  0
LINE
  8
1
 62
7
  6
CONTINUOUS
 10
2080.035482
 20
3780.614704
 11
2080.035482
 21
3796.889728
  0
LINE
  8
1
 62
7
  6
CONTINUOUS
 10
2070.035482
 20
3780.614704
 11
2070.035482
 21
3796.889728
  0
LINE
  8
1
 62
7
  6
CONTINUOUS
 10
2110.035482
 20
3810.553341
 11
2110.035482
 21
3816.215884
  0
LINE
  8
1
 62
7
  6
CONTINUOUS
 10
2080.035482
 20
3796.889728
 11
2080.035482
 21
3800.416298
  0
LINE
  8
1
 62
7
  6
CONTINUOUS
 10
2070.035482
 20
3796.889728
 11
2070.035482
 21
3800.416298
  0
LINE
  8
1
 62
7
  6
CONTINUOUS
 10
2080.435482
 20
3819.736892
 11
2090.035482
 21
3819.736892
  0
LINE
  8
1
 62
7
  6
CONTINUOUS
 10
2070.235482
 20
3819.736892
 11
2080.035482
 21
3819.736892
  0
LINE
  8
1
 62
7
  6
CONTINUOUS
 10
2060.035482
 20
3819.736892
 11
2070.035482
 21
3819.736892
  0
LINE
  8
1
 62
7
  6
CONTINUOUS
 10
2080.035482
 20
3778.736892
 11
2080.035482
 21
3780.614704
  0
LINE
  8
1
 62
7
  6
CONTINUOUS
 10
2090.635482
 20
3778.936892
 11
2121.235482
 21
3778.936892
  0
LINE
  8
1
 62
7
  6
CONTINUOUS
 10
2090.635482
 20
3809.536892
 11
2060.035482
 21
3809.536892
  0
LINE
  8
1
 62
7
  6
CONTINUOUS
 10
2121.235482
 20
3789.136892
 11
2060.035482
 21
3789.136892
  0
LINE
  8
1
 62
7
  6
CONTINUOUS
 10
2060.035482
 20
3799.336892
 11
2121.235482
 21
3799.336892
  0
LINE
  8
1
 62
7
  6
CONTINUOUS
 10
2060.035482
 20
3819.736892
 11
2070.035482
 21
3819.736892
  0
LINE
  8
1
 62
7
  6
CONTINUOUS
 10
2060.035482
 20
3778.936892
 11
2080.435482
 21
3778.936892
  0
LINE
  8
1
 62
7
  6
CONTINUOUS
 10
2060.035482
 20
3768.736892
 11
2060.035482
 21
3810.736892
  0
LINE
  8
1
 62
7
  6
CONTINUOUS
 10
2080.035482
 20
3778.736892
 11
2080.035482
 21
3768.736892
  0
LINE
  8
1
 62
7
  6
CONTINUOUS
 10
2080.035482
 20
3768.736892
 11
2070.035482
 21
3768.736892
  0
LINE
  8
1
 62
7
  6
CONTINUOUS
 10
2090.035482
 20
3768.736892
 11
2080.035482
 21
3768.736892
  0
LINE
  8
1
 62
7
  6
CONTINUOUS
 10
2100.035482
 20
3768.736892
 11
2090.035482
 21
3768.736892
  0
LINE
  8
1
 62
7
  6
CONTINUOUS
 10
2090.635482
 20
3809.536892
 11
2120.035482
 21
3809.536892
  0
LINE
  8
1
 62
7
  6
CONTINUOUS
 10
2080.435482
 20
3778.936892
 11
2090.635482
 21
3778.936892
  0
LINE
  8
1
 62
7
  6
CONTINUOUS
 10
2090.035482
 20
3778.736892
 11
2090.035482
 21
3768.736892
  0
LINE
  8
1
 62
7
  6
CONTINUOUS
 10
2100.035482
 20
3814.897934
 11
2100.035482
 21
3818.736892
  0
LINE
  8
1
 62
7
  6
CONTINUOUS
 10
2110.035482
 20
3802.448078
 11
2110.035482
 21
3810.553341
  0
LINE
  8
1
 62
7
  6
CONTINUOUS
 10
2110.035482
 20
3818.736892
 11
2110.035482
 21
3819.736892
  0
LINE
  8
1
 62
7
  6
CONTINUOUS
 10
2111.035482
 20
3819.736892
 11
2120.035482
 21
3819.736892
  0
LINE
  8
1
 62
7
  6
CONTINUOUS
 10
2100.835482
 20
3819.736892
 11
2111.035482
 21
3819.736892
  0
LINE
  8
1
 62
7
  6
CONTINUOUS
 10
2090.635482
 20
3819.736892
 11
2100.835482
 21
3819.736892
  0
LINE
  8
1
 62
7
  6
CONTINUOUS
 10
2080.435482
 20
3819.736892
 11
2090.035482
 21
3819.736892
  0
LINE
  8
1
 62
7
  6
CONTINUOUS
 10
2070.235482
 20
3819.736892
 11
2080.035482
 21
3819.736892
  0
LINE
  8
1
 62
7
  6
CONTINUOUS
 10
2100.035482
 20
3768.736892
 11
2110.035482
 21
3768.736892
  0
LINE
  8
1
 62
7
  6
CONTINUOUS
 10
2130.035482
 20
3768.736892
 11
2130.035482
 21
3809.536892
  0
LINE
  8
1
 62
7
  6
CONTINUOUS
 10
2140.035482
 20
3768.736892
 11
2140.035482
 21
3778.736892
  0
LINE
  8
1
 62
7
  6
CONTINUOUS
 10
2140.035482
 20
3808.736892
 11
2140.035482
 21
3809.536892
  0
LINE
  8
1
 62
7
  6
CONTINUOUS
 10
2120.035482
 20
3798.736892
 11
2120.035482
 21
3809.536892
  0
LINE
  8
1
 62
7
  6
CONTINUOUS
 10
2140.035482
 20
3798.736892
 11
2140.035482
 21
3799.336892
  0
LINE
  8
1
 62
7
  6
CONTINUOUS
 10
2120.035482
 20
3788.736892
 11
2120.035482
 21
3798.736892
  0
LINE
  8
1
 62
7
  6
CONTINUOUS
 10
2140.035482
 20
3788.736892
 11
2140.035482
 21
3789.136892
  0
LINE
  8
1
 62
7
  6
CONTINUOUS
 10
2120.035482
 20
3778.736892
 11
2120.035482
 21
3788.736892
  0
LINE
  8
1
 62
7
  6
CONTINUOUS
 10
2140.035482
 20
3778.736892
 11
2140.035482
 21
3778.936892
  0
LINE
  8
1
 62
7
  6
CONTINUOUS
 10
2120.035482
 20
3768.736892
 11
2122.035482
 21
3768.736892
  0
LINE
  8
1
 62
7
  6
CONTINUOUS
 10
2070.035482
 20
3768.736892
 11
2060.035482
 21
3768.736892
  0
LINE
  8
1
 62
7
  6
CONTINUOUS
 10
2110.035482
 20
3768.736892
 11
2120.035482
 21
3768.736892
  0
LINE
  8
1
 62
7
  6
CONTINUOUS
 10
2130.035482
 20
3768.736892
 11
2140.035482
 21
3768.736892
  0
LINE
  8
1
 62
7
  6
CONTINUOUS
 10
2124.035482
 20
3768.736892
 11
2126.698808
 21
3768.736892
  0
LINE
  8
1
 62
7
  6
CONTINUOUS
 10
2120.035482
 20
3778.736892
 11
2120.035482
 21
3768.736892
  0
LINE
  8
1
 62
7
  6
CONTINUOUS
 10
2100.035482
 20
3802.448078
 11
2100.035482
 21
3768.736892
  0
LINE
  8
1
 62
7
  6
CONTINUOUS
 10
2090.035482
 20
3808.736892
 11
2090.035482
 21
3778.736892
  0
LINE
  8
1
 62
7
  6
CONTINUOUS
 10
2070.035482
 20
3768.736892
 11
2070.035482
 21
3780.614704
  0
LINE
  8
1
 62
7
  6
CONTINUOUS
 10
2090.035482
 20
3819.736892
 11
2090.035482
 21
3814.736892
  0
LINE
  8
1
 62
7
  6
CONTINUOUS
 10
2100.035482
 20
3814.897934
 11
2100.035482
 21
3805.736892
  0
LINE
  8
1
 62
7
  6
CONTINUOUS
 10
2070.035482
 20
3806.387619
 11
2070.035482
 21
3819.736892
  0
LINE
  8
1
 62
7
  6
CONTINUOUS
 10
2080.035482
 20
3806.387619
 11
2080.035482
 21
3819.736892
  0
LINE
  8
1
 62
7
  6
CONTINUOUS
 10
2080.035482
 20
3800.416298
 11
2080.035482
 21
3806.387619
  0
LINE
  8
1
 62
7
  6
CONTINUOUS
 10
2070.035482
 20
3800.416298
 11
2070.035482
 21
3806.387619
  0
LINE
  8
1
 62
7
  6
CONTINUOUS
 10
2110.035482
 20
3816.215884
 11
2110.035482
 21
3818.736892
  0
LINE
  8
1
 62
7
  6
CONTINUOUS
 10
2090.035482
 20
3814.736892
 11
2090.035482
 21
3808.736892
  0
LINE
  8
1
 62
7
  6
CONTINUOUS
 10
2100.035482
 20
3805.736892
 11
2100.035482
 21
3802.448078
  0
LINE
  8
1
 62
7
  6
CONTINUOUS
 10
2110.035482
 20
3802.448078
 11
2110.035482
 21
3768.736892
  0
LINE
  8
1
 62
7
  6
CONTINUOUS
 10
2090.635482
 20
3819.736892
 11
2100.035482
 21
3819.736892
  0
LINE
  8
1
 62
7
  6
CONTINUOUS
 10
2122.535482
 20
3768.736892
 11
2124.035482
 21
3768.736892
  0
LINE
  8
1
 62
7
  6
CONTINUOUS
 10
2122.035482
 20
3768.736892
 11
2122.535482
 21
3768.736892
  0
LINE
  8
1
 62
7
  6
CONTINUOUS
 10
2078.823855
 20
3749.700466
 11
2125.416172
 21
3749.700466
  0
LINE
  8
1
 62
7
  6
CONTINUOUS
 10
2043.035482
 20
3818.736892
 11
2044.535482
 21
3818.736892
  0
LINE
  8
1
 62
7
  6
CONTINUOUS
 10
2070.035482
 20
3819.736892
 11
2070.235482
 21
3819.736892
  0
LINE
  8
1
 62
7
  6
CONTINUOUS
 10
2070.035482
 20
3819.736892
 11
2070.235482
 21
3819.736892
  0
LINE
  8
1
 62
7
  6
CONTINUOUS
 10
2080.035482
 20
3819.736892
 11
2080.435482
 21
3819.736892
  0
LINE
  8
1
 62
7
  6
CONTINUOUS
 10
2080.035482
 20
3819.736892
 11
2080.435482
 21
3819.736892
  0
LINE
  8
1
 62
7
  6
CONTINUOUS
 10
2090.035482
 20
3819.736892
 11
2090.635482
 21
3819.736892
  0
LINE
  8
1
 62
7
  6
CONTINUOUS
 10
2090.035482
 20
3819.736892
 11
2090.635482
 21
3819.736892
  0
LINE
  8
1
 62
7
  6
CONTINUOUS
 10
2120.035482
 20
3809.536892
 11
2121.235482
 21
3809.536892
  0
LINE
  8
1
 62
7
  6
CONTINUOUS
 10
2126.698808
 20
3768.736892
 11
2130.035482
 21
3768.736892
  0
LINE
  8
1
 62
7
  6
CONTINUOUS
 10
1884.595691
 20
3866.970572
 11
1884.985022
 21
3866.851542
  0
LINE
  8
1
 62
7
  6
CONTINUOUS
 10
1886.057550
 20
3871.752096
 11
1884.595691
 21
3866.970572
  0
LINE
  8
1
 62
7
  6
CONTINUOUS
 10
1885.292506
 20
3871.985993
 11
1886.057550
 21
3871.752096
  0
LINE
  8
1
 62
7
  6
CONTINUOUS
 10
1883.830647
 20
3867.204469
 11
1884.595691
 21
3866.970572
  0
LINE
  8
1
 62
7
  6
CONTINUOUS
 10
1883.830647
 20
3867.204469
 11
1885.292506
 21
3871.985993
  0
LINE
  8
1
 62
7
  6
CONTINUOUS
 10
1883.066039
 20
3867.438234
 11
1883.441316
 21
3867.323500
  0
LINE
  8
1
 62
7
  6
CONTINUOUS
 10
1884.527897
 20
3872.219758
 11
1883.066039
 21
3867.438234
  0
LINE
  8
1
 62
7
  6
CONTINUOUS
 10
1883.762853
 20
3872.453655
 11
1884.527897
 21
3872.219758
  0
LINE
  8
1
 62
7
  6
CONTINUOUS
 10
1882.300995
 20
3867.672131
 11
1883.066039
 21
3867.438234
  0
LINE
  8
1
 62
7
  6
CONTINUOUS
 10
1882.300995
 20
3867.672131
 11
1883.762853
 21
3872.453655
  0
LINE
  8
1
 62
7
  6
CONTINUOUS
 10
1883.441316
 20
3867.323500
 11
1883.830647
 21
3867.204469
  0
LINE
  8
1
 62
7
  6
CONTINUOUS
 10
1879.938833
 20
3855.867394
 11
1883.441316
 21
3867.323500
  0
LINE
  8
1
 62
7
  6
CONTINUOUS
 10
1884.985022
 20
3866.851542
 11
1881.418979
 21
3855.187539
  0
LINE
  8
1
 62
7
  6
CONTINUOUS
 10
1881.925717
 20
3867.786865
 11
1882.300995
 21
3867.672131
  0
LINE
  8
1
 62
7
  6
CONTINUOUS
 10
1878.468055
 20
3856.477361
 11
1881.925717
 21
3867.786865
  0
LINE
  8
1
 62
7
  6
CONTINUOUS
 10
1891.734535
 20
3854.137717
 11
1927.692217
 21
3854.137717
  0
LINE
  8
1
 62
7
  6
CONTINUOUS
 10
1985.677072
 20
3826.396347
 11
1985.677072
 21
3828.845178
  0
LINE
  8
1
 62
7
  6
CONTINUOUS
 10
1955.677072
 20
3826.396347
 11
1955.677072
 21
3828.845178
  0
LINE
  8
1
 62
7
  6
DASHDOT
 10
1952.871885
 20
3825.095178
 11
1987.629041
 21
3825.095178
  0
LINE
  8
1
 62
7
  6
CONTINUOUS
 10
1958.349915
 20
3820.077042
 11
1982.339909
 21
3820.077042
  0
LINE
  8
1
 62
7
  6
CONTINUOUS
 10
1966.977072
 20
3830.223030
 11
1966.977072
 21
3828.896347
  0
LINE
  8
1
 62
7
  6
CONTINUOUS
 10
1971.977072
 20
3830.223030
 11
1971.977072
 21
3828.896347
  0
LINE
  8
1
 62
7
  6
CONTINUOUS
 10
1966.977072
 20
3830.223030
 11
1971.977072
 21
3830.223030
  0
LINE
  8
1
 62
7
  6
CONTINUOUS
 10
1955.677072
 20
3826.396347
 11
1955.677072
 21
3790.895178
  0
LINE
  8
1
 62
7
  6
CONTINUOUS
 10
1985.677072
 20
3826.396347
 11
1985.677072
 21
3790.895178
  0
LINE
  8
1
 62
7
  6
CONTINUOUS
 10
1985.677072
 20
3828.845178
 11
1970.677072
 21
3828.845178
  0
LINE
  8
1
 62
7
  6
CONTINUOUS
 10
1970.677072
 20
3828.845178
 11
1970.677072
 21
3792.395178
  0
LINE
  8
1
 62
7
  6
CONTINUOUS
 10
1970.677072
 20
3828.845178
 11
1955.677072
 21
3828.845178
  0
LINE
  8
1
 62
7
  6
CONTINUOUS
 10
1861.019112
 20
3829.195157
 11
1862.144524
 21
3829.195157
  0
LINE
  8
1
 62
7
  6
DASHDOT
 10
1821.375394
 20
3794.195178
 11
1865.182695
 21
3794.195178
  0
LINE
  8
1
 62
7
  6
CONTINUOUS
 10
1867.712481
 20
3828.739683
 11
1868.012766
 21
3829.860364
  0
LINE
  8
1
 62
7
  6
CONTINUOUS
 10
1877.281018
 20
3825.812917
 11
1877.571008
 21
3826.895175
  0
LINE
  8
1
 62
7
  6
CONTINUOUS
 10
1868.012766
 20
3829.860364
 11
1868.014703
 21
3829.867593
  0
LINE
  8
1
 62
7
  6
CONTINUOUS
 10
1828.896375
 20
3778.920096
 11
1827.443771
 21
3778.242735
  0
LINE
  8
1
 62
7
  6
CONTINUOUS
 10
1831.019703
 20
3774.393330
 11
1829.566706
 21
3773.715786
  0
LINE
  8
1
 62
7
  6
CONTINUOUS
 10
1828.067635
 20
3781.292092
 11
1826.991334
 21
3780.790205
  0
LINE
  8
1
 62
7
  6
CONTINUOUS
 10
1832.293817
 20
3772.229015
 11
1831.235524
 21
3771.735524
  0
LINE
  8
1
 62
7
  6
CONTINUOUS
 10
1881.682695
 20
3753.495178
 11
1881.682695
 21
3752.395178
  0
LINE
  8
1
 62
7
  6
CONTINUOUS
 10
1889.182695
 20
3751.895178
 11
1891.182695
 21
3751.895178
  0
LINE
  8
1
 62
7
  6
CONTINUOUS
 10
1891.682695
 20
3753.495178
 11
1891.682695
 21
3752.395178
  0
LINE
  8
1
 62
7
  6
CONTINUOUS
 10
1901.782695
 20
3753.495178
 11
1889.182695
 21
3753.495178
  0
LINE
  8
1
 62
7
  6
CONTINUOUS
 10
1884.182695
 20
3751.895178
 11
1889.182695
 21
3751.895178
  0
LINE
  8
1
 62
7
  6
CONTINUOUS
 10
1889.182695
 20
3753.495178
 11
1889.182695
 21
3751.895178
  0
LINE
  8
1
 62
7
  6
CONTINUOUS
 10
1882.182695
 20
3753.495178
 11
1884.182695
 21
3753.495178
  0
LINE
  8
1
 62
7
  6
CONTINUOUS
 10
1882.182695
 20
3751.895178
 11
1884.182695
 21
3751.895178
  0
LINE
  8
1
 62
7
  6
CONTINUOUS
 10
1884.182695
 20
3753.495178
 11
1884.182695
 21
3751.895178
  0
LINE
  8
1
 62
7
  6
CONTINUOUS
 10
1885.182695
 20
3752.695178
 11
1888.182695
 21
3752.695178
  0
LINE
  8
1
 62
7
  6
CONTINUOUS
 10
1901.782695
 20
3793.395178
 11
1901.782695
 21
3753.495178
  0
LINE
  8
1
 62
7
  6
CONTINUOUS
 10
1888.182695
 20
3753.495178
 11
1885.182695
 21
3753.495178
  0
LINE
  8
1
 62
7
  6
CONTINUOUS
 10
1888.182695
 20
3753.495178
 11
1888.182695
 21
3752.695178
  0
LINE
  8
1
 62
7
  6
CONTINUOUS
 10
1885.282695
 20
3820.477611
 11
1885.282695
 21
3829.591006
  0
LINE
  8
1
 62
7
  6
DASHDOT
 10
1863.682695
 20
3750.893962
 11
1863.682695
 21
3832.868641
  0
LINE
  8
1
 62
7
  6
CONTINUOUS
 10
1890.162542
 20
3825.095178
 11
1880.688907
 21
3825.095178
  0
LINE
  8
1
 62
7
  6
CONTINUOUS
 10
1834.628971
 20
3757.995178
 11
1836.832695
 21
3757.995178
  0
LINE
  8
1
 62
7
  6
CONTINUOUS
 10
1839.582695
 20
3753.329576
 11
1839.582695
 21
3762.243298
  0
LINE
  8
1
 62
7
  6
CONTINUOUS
 10
1889.182695
 20
3753.495178
 11
1888.182695
 21
3753.495178
  0
LINE
  8
1
 62
7
  6
CONTINUOUS
 10
1901.682695
 20
3793.395178
 11
1897.681428
 21
3793.395178
  0
LINE
  8
1
 62
7
  6
CONTINUOUS
 10
1830.549884
 20
3775.277628
 11
1829.824280
 21
3774.939273
  0
LINE
  8
1
 62
7
  6
CONTINUOUS
 10
1829.275864
 20
3777.993676
 11
1828.550411
 21
3777.655392
  0
LINE
  8
1
 62
7
  6
CONTINUOUS
 10
1901.682695
 20
3793.395178
 11
1901.782695
 21
3793.395178
  0
LINE
  8
1
 62
7
  6
CONTINUOUS
 10
1901.682695
 20
3753.495178
 11
1901.782695
 21
3753.495178
  0
LINE
  8
1
 62
7
  6
CONTINUOUS
 10
1836.832695
 20
3757.995178
 11
1843.977769
 21
3757.995178
  0
LINE
  8
1
 62
7
  6
CONTINUOUS
 10
1866.282695
 20
3753.495178
 11
1882.182695
 21
3753.495178
  0
LINE
  8
1
 62
7
  6
CONTINUOUS
 10
1884.182695
 20
3753.495178
 11
1885.182695
 21
3753.495178
  0
LINE
  8
1
 62
7
  6
CONTINUOUS
 10
1885.182695
 20
3753.495178
 11
1885.182695
 21
3752.695178
  0
LINE
  8
1
 62
7
  6
CONTINUOUS
 10
1839.582695
 20
3753.329576
 11
1839.582695
 21
3754.329576
  0
LINE
  8
1
 62
7
  6
CONTINUOUS
 10
1839.582695
 20
3752.957186
 11
1839.582695
 21
3753.329576
  0
LINE
  8
1
 62
7
  6
CONTINUOUS
 10
1874.920962
 20
3826.757408
 11
1875.389567
 21
3828.290145
  0
LINE
  8
1
 62
7
  6
CONTINUOUS
 10
1870.159480
 20
3828.263373
 11
1870.628212
 21
3829.796526
  0
LINE
  8
1
 62
7
  6
CONTINUOUS
 10
1873.984259
 20
3827.113893
 11
1874.199430
 21
3827.817684
  0
LINE
  8
1
 62
7
  6
CONTINUOUS
 10
1871.141252
 20
3828.054299
 11
1871.365089
 21
3828.786438
  0
LINE
  8
1
 62
7
  6
DASHDOT
 10
1888.932695
 20
3794.195178
 11
1904.986181
 21
3794.195178
  0
LINE
  8
1
 62
7
  6
CONTINUOUS
 10
1873.471196
 20
3834.712707
 11
1871.874862
 21
3829.491334
  0
LINE
  8
1
 62
7
  6
CONTINUOUS
 10
1874.951342
 20
3834.032852
 11
1873.413895
 21
3829.004090
  0
LINE
  8
1
 62
7
  6
CONTINUOUS
 10
1872.000418
 20
3835.322674
 11
1870.331373
 21
3829.863474
  0
LINE
  8
1
 62
7
  6
CONTINUOUS
 10
1969.177072
 20
3759.595178
 11
1969.177072
 21
3754.495178
  0
LINE
  8
1
 62
7
  6
CONTINUOUS
 10
1981.677072
 20
3755.995178
 11
1981.677072
 21
3761.495178
  0
LINE
  8
1
 62
7
  6
CONTINUOUS
 10
1957.677072
 20
3755.995178
 11
1957.677072
 21
3761.495178
  0
LINE
  8
1
 62
7
  6
CONTINUOUS
 10
1969.177072
 20
3755.495178
 11
1958.177072
 21
3755.495178
  0
LINE
  8
1
 62
7
  6
CONTINUOUS
 10
1981.177072
 20
3755.495178
 11
1969.177072
 21
3755.495178
  0
LINE
  8
1
 62
7
  6
CONTINUOUS
 10
1977.487072
 20
3772.495007
 11
1977.487072
 21
3772.792592
  0
LINE
  8
1
 62
7
  6
CONTINUOUS
 10
1978.987072
 20
3772.511067
 11
1978.987072
 21
3790.495178
  0
LINE
  8
1
 62
7
  6
CONTINUOUS
 10
1981.677072
 20
3775.495007
 11
1981.677072
 21
3774.095007
  0
LINE
  8
1
 62
7
  6
CONTINUOUS
 10
1981.677072
 20
3774.095007
 11
1981.677072
 21
3766.495007
  0
LINE
  8
1
 62
7
  6
CONTINUOUS
 10
1981.677072
 20
3766.495007
 11
1981.677072
 21
3761.495178
  0
LINE
  8
1
 62
7
  6
CONTINUOUS
 10
1960.987072
 20
3772.495007
 11
1960.987072
 21
3772.792592
  0
LINE
  8
1
 62
7
  6
CONTINUOUS
 10
1959.487072
 20
3772.741119
 11
1959.487072
 21
3790.495178
  0
LINE
  8
1
 62
7
  6
CONTINUOUS
 10
1958.677072
 20
3773.258939
 11
1958.677072
 21
3790.495178
  0
LINE
  8
1
 62
7
  6
CONTINUOUS
 10
1957.677072
 20
3775.495007
 11
1957.677072
 21
3774.095007
  0
LINE
  8
1
 62
7
  6
CONTINUOUS
 10
1960.677072
 20
3772.495007
 11
1978.677072
 21
3772.495007
  0
LINE
  8
1
 62
7
  6
CONTINUOUS
 10
1957.677072
 20
3774.095007
 11
1957.677072
 21
3766.495007
  0
LINE
  8
1
 62
7
  6
CONTINUOUS
 10
1960.677072
 20
3771.095007
 11
1978.677072
 21
3771.095007
  0
LINE
  8
1
 62
7
  6
CONTINUOUS
 10
1957.677072
 20
3766.495007
 11
1957.677072
 21
3765.945007
  0
LINE
  8
1
 62
7
  6
CONTINUOUS
 10
1960.677072
 20
3769.495007
 11
1978.677072
 21
3769.495007
  0
LINE
  8
1
 62
7
  6
CONTINUOUS
 10
1969.177072
 20
3769.495007
 11
1969.177072
 21
3772.495007
  0
LINE
  8
1
 62
7
  6
CONTINUOUS
 10
1969.177072
 20
3759.595178
 11
1958.177072
 21
3759.595178
  0
LINE
  8
1
 62
7
  6
CONTINUOUS
 10
1983.177072
 20
3793.395178
 11
1958.177072
 21
3793.395178
  0
LINE
  8
1
 62
7
  6
CONTINUOUS
 10
1985.677072
 20
3790.895178
 11
1985.677072
 21
3755.995178
  0
LINE
  8
1
 62
7
  6
CONTINUOUS
 10
1983.177072
 20
3753.495178
 11
1958.177072
 21
3753.495178
  0
LINE
  8
1
 62
7
  6
DASHDOT
 10
1953.096728
 20
3794.195007
 11
1988.789075
 21
3794.195007
  0
LINE
  8
1
 62
7
  6
CONTINUOUS
 10
1981.677072
 20
3789.995178
 11
1981.677072
 21
3775.495007
  0
LINE
  8
1
 62
7
  6
CONTINUOUS
 10
1981.177072
 20
3790.495178
 11
1978.987072
 21
3790.495178
  0
LINE
  8
1
 62
7
  6
CONTINUOUS
 10
1957.677072
 20
3789.995178
 11
1957.677072
 21
3775.495007
  0
LINE
  8
1
 62
7
  6
CONTINUOUS
 10
1981.177072
 20
3759.595178
 11
1969.177072
 21
3759.595178
  0
LINE
  8
1
 62
7
  6
CONTINUOUS
 10
1969.177072
 20
3792.395178
 11
1969.177072
 21
3790.495178
  0
LINE
  8
1
 62
7
  6
CONTINUOUS
 10
1970.677072
 20
3792.395178
 11
1969.177072
 21
3792.395178
  0
LINE
  8
1
 62
7
  6
CONTINUOUS
 10
1969.177072
 20
3790.495178
 11
1960.987072
 21
3790.495178
  0
LINE
  8
1
 62
7
  6
CONTINUOUS
 10
1970.677072
 20
3754.495178
 11
1969.177072
 21
3754.495178
  0
LINE
  8
1
 62
7
  6
CONTINUOUS
 10
1970.677072
 20
3754.495178
 11
1970.677072
 21
3753.495178
  0
LINE
  8
1
 62
7
  6
CONTINUOUS
 10
1957.677072
 20
3765.945007
 11
1957.677072
 21
3761.495178
  0
LINE
  8
1
 62
7
  6
CONTINUOUS
 10
1966.977072
 20
3753.495178
 11
1966.977072
 21
3751.895178
  0
LINE
  8
1
 62
7
  6
CONTINUOUS
 10
1971.977072
 20
3753.495178
 11
1971.977072
 21
3751.895178
  0
LINE
  8
1
 62
7
  6
CONTINUOUS
 10
1966.977072
 20
3751.895178
 11
1971.977072
 21
3751.895178
  0
LINE
  8
1
 62
7
  6
CONTINUOUS
 10
1958.677072
 20
3766.945007
 11
1958.677072
 21
3768.569220
  0
LINE
  8
1
 62
7
  6
CONTINUOUS
 10
1959.487072
 20
3765.195007
 11
1959.487072
 21
3769.248895
  0
LINE
  8
1
 62
7
  6
CONTINUOUS
 10
1959.487072
 20
3765.195007
 11
1960.987072
 21
3765.195007
  0
LINE
  8
1
 62
7
  6
CONTINUOUS
 10
1960.987072
 20
3765.195007
 11
1960.987072
 21
3766.792592
  0
LINE
  8
1
 62
7
  6
CONTINUOUS
 10
1960.987072
 20
3790.495178
 11
1958.177072
 21
3790.495178
  0
LINE
  8
1
 62
7
  6
CONTINUOUS
 10
1978.987072
 20
3790.495178
 11
1977.487072
 21
3790.495178
  0
LINE
  8
1
 62
7
  6
CONTINUOUS
 10
1978.987072
 20
3766.695007
 11
1978.987072
 21
3769.478948
  0
LINE
  8
1
 62
7
  6
CONTINUOUS
 10
1977.487072
 20
3766.695007
 11
1977.487072
 21
3766.792592
  0
LINE
  8
1
 62
7
  6
CONTINUOUS
 10
1977.487072
 20
3766.695007
 11
1978.987072
 21
3766.695007
  0
LINE
  8
1
 62
7
  6
CONTINUOUS
 10
1977.487072
 20
3790.495178
 11
1969.177072
 21
3790.495178
  0
LINE
  8
1
 62
7
  6
CONTINUOUS
 10
1977.487072
 20
3787.163671
 11
1960.987072
 21
3787.163671
  0
LINE
  8
1
 62
7
  6
CONTINUOUS
 10
1977.487072
 20
3788.663671
 11
1977.487072
 21
3790.495178
  0
LINE
  8
1
 62
7
  6
CONTINUOUS
 10
1960.987072
 20
3788.663671
 11
1960.987072
 21
3790.495178
  0
LINE
  8
1
 62
7
  6
CONTINUOUS
 10
1977.487072
 20
3785.963671
 11
1960.987072
 21
3785.963671
  0
LINE
  8
1
 62
7
  6
CONTINUOUS
 10
1977.487072
 20
3787.463671
 11
1977.487072
 21
3788.663671
  0
LINE
  8
1
 62
7
  6
CONTINUOUS
 10
1960.987072
 20
3787.463671
 11
1960.987072
 21
3788.663671
  0
LINE
  8
1
 62
7
  6
CONTINUOUS
 10
1977.487072
 20
3782.592592
 11
1960.987072
 21
3782.592592
  0
LINE
  8
1
 62
7
  6
CONTINUOUS
 10
1977.487072
 20
3784.092592
 11
1977.487072
 21
3785.963671
  0
LINE
  8
1
 62
7
  6
CONTINUOUS
 10
1960.987072
 20
3784.092592
 11
1960.987072
 21
3787.463671
  0
LINE
  8
1
 62
7
  6
CONTINUOUS
 10
1977.487072
 20
3781.592592
 11
1960.987072
 21
3781.592592
  0
LINE
  8
1
 62
7
  6
CONTINUOUS
 10
1977.487072
 20
3783.092592
 11
1977.487072
 21
3784.092592
  0
LINE
  8
1
 62
7
  6
CONTINUOUS
 10
1960.987072
 20
3783.092592
 11
1960.987072
 21
3784.092592
  0
LINE
  8
1
 62
7
  6
CONTINUOUS
 10
1977.487072
 20
3778.592592
 11
1960.987072
 21
3778.592592
  0
LINE
  8
1
 62
7
  6
CONTINUOUS
 10
1977.487072
 20
3780.092592
 11
1977.487072
 21
3781.592592
  0
LINE
  8
1
 62
7
  6
CONTINUOUS
 10
1960.987072
 20
3780.092592
 11
1960.987072
 21
3783.092592
  0
LINE
  8
1
 62
7
  6
CONTINUOUS
 10
1977.487072
 20
3777.692592
 11
1960.987072
 21
3777.692592
  0
LINE
  8
1
 62
7
  6
CONTINUOUS
 10
1977.487072
 20
3779.192592
 11
1977.487072
 21
3780.092592
  0
LINE
  8
1
 62
7
  6
CONTINUOUS
 10
1960.987072
 20
3779.192592
 11
1960.987072
 21
3780.092592
  0
LINE
  8
1
 62
7
  6
CONTINUOUS
 10
1977.487072
 20
3775.092592
 11
1960.987072
 21
3775.092592
  0
LINE
  8
1
 62
7
  6
CONTINUOUS
 10
1977.487072
 20
3776.592592
 11
1977.487072
 21
3777.692592
  0
LINE
  8
1
 62
7
  6
CONTINUOUS
 10
1960.987072
 20
3776.592592
 11
1960.987072
 21
3779.192592
  0
LINE
  8
1
 62
7
  6
CONTINUOUS
 10
1977.487072
 20
3774.292592
 11
1960.987072
 21
3774.292592
  0
LINE
  8
1
 62
7
  6
CONTINUOUS
 10
1977.487072
 20
3775.792592
 11
1977.487072
 21
3776.592592
  0
LINE
  8
1
 62
7
  6
CONTINUOUS
 10
1960.987072
 20
3775.792592
 11
1960.987072
 21
3776.592592
  0
LINE
  8
1
 62
7
  6
CONTINUOUS
 10
1977.487072
 20
3773.592592
 11
1977.487072
 21
3774.292592
  0
LINE
  8
1
 62
7
  6
CONTINUOUS
 10
1960.987072
 20
3773.592592
 11
1960.987072
 21
3775.792592
  0
LINE
  8
1
 62
7
  6
CONTINUOUS
 10
1977.487072
 20
3772.792592
 11
1977.487072
 21
3773.592592
  0
LINE
  8
1
 62
7
  6
CONTINUOUS
 10
1960.987072
 20
3772.792592
 11
1960.987072
 21
3773.592592
  0
LINE
  8
1
 62
7
  6
CONTINUOUS
 10
1977.487072
 20
3768.792592
 11
1960.987072
 21
3768.792592
  0
LINE
  8
1
 62
7
  6
CONTINUOUS
 10
1977.487072
 20
3767.592592
 11
1960.987072
 21
3767.592592
  0
LINE
  8
1
 62
7
  6
CONTINUOUS
 10
1977.487072
 20
3767.592592
 11
1977.487072
 21
3768.792592
  0
LINE
  8
1
 62
7
  6
CONTINUOUS
 10
1960.987072
 20
3767.592592
 11
1960.987072
 21
3769.495007
  0
LINE
  8
1
 62
7
  6
CONTINUOUS
 10
1977.487072
 20
3766.792592
 11
1960.987072
 21
3766.792592
  0
LINE
  8
1
 62
7
  6
CONTINUOUS
 10
1960.987072
 20
3766.792592
 11
1960.987072
 21
3767.592592
  0
LINE
  8
1
 62
7
  6
CONTINUOUS
 10
1977.487072
 20
3775.092592
 11
1977.487072
 21
3775.792592
  0
LINE
  8
1
 62
7
  6
CONTINUOUS
 10
1977.487072
 20
3778.592592
 11
1977.487072
 21
3779.192592
  0
LINE
  8
1
 62
7
  6
CONTINUOUS
 10
1977.487072
 20
3782.592592
 11
1977.487072
 21
3783.092592
  0
LINE
  8
1
 62
7
  6
CONTINUOUS
 10
1977.487072
 20
3787.163671
 11
1977.487072
 21
3787.463671
  0
LINE
  8
1
 62
7
  6
CONTINUOUS
 10
1955.677072
 20
3755.995178
 11
1955.677072
 21
3790.895178
  0
LINE
  8
1
 62
7
  6
CONTINUOUS
 10
1980.377072
 20
3776.195007
 11
1981.677072
 21
3776.195007
  0
LINE
  8
1
 62
7
  6
CONTINUOUS
 10
1980.377072
 20
3790.495178
 11
1980.377072
 21
3776.195007
  0
LINE
  8
1
 62
7
  6
CONTINUOUS
 10
1978.987072
 20
3780.695007
 11
1980.377072
 21
3780.695007
  0
LINE
  8
1
 62
7
  6
DASHDOT
 10
1865.182695
 20
3794.195178
 11
1888.932695
 21
3794.195178
  0
ARC
  8
1
 62
7
  6
CONTINUOUS
 10
1862.182695
 20
3794.695178
 40
34.500000
 50
90.063392
 51
118.180224
  0
ARC
  8
1
 62
7
  6
CONTINUOUS
 10
1862.182695
 20
3794.695178
 40
34.500000
 50
90.063392
 51
118.180224
  0
ARC
  8
1
 62
7
  6
CONTINUOUS
 10
1862.182695
 20
3794.695178
 40
36.100000
 50
76.872194
 51
79.785581
  0
ARC
  8
1
 62
7
  6
CONTINUOUS
 10
1868.495729
 20
3829.730954
 40
0.500000
 50
79.785581
 51
165.000000
  0
ARC
  8
1
 62
7
  6
CONTINUOUS
 10
1877.088045
 20
3827.024585
 40
0.500000
 50
-15.000000
 51
65.248115
  0
ARC
  8
1
 62
7
  6
CONTINUOUS
 10
1862.182695
 20
3794.695178
 40
36.100000
 50
65.248115
 51
71.791752
  0
ARC
  8
1
 62
7
  6
CONTINUOUS
 10
1866.282695
 20
3793.695178
 40
41.800000
 50
-158.304384
 51
-151.446713
  0
ARC
  8
1
 62
7
  6
CONTINUOUS
 10
1866.282695
 20
3793.695178
 40
41.800000
 50
-151.446713
 51
-148.618198
  0
ARC
  8
1
 62
7
  6
CONTINUOUS
 10
1866.282695
 20
3793.695178
 40
41.800000
 50
-161.128830
 51
-158.304384
  0
ARC
  8
1
 62
7
  6
CONTINUOUS
 10
1827.202643
 20
3780.337051
 40
0.500000
 50
115.000000
 51
-161.128830
  0
ARC
  8
1
 62
7
  6
CONTINUOUS
 10
1831.024215
 20
3772.188678
 40
0.500000
 50
-148.618198
 51
-65.000000
  0
ARC
  8
1
 62
7
  6
CONTINUOUS
 10
1882.182695
 20
3752.395178
 40
0.500000
 50
180.000000
 51
-90.000000
  0
ARC
  8
1
 62
7
  6
CONTINUOUS
 10
1891.182695
 20
3752.395178
 40
0.500000
 50
-90.000000
 51
0.000000
  0
ARC
  8
1
 62
7
  6
CONTINUOUS
 10
1862.182695
 20
3794.695178
 40
34.500000
 50
65.558416
 51
71.640943
  0
ARC
  8
1
 62
7
  6
CONTINUOUS
 10
1885.282695
 20
3825.095178
 40
3.750000
 50
-35.007041
 51
140.546931
  0
ARC
  8
1
 62
7
  6
CONTINUOUS
 10
1892.449659
 20
3820.075504
 40
5.000000
 50
144.992959
 51
-140.018526
  0
ARC
  8
1
 62
7
  6
CONTINUOUS
 10
1878.526424
 20
3830.655330
 40
5.000000
 50
-114.441584
 51
-39.453069
  0
ARC
  8
1
 62
7
  6
CONTINUOUS
 10
1862.482695
 20
3792.595178
 40
36.500000
 50
117.038506
 51
174.056584
  0
ARC
  8
1
 62
7
  6
CONTINUOUS
 10
1866.282695
 20
3793.595178
 40
40.200000
 50
176.035393
 51
-179.814227
  0
ARC
  8
1
 62
7
  6
CONTINUOUS
 10
1866.282695
 20
3793.695178
 40
40.200000
 50
-115.528480
 51
-90.000000
  0
ARC
  8
1
 62
7
  6
CONTINUOUS
 10
1866.282695
 20
3793.695178
 40
40.200000
 50
-179.814227
 51
-157.138399
  0
ARC
  8
1
 62
7
  6
CONTINUOUS
 10
1862.182695
 20
3794.695178
 40
34.500000
 50
-0.484195
 51
39.981474
  0
ARC
  8
1
 62
7
  6
CONTINUOUS
 10
1897.681428
 20
3794.395178
 40
1.000000
 50
179.515805
 51
-90.000000
  0
ARC
  8
1
 62
7
  6
CONTINUOUS
 10
1865.014840
 20
3796.414102
 40
40.200000
 50
-152.861601
 51
-152.732333
  0
ARC
  8
1
 62
7
  6
CONTINUOUS
 10
1866.282695
 20
3793.695178
 40
41.000000
 50
-156.969922
 51
-152.776602
  0
ARC
  8
1
 62
7
  6
CONTINUOUS
 10
1866.101291
 20
3793.610588
 40
40.000000
 50
-157.019191
 51
-152.720988
  0
ARC
  8
1
 62
7
  6
CONTINUOUS
 10
1832.588050
 20
3763.417119
 40
5.100000
 50
-37.781265
 51
41.942913
  0
ARC
  8
1
 62
7
  6
CONTINUOUS
 10
1866.282695
 20
3793.695178
 40
40.200000
 50
-152.732333
 51
-138.057087
  0
ARC
  8
1
 62
7
  6
CONTINUOUS
 10
1839.582695
 20
3757.995178
 40
3.750000
 50
142.218735
 51
180.000000
  0
ARC
  8
1
 62
7
  6
CONTINUOUS
 10
1846.760221
 20
3752.817764
 40
5.100000
 50
64.471520
 51
144.195697
  0
ARC
  8
1
 62
7
  6
CONTINUOUS
 10
1839.582695
 20
3757.995178
 40
3.750000
 50
180.000000
 51
-35.804303
  0
ARC
  8
1
 62
7
  6
CONTINUOUS
 10
1862.182695
 20
3794.695178
 40
34.500000
 50
79.958108
 51
82.453330
  0
ARC
  8
1
 62
7
  6
CONTINUOUS
 10
1862.182695
 20
3794.695178
 40
34.500000
 50
82.453330
 51
90.063392
  0
ARC
  8
1
 62
7
  6
CONTINUOUS
 10
1862.182695
 20
3794.695178
 40
34.500000
 50
79.958108
 51
82.453330
  0
ARC
  8
1
 62
7
  6
CONTINUOUS
 10
1862.182695
 20
3794.695178
 40
34.500000
 50
82.453330
 51
90.063392
  0
ARC
  8
1
 62
7
  6
CONTINUOUS
 10
1862.182695
 20
3794.695178
 40
34.500000
 50
77.052068
 51
79.958108
  0
ARC
  8
1
 62
7
  6
CONTINUOUS
 10
1859.530815
 20
3789.531502
 40
41.000000
 50
69.036626
 51
73.223398
  0
ARC
  8
1
 62
7
  6
CONTINUOUS
 10
1866.999500
 20
3818.116891
 40
4.000000
 50
-18.610908
 51
-18.246773
  0
ARC
  8
1
 62
7
  6
CONTINUOUS
 10
1870.316477
 20
3816.999902
 40
0.500000
 50
-106.219453
 51
-18.610908
  0
ARC
  8
1
 62
7
  6
CONTINUOUS
 10
1870.316477
 20
3816.999902
 40
0.500000
 50
161.389092
 51
-106.219453
  0
ARC
  8
1
 62
7
  6
CONTINUOUS
 10
1850.846935
 20
3814.652275
 40
4.000000
 50
21.389092
 51
21.753227
  0
ARC
  8
1
 62
7
  6
CONTINUOUS
 10
1854.105873
 20
3815.928723
 40
0.500000
 50
-66.219453
 51
21.389092
  0
ARC
  8
1
 62
7
  6
CONTINUOUS
 10
1854.105873
 20
3815.928723
 40
0.500000
 50
-158.610908
 51
-66.219453
  0
ARC
  8
1
 62
7
  6
CONTINUOUS
 10
1854.594276
 20
3816.570392
 40
4.000000
 50
11.389092
 51
11.753227
  0
ARC
  8
1
 62
7
  6
CONTINUOUS
 10
1858.025357
 20
3817.261540
 40
0.500000
 50
-76.219453
 51
11.389092
  0
ARC
  8
1
 62
7
  6
CONTINUOUS
 10
1858.025357
 20
3817.261540
 40
0.500000
 50
-168.610908
 51
-76.219453
  0
ARC
  8
1
 62
7
  6
CONTINUOUS
 10
1858.617765
 20
3817.808650
 40
4.000000
 50
1.389092
 51
1.753227
  0
ARC
  8
1
 62
7
  6
CONTINUOUS
 10
1862.116736
 20
3817.893496
 40
0.500000
 50
-86.219453
 51
1.389092
  0
ARC
  8
1
 62
7
  6
CONTINUOUS
 10
1862.116736
 20
3817.893496
 40
0.500000
 50
-178.610908
 51
-86.219453
  0
ARC
  8
1
 62
7
  6
CONTINUOUS
 10
1862.795149
 20
3818.329424
 40
4.000000
 50
-8.610908
 51
-8.246773
  0
ARC
  8
1
 62
7
  6
CONTINUOUS
 10
1866.255696
 20
3817.805391
 40
0.500000
 50
171.389092
 51
-8.610908
  0
ARC
  8
1
 62
7
  6
CONTINUOUS
 10
1862.795149
 20
3818.329424
 40
3.000000
 50
-8.610908
 51
20.328840
  0
ARC
  8
1
 62
7
  6
CONTINUOUS
 10
1862.795149
 20
3818.329424
 40
4.000000
 50
-8.610908
 51
13.543842
  0
ARC
  8
1
 62
7
  6
CONTINUOUS
 10
1866.999500
 20
3818.116891
 40
3.000000
 50
-18.610908
 51
10.328840
  0
ARC
  8
1
 62
7
  6
CONTINUOUS
 10
1866.999500
 20
3818.116891
 40
4.000000
 50
-18.610908
 51
3.543842
  0
ARC
  8
1
 62
7
  6
CONTINUOUS
 10
1858.617765
 20
3817.808650
 40
4.000000
 50
1.389092
 51
23.543842
  0
ARC
  8
1
 62
7
  6
CONTINUOUS
 10
1858.617765
 20
3817.808650
 40
3.000000
 50
1.389092
 51
30.328840
  0
ARC
  8
1
 62
7
  6
CONTINUOUS
 10
1854.594276
 20
3816.570392
 40
4.000000
 50
11.389092
 51
33.543842
  0
ARC
  8
1
 62
7
  6
CONTINUOUS
 10
1854.594276
 20
3816.570392
 40
3.000000
 50
11.389092
 51
40.328840
  0
ARC
  8
1
 62
7
  6
CONTINUOUS
 10
1850.846935
 20
3814.652275
 40
4.000000
 50
21.389092
 51
43.543842
  0
ARC
  8
1
 62
7
  6
CONTINUOUS
 10
1850.846935
 20
3814.652275
 40
3.000000
 50
21.389092
 51
50.328840
  0
ARC
  8
1
 62
7
  6
CONTINUOUS
 10
1847.489601
 20
3812.112579
 40
4.000000
 50
31.389092
 51
31.753227
  0
ARC
  8
1
 62
7
  6
CONTINUOUS
 10
1850.477376
 20
3813.935544
 40
0.500000
 50
-56.219453
 51
31.389092
  0
ARC
  8
1
 62
7
  6
CONTINUOUS
 10
1850.477376
 20
3813.935544
 40
0.500000
 50
-148.610908
 51
-56.219453
  0
ARC
  8
1
 62
7
  6
CONTINUOUS
 10
1847.489601
 20
3812.112579
 40
4.000000
 50
31.389092
 51
53.543842
  0
ARC
  8
1
 62
7
  6
CONTINUOUS
 10
1847.489601
 20
3812.112579
 40
3.000000
 50
31.389092
 51
60.328840
  0
ARC
  8
1
 62
7
  6
CONTINUOUS
 10
1844.624287
 20
3809.028472
 40
4.000000
 50
41.389092
 51
41.753227
  0
ARC
  8
1
 62
7
  6
CONTINUOUS
 10
1847.250116
 20
3811.342564
 40
0.500000
 50
-46.219453
 51
41.389092
  0
ARC
  8
1
 62
7
  6
CONTINUOUS
 10
1847.250116
 20
3811.342564
 40
0.500000
 50
-138.610908
 51
-46.219453
  0
ARC
  8
1
 62
7
  6
CONTINUOUS
 10
1844.624287
 20
3809.028472
 40
4.000000
 50
41.389092
 51
63.543842
  0
ARC
  8
1
 62
7
  6
CONTINUOUS
 10
1844.624287
 20
3809.028472
 40
3.000000
 50
41.389092
 51
70.328840
  0
ARC
  8
1
 62
7
  6
CONTINUOUS
 10
1842.338052
 20
3805.493663
 40
4.000000
 50
51.389092
 51
51.753227
  0
ARC
  8
1
 62
7
  6
CONTINUOUS
 10
1844.522151
 20
3808.228569
 40
0.500000
 50
-36.219453
 51
51.389092
  0
ARC
  8
1
 62
7
  6
CONTINUOUS
 10
1844.522151
 20
3808.228569
 40
0.500000
 50
-128.610908
 51
-36.219453
  0
ARC
  8
1
 62
7
  6
CONTINUOUS
 10
1842.338052
 20
3805.493663
 40
4.000000
 50
51.389092
 51
73.543842
  0
ARC
  8
1
 62
7
  6
CONTINUOUS
 10
1842.338052
 20
3805.493663
 40
3.000000
 50
51.389092
 51
80.328840
  0
ARC
  8
1
 62
7
  6
CONTINUOUS
 10
1840.700364
 20
3801.615555
 40
4.000000
 50
61.389092
 51
61.753227
  0
ARC
  8
1
 62
7
  6
CONTINUOUS
 10
1842.376370
 20
3804.688177
 40
0.500000
 50
-26.219453
 51
61.389092
  0
ARC
  8
1
 62
7
  6
CONTINUOUS
 10
1842.376370
 20
3804.688177
 40
0.500000
 50
-118.610908
 51
-26.219453
  0
ARC
  8
1
 62
7
  6
CONTINUOUS
 10
1840.700364
 20
3801.615555
 40
4.000000
 50
61.389092
 51
83.543842
  0
ARC
  8
1
 62
7
  6
CONTINUOUS
 10
1840.700364
 20
3801.615555
 40
3.000000
 50
61.389092
 51
90.328840
  0
ARC
  8
1
 62
7
  6
CONTINUOUS
 10
1839.760982
 20
3797.511983
 40
4.000000
 50
71.389092
 51
71.753227
  0
ARC
  8
1
 62
7
  6
CONTINUOUS
 10
1840.877971
 20
3800.828960
 40
0.500000
 50
-16.219453
 51
71.389092
  0
ARC
  8
1
 62
7
  6
CONTINUOUS
 10
1840.877971
 20
3800.828960
 40
0.500000
 50
-108.610908
 51
-16.219453
  0
ARC
  8
1
 62
7
  6
CONTINUOUS
 10
1839.760982
 20
3797.511983
 40
4.000000
 50
71.389092
 51
93.543842
  0
ARC
  8
1
 62
7
  6
CONTINUOUS
 10
1839.760982
 20
3797.511983
 40
3.000000
 50
71.389092
 51
100.328840
  0
ARC
  8
1
 62
7
  6
CONTINUOUS
 10
1839.548450
 20
3793.307632
 40
4.000000
 50
81.389092
 51
81.753227
  0
ARC
  8
1
 62
7
  6
CONTINUOUS
 10
1840.072482
 20
3796.768179
 40
0.500000
 50
-6.219453
 51
81.389092
  0
ARC
  8
1
 62
7
  6
CONTINUOUS
 10
1840.072482
 20
3796.768179
 40
0.500000
 50
-98.610908
 51
-6.219453
  0
ARC
  8
1
 62
7
  6
CONTINUOUS
 10
1839.548450
 20
3793.307632
 40
4.000000
 50
81.389092
 51
103.543842
  0
ARC
  8
1
 62
7
  6
CONTINUOUS
 10
1839.548450
 20
3793.307632
 40
3.000000
 50
81.389092
 51
110.328840
  0
ARC
  8
1
 62
7
  6
CONTINUOUS
 10
1840.069224
 20
3789.130248
 40
4.000000
 50
91.389092
 51
91.753227
  0
ARC
  8
1
 62
7
  6
CONTINUOUS
 10
1839.984377
 20
3792.629219
 40
0.500000
 50
3.780547
 51
91.389092
  0
ARC
  8
1
 62
7
  6
CONTINUOUS
 10
1839.984377
 20
3792.629219
 40
0.500000
 50
-88.610908
 51
3.780547
  0
ARC
  8
1
 62
7
  6
CONTINUOUS
 10
1840.069224
 20
3789.130248
 40
4.000000
 50
91.389092
 51
113.543842
  0
ARC
  8
1
 62
7
  6
CONTINUOUS
 10
1840.069224
 20
3789.130248
 40
3.000000
 50
91.389092
 51
120.328840
  0
ARC
  8
1
 62
7
  6
CONTINUOUS
 10
1841.307481
 20
3785.106759
 40
4.000000
 50
101.389092
 51
101.753227
  0
ARC
  8
1
 62
7
  6
CONTINUOUS
 10
1840.616334
 20
3788.537840
 40
0.500000
 50
13.780547
 51
101.389092
  0
ARC
  8
1
 62
7
  6
CONTINUOUS
 10
1840.616334
 20
3788.537840
 40
0.500000
 50
-78.610908
 51
13.780547
  0
ARC
  8
1
 62
7
  6
CONTINUOUS
 10
1841.307481
 20
3785.106759
 40
4.000000
 50
101.389092
 51
123.543842
  0
ARC
  8
1
 62
7
  6
CONTINUOUS
 10
1841.307481
 20
3785.106759
 40
3.000000
 50
101.389092
 51
130.328840
  0
ARC
  8
1
 62
7
  6
CONTINUOUS
 10
1843.225599
 20
3781.359418
 40
4.000000
 50
111.389092
 51
111.753227
  0
ARC
  8
1
 62
7
  6
CONTINUOUS
 10
1841.949150
 20
3784.618356
 40
0.500000
 50
23.780547
 51
111.389092
  0
ARC
  8
1
 62
7
  6
CONTINUOUS
 10
1841.949150
 20
3784.618356
 40
0.500000
 50
-68.610908
 51
23.780547
  0
ARC
  8
1
 62
7
  6
CONTINUOUS
 10
1843.225599
 20
3781.359418
 40
4.000000
 50
111.389092
 51
133.543842
  0
ARC
  8
1
 62
7
  6
CONTINUOUS
 10
1843.225599
 20
3781.359418
 40
3.000000
 50
111.389092
 51
140.328840
  0
ARC
  8
1
 62
7
  6
CONTINUOUS
 10
1845.765294
 20
3778.002084
 40
4.000000
 50
121.389092
 51
121.753227
  0
ARC
  8
1
 62
7
  6
CONTINUOUS
 10
1843.942329
 20
3780.989859
 40
0.500000
 50
33.780547
 51
121.389092
  0
ARC
  8
1
 62
7
  6
CONTINUOUS
 10
1843.942329
 20
3780.989859
 40
0.500000
 50
-58.610908
 51
33.780547
  0
ARC
  8
1
 62
7
  6
CONTINUOUS
 10
1845.765294
 20
3778.002084
 40
4.000000
 50
121.389092
 51
143.543842
  0
ARC
  8
1
 62
7
  6
CONTINUOUS
 10
1845.765294
 20
3778.002084
 40
3.000000
 50
121.389092
 51
150.328840
  0
ARC
  8
1
 62
7
  6
CONTINUOUS
 10
1848.849401
 20
3775.136770
 40
4.000000
 50
131.389092
 51
131.753227
  0
ARC
  8
1
 62
7
  6
CONTINUOUS
 10
1846.535310
 20
3777.762599
 40
0.500000
 50
43.780547
 51
131.389092
  0
ARC
  8
1
 62
7
  6
CONTINUOUS
 10
1846.535310
 20
3777.762599
 40
0.500000
 50
-48.610908
 51
43.780547
  0
ARC
  8
1
 62
7
  6
CONTINUOUS
 10
1848.849401
 20
3775.136770
 40
4.000000
 50
131.389092
 51
153.543842
  0
ARC
  8
1
 62
7
  6
CONTINUOUS
 10
1848.849401
 20
3775.136770
 40
3.000000
 50
131.389092
 51
160.328840
  0
ARC
  8
1
 62
7
  6
CONTINUOUS
 10
1852.384210
 20
3772.850535
 40
4.000000
 50
141.389092
 51
141.753227
  0
ARC
  8
1
 62
7
  6
CONTINUOUS
 10
1849.649304
 20
3775.034634
 40
0.500000
 50
53.780547
 51
141.389092
  0
ARC
  8
1
 62
7
  6
CONTINUOUS
 10
1849.649304
 20
3775.034634
 40
0.500000
 50
-38.610908
 51
53.780547
  0
ARC
  8
1
 62
7
  6
CONTINUOUS
 10
1852.384210
 20
3772.850535
 40
4.000000
 50
141.389092
 51
163.543842
  0
ARC
  8
1
 62
7
  6
CONTINUOUS
 10
1852.384210
 20
3772.850535
 40
3.000000
 50
141.389092
 51
170.328840
  0
ARC
  8
1
 62
7
  6
CONTINUOUS
 10
1856.262318
 20
3771.212847
 40
4.000000
 50
151.389092
 51
151.753227
  0
ARC
  8
1
 62
7
  6
CONTINUOUS
 10
1853.189697
 20
3772.888853
 40
0.500000
 50
63.780547
 51
151.389092
  0
ARC
  8
1
 62
7
  6
CONTINUOUS
 10
1853.189697
 20
3772.888853
 40
0.500000
 50
-28.610908
 51
63.780547
  0
ARC
  8
1
 62
7
  6
CONTINUOUS
 10
1856.262318
 20
3771.212847
 40
4.000000
 50
151.389092
 51
173.543842
  0
ARC
  8
1
 62
7
  6
CONTINUOUS
 10
1856.262318
 20
3771.212847
 40
3.000000
 50
151.389092
 51
-179.671160
  0
ARC
  8
1
 62
7
  6
CONTINUOUS
 10
1860.365890
 20
3770.273465
 40
4.000000
 50
161.389092
 51
161.753227
  0
ARC
  8
1
 62
7
  6
CONTINUOUS
 10
1857.048913
 20
3771.390454
 40
0.500000
 50
73.780547
 51
161.389092
  0
ARC
  8
1
 62
7
  6
CONTINUOUS
 10
1857.048913
 20
3771.390454
 40
0.500000
 50
-18.610908
 51
73.780547
  0
ARC
  8
1
 62
7
  6
CONTINUOUS
 10
1860.365890
 20
3770.273465
 40
4.000000
 50
161.389092
 51
-176.456158
  0
ARC
  8
1
 62
7
  6
CONTINUOUS
 10
1860.365890
 20
3770.273465
 40
3.000000
 50
161.389092
 51
-169.671160
  0
ARC
  8
1
 62
7
  6
CONTINUOUS
 10
1864.570242
 20
3770.060933
 40
4.000000
 50
171.389092
 51
171.753227
  0
ARC
  8
1
 62
7
  6
CONTINUOUS
 10
1861.109694
 20
3770.584965
 40
0.500000
 50
83.780547
 51
171.389092
  0
ARC
  8
1
 62
7
  6
CONTINUOUS
 10
1861.109694
 20
3770.584965
 40
0.500000
 50
-8.610908
 51
83.780547
  0
ARC
  8
1
 62
7
  6
CONTINUOUS
 10
1864.570242
 20
3770.060933
 40
4.000000
 50
171.389092
 51
-166.456158
  0
ARC
  8
1
 62
7
  6
CONTINUOUS
 10
1864.570242
 20
3770.060933
 40
3.000000
 50
171.389092
 51
-159.671160
  0
ARC
  8
1
 62
7
  6
CONTINUOUS
 10
1868.747626
 20
3770.581707
 40
4.000000
 50
-178.610908
 51
-178.246773
  0
ARC
  8
1
 62
7
  6
CONTINUOUS
 10
1865.248654
 20
3770.496860
 40
0.500000
 50
93.780547
 51
-178.610908
  0
ARC
  8
1
 62
7
  6
CONTINUOUS
 10
1865.248654
 20
3770.496860
 40
0.500000
 50
1.389092
 51
93.780547
  0
ARC
  8
1
 62
7
  6
CONTINUOUS
 10
1868.747626
 20
3770.581707
 40
4.000000
 50
-178.610908
 51
-156.456158
  0
ARC
  8
1
 62
7
  6
CONTINUOUS
 10
1868.747626
 20
3770.581707
 40
3.000000
 50
-178.610908
 51
-149.671160
  0
ARC
  8
1
 62
7
  6
CONTINUOUS
 10
1872.771114
 20
3771.819964
 40
4.000000
 50
-168.610908
 51
-168.246773
  0
ARC
  8
1
 62
7
  6
CONTINUOUS
 10
1869.340034
 20
3771.128817
 40
0.500000
 50
103.780547
 51
-168.610908
  0
ARC
  8
1
 62
7
  6
CONTINUOUS
 10
1869.340034
 20
3771.128817
 40
0.500000
 50
11.389092
 51
103.780547
  0
ARC
  8
1
 62
7
  6
CONTINUOUS
 10
1872.771114
 20
3771.819964
 40
4.000000
 50
-168.610908
 51
-146.456158
  0
ARC
  8
1
 62
7
  6
CONTINUOUS
 10
1872.771114
 20
3771.819964
 40
3.000000
 50
-168.610908
 51
-139.671160
  0
ARC
  8
1
 62
7
  6
CONTINUOUS
 10
1876.518456
 20
3773.738082
 40
4.000000
 50
-158.610908
 51
-158.246773
  0
ARC
  8
1
 62
7
  6
CONTINUOUS
 10
1873.259518
 20
3772.461633
 40
0.500000
 50
113.780547
 51
-158.610908
  0
ARC
  8
1
 62
7
  6
CONTINUOUS
 10
1873.259518
 20
3772.461633
 40
0.500000
 50
21.389092
 51
113.780547
  0
ARC
  8
1
 62
7
  6
CONTINUOUS
 10
1876.518456
 20
3773.738082
 40
4.000000
 50
-158.610908
 51
-136.456158
  0
ARC
  8
1
 62
7
  6
CONTINUOUS
 10
1876.518456
 20
3773.738082
 40
3.000000
 50
-158.610908
 51
-129.671160
  0
ARC
  8
1
 62
7
  6
CONTINUOUS
 10
1879.875789
 20
3776.277777
 40
4.000000
 50
-148.610908
 51
-148.246773
  0
ARC
  8
1
 62
7
  6
CONTINUOUS
 10
1876.888015
 20
3774.454812
 40
0.500000
 50
123.780547
 51
-148.610908
  0
ARC
  8
1
 62
7
  6
CONTINUOUS
 10
1876.888015
 20
3774.454812
 40
0.500000
 50
31.389092
 51
123.780547
  0
ARC
  8
1
 62
7
  6
CONTINUOUS
 10
1879.875789
 20
3776.277777
 40
4.000000
 50
-148.610908
 51
-126.456158
  0
ARC
  8
1
 62
7
  6
CONTINUOUS
 10
1879.875789
 20
3776.277777
 40
3.000000
 50
-148.610908
 51
-119.671160
  0
ARC
  8
1
 62
7
  6
CONTINUOUS
 10
1882.741104
 20
3779.361884
 40
4.000000
 50
-138.610908
 51
-138.246773
  0
ARC
  8
1
 62
7
  6
CONTINUOUS
 10
1880.115275
 20
3777.047793
 40
0.500000
 50
133.780547
 51
-138.610908
  0
ARC
  8
1
 62
7
  6
CONTINUOUS
 10
1880.115275
 20
3777.047793
 40
0.500000
 50
41.389092
 51
133.780547
  0
ARC
  8
1
 62
7
  6
CONTINUOUS
 10
1882.741104
 20
3779.361884
 40
4.000000
 50
-138.610908
 51
-116.456158
  0
ARC
  8
1
 62
7
  6
CONTINUOUS
 10
1882.741104
 20
3779.361884
 40
3.000000
 50
-138.610908
 51
-109.671160
  0
ARC
  8
1
 62
7
  6
CONTINUOUS
 10
1885.027338
 20
3782.896693
 40
4.000000
 50
-128.610908
 51
-128.246773
  0
ARC
  8
1
 62
7
  6
CONTINUOUS
 10
1882.843239
 20
3780.161787
 40
0.500000
 50
143.780547
 51
-128.610908
  0
ARC
  8
1
 62
7
  6
CONTINUOUS
 10
1882.843239
 20
3780.161787
 40
0.500000
 50
51.389092
 51
143.780547
  0
ARC
  8
1
 62
7
  6
CONTINUOUS
 10
1885.027338
 20
3782.896693
 40
4.000000
 50
-128.610908
 51
-106.456158
  0
ARC
  8
1
 62
7
  6
CONTINUOUS
 10
1885.027338
 20
3782.896693
 40
3.000000
 50
-128.610908
 51
-99.671160
  0
ARC
  8
1
 62
7
  6
CONTINUOUS
 10
1886.665027
 20
3786.774801
 40
4.000000
 50
-118.610908
 51
-118.246773
  0
ARC
  8
1
 62
7
  6
CONTINUOUS
 10
1884.989020
 20
3783.702180
 40
0.500000
 50
153.780547
 51
-118.610908
  0
ARC
  8
1
 62
7
  6
CONTINUOUS
 10
1884.989020
 20
3783.702180
 40
0.500000
 50
61.389092
 51
153.780547
  0
ARC
  8
1
 62
7
  6
CONTINUOUS
 10
1886.665027
 20
3786.774801
 40
4.000000
 50
-118.610908
 51
-96.456158
  0
ARC
  8
1
 62
7
  6
CONTINUOUS
 10
1886.665027
 20
3786.774801
 40
3.000000
 50
-118.610908
 51
-89.671160
  0
ARC
  8
1
 62
7
  6
CONTINUOUS
 10
1887.604408
 20
3790.878373
 40
4.000000
 50
-108.610908
 51
-108.246773
  0
ARC
  8
1
 62
7
  6
CONTINUOUS
 10
1886.487419
 20
3787.561396
 40
0.500000
 50
163.780547
 51
-108.610908
  0
ARC
  8
1
 62
7
  6
CONTINUOUS
 10
1886.487419
 20
3787.561396
 40
0.500000
 50
71.389092
 51
163.780547
  0
ARC
  8
1
 62
7
  6
CONTINUOUS
 10
1887.604408
 20
3790.878373
 40
4.000000
 50
-108.610908
 51
-86.456158
  0
ARC
  8
1
 62
7
  6
CONTINUOUS
 10
1887.604408
 20
3790.878373
 40
3.000000
 50
-108.610908
 51
-79.671160
  0
ARC
  8
1
 62
7
  6
CONTINUOUS
 10
1887.816941
 20
3795.082725
 40
4.000000
 50
-98.610908
 51
-98.246773
  0
ARC
  8
1
 62
7
  6
CONTINUOUS
 10
1887.292908
 20
3791.622177
 40
0.500000
 50
173.780547
 51
-98.610908
  0
ARC
  8
1
 62
7
  6
CONTINUOUS
 10
1887.292908
 20
3791.622177
 40
0.500000
 50
81.389092
 51
173.780547
  0
ARC
  8
1
 62
7
  6
CONTINUOUS
 10
1887.816941
 20
3795.082725
 40
4.000000
 50
-98.610908
 51
-76.456158
  0
ARC
  8
1
 62
7
  6
CONTINUOUS
 10
1887.816941
 20
3795.082725
 40
3.000000
 50
-98.610908
 51
-69.671160
  0
ARC
  8
1
 62
7
  6
CONTINUOUS
 10
1887.296167
 20
3799.260109
 40
4.000000
 50
-88.610908
 51
-88.246773
  0
ARC
  8
1
 62
7
  6
CONTINUOUS
 10
1887.381013
 20
3795.761137
 40
0.500000
 50
-176.219453
 51
-88.610908
  0
ARC
  8
1
 62
7
  6
CONTINUOUS
 10
1887.381013
 20
3795.761137
 40
0.500000
 50
91.389092
 51
-176.219453
  0
ARC
  8
1
 62
7
  6
CONTINUOUS
 10
1887.296167
 20
3799.260109
 40
4.000000
 50
-88.610908
 51
-66.456158
  0
ARC
  8
1
 62
7
  6
CONTINUOUS
 10
1887.296167
 20
3799.260109
 40
3.000000
 50
-88.610908
 51
-59.671160
  0
ARC
  8
1
 62
7
  6
CONTINUOUS
 10
1886.057909
 20
3803.283597
 40
4.000000
 50
-78.610908
 51
-78.246773
  0
ARC
  8
1
 62
7
  6
CONTINUOUS
 10
1886.749057
 20
3799.852517
 40
0.500000
 50
-166.219453
 51
-78.610908
  0
ARC
  8
1
 62
7
  6
CONTINUOUS
 10
1886.749057
 20
3799.852517
 40
0.500000
 50
101.389092
 51
-166.219453
  0
ARC
  8
1
 62
7
  6
CONTINUOUS
 10
1886.057909
 20
3803.283597
 40
4.000000
 50
-78.610908
 51
-56.456158
  0
ARC
  8
1
 62
7
  6
CONTINUOUS
 10
1886.057909
 20
3803.283597
 40
3.000000
 50
-78.610908
 51
-49.671160
  0
ARC
  8
1
 62
7
  6
CONTINUOUS
 10
1884.139792
 20
3807.030939
 40
4.000000
 50
-68.610908
 51
-68.246773
  0
ARC
  8
1
 62
7
  6
CONTINUOUS
 10
1885.416240
 20
3803.772001
 40
0.500000
 50
-156.219453
 51
-68.610908
  0
ARC
  8
1
 62
7
  6
CONTINUOUS
 10
1885.416240
 20
3803.772001
 40
0.500000
 50
111.389092
 51
-156.219453
  0
ARC
  8
1
 62
7
  6
CONTINUOUS
 10
1884.139792
 20
3807.030939
 40
4.000000
 50
-68.610908
 51
-46.456158
  0
ARC
  8
1
 62
7
  6
CONTINUOUS
 10
1884.139792
 20
3807.030939
 40
3.000000
 50
-68.610908
 51
-39.671160
  0
ARC
  8
1
 62
7
  6
CONTINUOUS
 10
1881.600096
 20
3810.388272
 40
4.000000
 50
-58.610908
 51
-58.246773
  0
ARC
  8
1
 62
7
  6
CONTINUOUS
 10
1883.423061
 20
3807.400498
 40
0.500000
 50
-146.219453
 51
-58.610908
  0
ARC
  8
1
 62
7
  6
CONTINUOUS
 10
1883.423061
 20
3807.400498
 40
0.500000
 50
121.389092
 51
-146.219453
  0
ARC
  8
1
 62
7
  6
CONTINUOUS
 10
1881.600096
 20
3810.388272
 40
4.000000
 50
-58.610908
 51
-36.456158
  0
ARC
  8
1
 62
7
  6
CONTINUOUS
 10
1881.600096
 20
3810.388272
 40
3.000000
 50
-58.610908
 51
-29.671160
  0
ARC
  8
1
 62
7
  6
CONTINUOUS
 10
1878.515989
 20
3813.253587
 40
4.000000
 50
-48.610908
 51
-48.246773
  0
ARC
  8
1
 62
7
  6
CONTINUOUS
 10
1880.830081
 20
3810.627758
 40
0.500000
 50
-136.219453
 51
-48.610908
  0
ARC
  8
1
 62
7
  6
CONTINUOUS
 10
1880.830081
 20
3810.627758
 40
0.500000
 50
131.389092
 51
-136.219453
  0
ARC
  8
1
 62
7
  6
CONTINUOUS
 10
1878.515989
 20
3813.253587
 40
4.000000
 50
-48.610908
 51
-26.456158
  0
ARC
  8
1
 62
7
  6
CONTINUOUS
 10
1878.515989
 20
3813.253587
 40
3.000000
 50
-48.610908
 51
-19.671160
  0
ARC
  8
1
 62
7
  6
CONTINUOUS
 10
1874.981180
 20
3815.539821
 40
4.000000
 50
-38.610908
 51
-38.246773
  0
ARC
  8
1
 62
7
  6
CONTINUOUS
 10
1877.716086
 20
3813.355722
 40
0.500000
 50
-126.219453
 51
-38.610908
  0
ARC
  8
1
 62
7
  6
CONTINUOUS
 10
1877.716086
 20
3813.355722
 40
0.500000
 50
141.389092
 51
-126.219453
  0
ARC
  8
1
 62
7
  6
CONTINUOUS
 10
1874.981180
 20
3815.539821
 40
4.000000
 50
-38.610908
 51
-16.456158
  0
ARC
  8
1
 62
7
  6
CONTINUOUS
 10
1874.981180
 20
3815.539821
 40
3.000000
 50
-38.610908
 51
-9.671160
  0
ARC
  8
1
 62
7
  6
CONTINUOUS
 10
1871.103072
 20
3817.177510
 40
4.000000
 50
-28.610908
 51
-28.246773
  0
ARC
  8
1
 62
7
  6
CONTINUOUS
 10
1874.175694
 20
3815.501503
 40
0.500000
 50
-116.219453
 51
-28.610908
  0
ARC
  8
1
 62
7
  6
CONTINUOUS
 10
1874.175694
 20
3815.501503
 40
0.500000
 50
151.389092
 51
-116.219453
  0
ARC
  8
1
 62
7
  6
CONTINUOUS
 10
1871.103072
 20
3817.177510
 40
4.000000
 50
-28.610908
 51
-6.456158
  0
ARC
  8
1
 62
7
  6
CONTINUOUS
 10
1871.103072
 20
3817.177510
 40
3.000000
 50
-28.610908
 51
0.328840
  0
ARC
  8
1
 62
7
  6
CONTINUOUS
 10
1958.177072
 20
3755.995178
 40
0.500000
 50
180.000000
 51
-90.000000
  0
ARC
  8
1
 62
7
  6
CONTINUOUS
 10
1981.177072
 20
3755.995178
 40
0.500000
 50
-90.000000
 51
0.000000
  0
ARC
  8
1
 62
7
  6
CONTINUOUS
 10
1978.677072
 20
3775.495007
 40
3.000000
 50
-90.000000
 51
0.000000
  0
ARC
  8
1
 62
7
  6
CONTINUOUS
 10
1978.677072
 20
3774.095007
 40
3.000000
 50
-90.000000
 51
0.000000
  0
ARC
  8
1
 62
7
  6
CONTINUOUS
 10
1978.677072
 20
3766.495007
 40
3.000000
 50
0.000000
 51
90.000000
  0
ARC
  8
1
 62
7
  6
CONTINUOUS
 10
1960.677072
 20
3775.495007
 40
3.000000
 50
180.000000
 51
-90.000000
  0
ARC
  8
1
 62
7
  6
CONTINUOUS
 10
1960.677072
 20
3774.095007
 40
3.000000
 50
180.000000
 51
-90.000000
  0
ARC
  8
1
 62
7
  6
CONTINUOUS
 10
1960.677072
 20
3766.495007
 40
3.000000
 50
90.000000
 51
180.000000
  0
ARC
  8
1
 62
7
  6
CONTINUOUS
 10
1958.177072
 20
3790.895178
 40
2.500000
 50
90.000000
 51
180.000000
  0
ARC
  8
1
 62
7
  6
CONTINUOUS
 10
1983.177072
 20
3790.895178
 40
2.500000
 50
0.000000
 51
90.000000
  0
ARC
  8
1
 62
7
  6
CONTINUOUS
 10
1983.177072
 20
3755.995178
 40
2.500000
 50
-90.000000
 51
0.000000
  0
ARC
  8
1
 62
7
  6
CONTINUOUS
 10
1958.177072
 20
3755.995178
 40
2.500000
 50
180.000000
 51
-90.000000
  0
ARC
  8
1
 62
7
  6
CONTINUOUS
 10
1981.177072
 20
3789.995178
 40
0.500000
 50
0.000000
 51
90.000000
  0
ARC
  8
1
 62
7
  6
CONTINUOUS
 10
1958.177072
 20
3789.995178
 40
0.500000
 50
90.000000
 51
180.000000
  0
ARC
  8
1
 62
7
  6
CONTINUOUS
 10
1958.177072
 20
3760.095178
 40
0.500000
 50
180.000000
 51
-90.000000
  0
ARC
  8
1
 62
7
  6
CONTINUOUS
 10
1981.177072
 20
3760.095178
 40
0.500000
 50
-90.000000
 51
0.000000
  0
ARC
  8
1
 62
7
  6
CONTINUOUS
 10
1958.677072
 20
3765.945007
 40
1.000000
 50
90.000000
 51
180.000000
  0
CIRCLE
  8
1
 62
7
  6
CONTINUOUS
 10
1885.282695
 20
3825.095178
 40
2.250000
  0
CIRCLE
  8
1
 62
7
  6
CONTINUOUS
 10
1839.582695
 20
3757.995178
 40
2.250000
  0
CIRCLE
  8
1
 62
7
  6
CONTINUOUS
 10
1863.682695
 20
3794.195178
 40
25.250000
  0
CIRCLE
  8
1
 62
7
  6
CONTINUOUS
 10
1863.682695
 20
3794.195178
 40
18.250000
  0
CIRCLE
  8
1
 62
7
  6
CONTINUOUS
 10
1863.682695
 20
3794.195178
 40
1.500000
  0
ARC
  8
1
 62
7
  6
CONTINUOUS
 10
1886.890040
 20
3862.852698
 40
10.562896
 50
-142.874735
 51
-141.748991
  0
ARC
  8
1
 62
7
  6
CONTINUOUS
 10
1881.208748
 20
3858.373767
 40
3.328401
 50
-141.748991
 51
-138.260840
  0
ARC
  8
1
 62
7
  6
CONTINUOUS
 10
1880.019597
 20
3857.312813
 40
1.734757
 50
-138.260839
 51
-131.857013
  0
ARC
  8
1
 62
7
  6
CONTINUOUS
 10
1879.564314
 20
3856.804626
 40
1.052454
 50
-131.857014
 51
-121.850029
  0
ARC
  8
1
 62
7
  6
CONTINUOUS
 10
1879.388097
 20
3856.520970
 40
0.718519
 50
-121.850028
 51
-107.738866
  0
ARC
  8
1
 62
7
  6
CONTINUOUS
 10
1879.403431
 20
3856.568905
 40
0.768846
 50
-107.738866
 51
-85.998147
  0
ARC
  8
1
 62
7
  6
CONTINUOUS
 10
1879.189908
 20
3859.621015
 40
3.828416
 50
-85.998147
 51
-81.276847
  0
ARC
  8
1
 62
7
  6
CONTINUOUS
 10
1878.854358
 20
3861.807932
 40
6.040926
 50
-81.276847
 51
-78.176250
  0
ARC
  8
1
 62
7
  6
CONTINUOUS
 10
1880.501943
 20
3853.672049
 40
2.260582
 50
92.467146
 51
100.444067
  0
ARC
  8
1
 62
7
  6
CONTINUOUS
 10
1880.446633
 20
3855.060744
 40
0.870806
 50
73.728708
 51
92.764557
  0
ARC
  8
1
 62
7
  6
CONTINUOUS
 10
1880.473367
 20
3855.218989
 40
0.711653
 50
57.117556
 51
72.224988
  0
ARC
  8
1
 62
7
  6
CONTINUOUS
 10
1880.292967
 20
3854.941291
 40
1.042803
 50
46.315160
 51
57.077442
  0
ARC
  8
1
 62
7
  6
CONTINUOUS
 10
1879.804658
 20
3854.427010
 40
1.751977
 50
39.579143
 51
46.383468
  0
ARC
  8
1
 62
7
  6
CONTINUOUS
 10
1878.544952
 20
3853.380772
 40
3.389496
 50
35.947486
 51
39.642853
  0
ARC
  8
1
 62
7
  6
CONTINUOUS
 10
1872.372529
 20
3848.897201
 40
11.018466
 50
34.812349
 51
35.979822
  0
ARC
  8
1
 62
7
  6
CONTINUOUS
 10
1824.733062
 20
3684.759933
 40
152.237327
 50
71.331547
 51
71.457050
  0
ARC
  8
1
 62
7
  6
CONTINUOUS
 10
1857.017328
 20
3781.007603
 40
50.719408
 50
71.457050
 51
71.833673
  0
ARC
  8
1
 62
7
  6
CONTINUOUS
 10
1863.354419
 20
3800.320223
 40
30.393661
 50
71.833673
 51
72.461923
  0
ARC
  8
1
 62
7
  6
CONTINUOUS
 10
1865.979754
 20
3808.627467
 40
21.681445
 50
72.461923
 51
73.342243
  0
ARC
  8
1
 62
7
  6
CONTINUOUS
 10
1867.365792
 20
3813.259777
 40
16.846221
 50
73.342243
 51
74.474890
  0
ARC
  8
1
 62
7
  6
CONTINUOUS
 10
1867.688831
 20
3814.422638
 40
15.639324
 50
74.474890
 51
75.599637
  0
ARC
  8
1
 62
7
  6
CONTINUOUS
 10
1865.590799
 20
3806.251558
 40
24.075454
 50
75.599637
 51
76.330487
  0
ARC
  8
1
 62
7
  6
CONTINUOUS
 10
1864.975929
 20
3803.723415
 40
26.677294
 50
76.330487
 51
76.990321
  0
ARC
  8
1
 62
7
  6
CONTINUOUS
 10
1856.111536
 20
3765.357081
 40
66.054357
 50
76.990321
 51
77.256900
  0
ARC
  8
1
 62
7
  6
CONTINUOUS
 10
1850.898240
 20
3742.304732
 40
89.688850
 50
77.256900
 51
77.453269
  0
ARC
  8
1
 62
7
  6
CONTINUOUS
 10
1836.315259
 20
3726.334879
 40
107.570722
 50
70.032544
 51
70.216447
  0
ARC
  8
1
 62
7
  6
CONTINUOUS
 10
1860.601512
 20
3793.853349
 40
35.817215
 50
70.216447
 51
70.768510
  0
ARC
  8
1
 62
7
  6
CONTINUOUS
 10
1865.339384
 20
3807.434626
 40
21.433247
 50
70.768510
 51
71.690313
  0
ARC
  8
1
 62
7
  6
CONTINUOUS
 10
1867.276497
 20
3813.288594
 40
15.267101
 50
71.690313
 51
72.983240
  0
ARC
  8
1
 62
7
  6
CONTINUOUS
 10
1868.276772
 20
3816.556927
 40
11.849127
 50
72.983240
 51
74.648068
  0
ARC
  8
1
 62
7
  6
CONTINUOUS
 10
1868.504817
 20
3817.387558
 40
10.987760
 50
74.648068
 51
76.249946
  0
ARC
  8
1
 62
7
  6
CONTINUOUS
 10
1867.078309
 20
3811.557927
 40
16.989388
 50
76.249946
 51
77.286594
  0
ARC
  8
1
 62
7
  6
CONTINUOUS
 10
1866.687243
 20
3809.824519
 40
18.766361
 50
77.286594
 51
78.225857
  0
ARC
  8
1
 62
7
  6
CONTINUOUS
 10
1860.942444
 20
3782.263588
 40
46.919650
 50
78.225857
 51
78.601799
  0
ARC
  8
1
 62
7
  6
CONTINUOUS
 10
1857.800583
 20
3766.679171
 40
62.817616
 50
78.601799
 51
78.882710
  0
ARC
  8
1
 62
7
  6
CONTINUOUS
 10
1880.422402
 20
3841.698011
 40
10.562895
 50
-142.874735
 51
-141.748991
  0
ARC
  8
1
 62
7
  6
CONTINUOUS
 10
1874.741111
 20
3837.219079
 40
3.328401
 50
-141.748991
 51
-138.260839
  0
ARC
  8
1
 62
7
  6
CONTINUOUS
 10
1873.551961
 20
3836.158126
 40
1.734758
 50
-138.260839
 51
-131.857014
  0
ARC
  8
1
 62
7
  6
CONTINUOUS
 10
1873.096677
 20
3835.649938
 40
1.052454
 50
-131.857014
 51
-121.850028
  0
ARC
  8
1
 62
7
  6
CONTINUOUS
 10
1872.920460
 20
3835.366282
 40
0.718518
 50
-121.850031
 51
-107.738863
  0
ARC
  8
1
 62
7
  6
CONTINUOUS
 10
1872.935794
 20
3835.414218
 40
0.768846
 50
-107.738865
 51
-85.998147
  0
ARC
  8
1
 62
7
  6
CONTINUOUS
 10
1872.722271
 20
3838.466327
 40
3.828416
 50
-85.998148
 51
-81.276847
  0
ARC
  8
1
 62
7
  6
CONTINUOUS
 10
1872.386721
 20
3840.653244
 40
6.040926
 50
-81.276847
 51
-78.176249
  0
ARC
  8
1
 62
7
  6
CONTINUOUS
 10
1874.034306
 20
3832.517362
 40
2.260582
 50
92.467146
 51
100.444067
  0
ARC
  8
1
 62
7
  6
CONTINUOUS
 10
1873.978996
 20
3833.906057
 40
0.870806
 50
73.728709
 51
92.764557
  0
ARC
  8
1
 62
7
  6
CONTINUOUS
 10
1874.005730
 20
3834.064302
 40
0.711653
 50
57.117556
 51
72.224988
  0
ARC
  8
1
 62
7
  6
CONTINUOUS
 10
1873.825330
 20
3833.786604
 40
1.042803
 50
46.315161
 51
57.077441
  0
ARC
  8
1
 62
7
  6
CONTINUOUS
 10
1873.337021
 20
3833.272323
 40
1.751977
 50
39.579143
 51
46.383468
  0
ARC
  8
1
 62
7
  6
CONTINUOUS
 10
1872.077314
 20
3832.226085
 40
3.389496
 50
35.947487
 51
39.642853
  0
ARC
  8
1
 62
7
  6
CONTINUOUS
 10
1865.904892
 20
3827.742514
 40
11.018467
 50
34.812349
 51
35.979822
  0
ARC
  8
1
 62
7
  6
CONTINUOUS
 10
1968.831956
 20
3607.577163
 40
219.962733
 50
47.110559
 51
50.215563
  0
ARC
  8
1
 62
7
  6
CONTINUOUS
 10
2038.185378
 20
3690.897952
 40
111.554938
 50
50.204312
 51
56.328105
  0
ARC
  8
1
 62
7
  6
CONTINUOUS
 10
1997.811138
 20
3624.696320
 40
189.060097
 50
57.268859
 51
60.803628
  0
ARC
  8
1
 62
7
  6
CONTINUOUS
 10
2040.259912
 20
3705.764993
 40
97.616019
 50
59.342039
 51
63.734805
  0
ARC
  8
1
 62
7
  6
CONTINUOUS
 10
2069.109707
 20
3764.080935
 40
32.554148
 50
63.848957
 51
77.539792
  0
ARC
  8
1
 62
7
  6
CONTINUOUS
 10
2055.241345
 20
3700.193635
 40
97.929212
 50
77.681797
 51
82.485066
  0
ARC
  8
1
 62
7
  6
CONTINUOUS
 10
2079.042707
 20
3880.615149
 40
84.055479
 50
-103.069167
 51
-97.515323
  0
ARC
  8
1
 62
7
  6
CONTINUOUS
 10
1863.485819
 20
3451.851935
 40
401.500700
 50
52.115601
 51
53.501779
  0
ARC
  8
1
 62
7
  6
CONTINUOUS
 10
2031.317405
 20
3678.691938
 40
119.323756
 50
53.497809
 51
58.168474
  0
ARC
  8
1
 62
7
  6
CONTINUOUS
 10
2050.826230
 20
3708.590282
 40
83.636515
 50
58.720409
 51
64.534699
  0
ARC
  8
1
 62
7
  6
CONTINUOUS
 10
2062.555518
 20
3731.996761
 40
57.463302
 50
65.058959
 51
72.290349
  0
ARC
  8
1
 62
7
  6
CONTINUOUS
 10
2061.648100
 20
3727.923338
 40
61.620857
 50
72.638746
 51
80.194259
  0
ARC
  8
1
 62
7
  6
CONTINUOUS
 10
2056.012697
 20
3695.397000
 40
94.631769
 50
80.186042
 51
85.112589
  0
LINE
  8
1
 62
7
  6
CONTINUOUS
 10
2064.075134
 20
3789.684691
 11
2060.035482
 21
3789.986892
  0
ARC
  8
1
 62
7
  6
CONTINUOUS
 10
2092.834055
 20
3948.683390
 40
141.792040
 50
-103.374482
 51
-99.237681
  0
ARC
  8
1
 62
7
  6
CONTINUOUS
 10
2058.239782
 20
3736.048313
 40
73.638784
 50
72.783613
 51
80.753580
  0
ARC
  8
1
 62
7
  6
CONTINUOUS
 10
2065.018663
 20
3761.405093
 40
47.422911
 50
62.643238
 51
71.539097
  0
ARC
  8
1
 62
7
  6
CONTINUOUS
 10
2062.975347
 20
3755.481903
 40
53.630302
 50
53.142913
 51
63.612366
  0
ARC
  8
1
 62
7
  6
CONTINUOUS
 10
2000.523761
 20
3666.520411
 40
162.306642
 50
49.865177
 51
54.340174
  0
ARC
  8
1
 62
7
  6
CONTINUOUS
 10
2040.817519
 20
3713.169854
 40
100.671556
 50
41.965771
 51
50.284115
  0
ARC
  8
1
 62
7
  6
CONTINUOUS
 10
2396.856186
 20
4033.318002
 40
378.137769
 50
-138.039363
 51
-135.597460
  0
LINE
  8
1
 62
7
  6
CONTINUOUS
 10
2117.973359
 20
3794.236892
 11
2108.201401
 21
3794.236892
  0
LINE
  8
1
 62
7
  6
CONTINUOUS
 10
2108.201401
 20
3794.236892
 11
2101.872272
 21
3782.493182
  0
LINE
  8
1
 62
7
  6
CONTINUOUS
 10
2103.127132
 20
3785.792826
 11
2103.938385
 21
3785.355611
  0
LINE
  8
1
 62
7
  6
CONTINUOUS
 10
2103.938385
 20
3785.355611
 11
2101.872272
 21
3782.493182
  0
LINE
  8
1
 62
7
  6
CONTINUOUS
 10
2101.872272
 20
3782.493182
 11
2103.127132
 21
3785.792826
  0
LINE
  8
1
 62
7
  6
CONTINUOUS
 10
2071.807535
 20
3773.736892
 11
2081.037701
 21
3773.736892
  0
LINE
  8
1
 62
7
  6
CONTINUOUS
 10
2081.037701
 20
3773.736892
 11
2086.910586
 21
3784.043789
  0
LINE
  8
1
 62
7
  6
CONTINUOUS
 10
2085.578184
 20
3780.774688
 11
2084.777479
 21
3781.230931
  0
LINE
  8
1
 62
7
  6
CONTINUOUS
 10
2084.777479
 20
3781.230931
 11
2086.910586
 21
3784.043789
  0
LINE
  8
1
 62
7
  6
CONTINUOUS
 10
2086.910586
 20
3784.043789
 11
2085.578184
 21
3780.774688
  0
LINE
  8
1
 62
7
  6
CONTINUOUS
 10
1891.734535
 20
3854.137717
 11
1883.352661
 21
3861.512329
  0
LINE
  8
1
 62
7
  6
CONTINUOUS
 10
1886.284755
 20
3859.546331
 11
1885.676008
 21
3858.854439
  0
LINE
  8
1
 62
7
  6
CONTINUOUS
 10
1885.676008
 20
3858.854439
 11
1883.352661
 21
3861.512329
  0
LINE
  8
1
 62
7
  6
CONTINUOUS
 10
1883.352661
 20
3861.512329
 11
1886.284755
 21
3859.546331
  0
LINE
  8
1
 62
7
  6
CONTINUOUS
 10
1791.596673
 20
3741.376326
 11
1821.974003
 21
3741.376326
  0
LINE
  8
1
 62
7
  6
CONTINUOUS
 10
1821.974003
 20
3741.376326
 11
1837.832227
 21
3756.581544
  0
LINE
  8
1
 62
7
  6
CONTINUOUS
 10
1835.624789
 20
3753.826633
 11
1834.986982
 21
3754.491831
  0
LINE
  8
1
 62
7
  6
CONTINUOUS
 10
1834.986982
 20
3754.491831
 11
1837.832227
 21
3756.581544
  0
LINE
  8
1
 62
7
  6
CONTINUOUS
 10
1837.832227
 20
3756.581544
 11
1835.624789
 21
3753.826633
  0
LINE
  8
1
 62
7
  6
CONTINUOUS
 10
2114.525330
 20
3811.011405
 11
2092.839594
 21
3811.011405
  0
LINE
  8
1
 62
7
  6
CONTINUOUS
 10
2092.839594
 20
3811.011405
 11
2087.144688
 21
3803.162650
  0
LINE
  8
1
 62
7
  6
CONTINUOUS
 10
2088.827201
 20
3806.266112
 11
2089.573105
 21
3805.724898
  0
LINE
  8
1
 62
7
  6
CONTINUOUS
 10
2089.573105
 20
3805.724898
 11
2087.144688
 21
3803.162650
  0
LINE
  8
1
 62
7
  6
CONTINUOUS
 10
2087.144688
 20
3803.162650
 11
2088.827201
 21
3806.266112
  0
TEXT
  8
1
 62
7
  6
CONTINUOUS
 10
2111.155954
 20
3794.737451
 40
3.500000
 41
0.900000
  1
ハイ
  7
KANJI
 50
0.000000
 51
0.000000
  0
TEXT
  8
1
 62
7
  6
CONTINUOUS
 10
2071.807535
 20
3774.411778
 40
3.500000
 41
0.900000
  1
フル
  7
KANJI
 50
0.000000
 51
0.000000
  0
TEXT
  8
1
 62
7
  6
CONTINUOUS
 10
2109.009851
 20
3667.056578
 40
2.000000
 41
0.900000
  1
'SAKURA/catalogue-MBDC
  7
KANJI
 50
0.000000
 51
0.000000
  0
TEXT
  8
1
 62
7
  6
CONTINUOUS
 10
2121.323477
 20
3811.893081
 40
3.500000
 41
0.900000
  1
定格電衣時
  7
KANJI
 50
0.000000
 51
0.000000
  0
TEXT
  8
1
 62
7
  6
CONTINUOUS
 10
2049.351338
 20
3825.170976
 40
3.500000
 41
0.720000
  1
（Ｐａ）
  7
KANJI
 50
0.000000
 51
0.000000
  0
TEXT
  8
1
 62
7
  6
CONTINUOUS
 10
2037.296469
 20
3825.026443
 40
2.000000
 41
0.900000
  1
2
  7
KANJI
 50
0.000000
 51
0.000000
  0
TEXT
  8
1
 62
7
  6
CONTINUOUS
 10
2025.567337
 20
3825.200162
 40
3.500000
 41
0.720000
  1
（ｍｍＨ　Ｏ）
  7
KANJI
 50
0.000000
 51
0.000000
  0
TEXT
  8
1
 62
7
  6
CONTINUOUS
 10
2039.586662
 20
3766.970576
 40
3.500000
 41
0.720000
  1
0
  7
KANJI
 50
0.000000
 51
0.000000
  0
TEXT
  8
1
 62
7
  6
CONTINUOUS
 10
2039.586662
 20
3776.970576
 40
3.500000
 41
0.720000
  1
4
  7
KANJI
 50
0.000000
 51
0.000000
  0
TEXT
  8
1
 62
7
  6
CONTINUOUS
 10
2039.586662
 20
3786.970576
 40
3.500000
 41
0.720000
  1
8
  7
KANJI
 50
0.000000
 51
0.000000
  0
TEXT
  8
1
 62
7
  6
CONTINUOUS
 10
2038.086662
 20
3796.970576
 40
3.500000
 41
0.720000
  1
12
  7
KANJI
 50
0.000000
 51
0.000000
  0
TEXT
  8
1
 62
7
  6
CONTINUOUS
 10
2038.086662
 20
3806.970576
 40
3.500000
 41
0.720000
  1
16
  7
KANJI
 50
0.000000
 51
0.000000
  0
TEXT
  8
1
 62
7
  6
CONTINUOUS
 10
2038.086662
 20
3816.970576
 40
3.500000
 41
0.720000
  1
20
  7
KANJI
 50
0.000000
 51
0.000000
  0
TEXT
  8
1
 62
7
  6
CONTINUOUS
 10
2082.194721
 20
3757.578083
 40
3.500000
 41
0.900000
  1
風　量　（ｍ　／ｍｉｎ）
  7
KANJI
 50
0.000000
 51
0.000000
  0
TEXT
  8
1
 62
7
  6
CONTINUOUS
 10
2021.721183
 20
3806.749947
 40
3.500000
 41
0.900000
  1
静　衣
  7
KANJI
 50
0.000000
 51
0.000000
  0
TEXT
  8
1
 62
7
  6
CONTINUOUS
 10
2059.064806
 20
3763.666837
 40
3.500000
 41
0.720000
  1
0
  7
KANJI
 50
0.000000
 51
0.000000
  0
TEXT
  8
1
 62
7
  6
CONTINUOUS
 10
2077.064806
 20
3763.666837
 40
3.500000
 41
0.720000
  1
0.1
  7
KANJI
 50
0.000000
 51
0.000000
  0
TEXT
  8
1
 62
7
  6
CONTINUOUS
 10
2097.064806
 20
3763.666837
 40
3.500000
 41
0.720000
  1
0.2
  7
KANJI
 50
0.000000
 51
0.000000
  0
TEXT
  8
1
 62
7
  6
CONTINUOUS
 10
2055.186662
 20
3766.970576
 40
3.500000
 41
0.720000
  1
0
  7
KANJI
 50
0.000000
 51
0.000000
  0
TEXT
  8
1
 62
7
  6
CONTINUOUS
 10
2053.686662
 20
3777.170576
 40
3.500000
 41
0.720000
  1
40
  7
KANJI
 50
0.000000
 51
0.000000
  0
TEXT
  8
1
 62
7
  6
CONTINUOUS
 10
2053.686662
 20
3787.370576
 40
3.500000
 41
0.720000
  1
80
  7
KANJI
 50
0.000000
 51
0.000000
  0
TEXT
  8
1
 62
7
  6
CONTINUOUS
 10
2052.186662
 20
3797.570576
 40
3.500000
 41
0.720000
  1
120
  7
KANJI
 50
0.000000
 51
0.000000
  0
TEXT
  8
1
 62
7
  6
CONTINUOUS
 10
2052.186662
 20
3807.770576
 40
3.500000
 41
0.720000
  1
160
  7
KANJI
 50
0.000000
 51
0.000000
  0
TEXT
  8
1
 62
7
  6
CONTINUOUS
 10
2117.064806
 20
3763.666837
 40
3.500000
 41
0.720000
  1
0.3
  7
KANJI
 50
0.000000
 51
0.000000
  0
TEXT
  8
1
 62
7
  6
CONTINUOUS
 10
2050.486662
 20
3817.970576
 40
3.500000
 41
0.720000
  1
200
  7
KANJI
 50
0.000000
 51
0.000000
  0
TEXT
  8
1
 62
7
  6
CONTINUOUS
 10
2137.064806
 20
3763.666837
 40
3.500000
 41
0.720000
  1
0.4
  7
KANJI
 50
0.000000
 51
0.000000
  0
TEXT
  8
1
 62
7
  6
CONTINUOUS
 10
2104.462858
 20
3758.915076
 40
2.000000
 41
0.900000
  1
3
  7
KANJI
 50
0.000000
 51
0.000000
  0
TEXT
  8
1
 62
7
  6
CONTINUOUS
 10
2079.489632
 20
3750.416931
 40
4.000000
 41
0.900000
  1
風量－静衣特性　（標準）
  7
KANJI
 50
0.000000
 51
0.000000
  0
TEXT
  8
1
 62
7
  6
CONTINUOUS
 10
1797.751206
 20
3736.397638
 40
3.500000
 41
0.900000
  1
（貫通穴）
  7
KANJI
 50
0.000000
 51
0.000000
  0
TEXT
  8
1
 62
7
  6
CONTINUOUS
 10
1793.611386
 20
3742.457440
 40
3.500000
 41
0.900000
  1
2-φ4.5±0.3
  7
KANJI
 50
0.000000
 51
0.000000
  0
TEXT
  8
1
 62
7
  6
CONTINUOUS
 10
1892.532614
 20
3855.631278
 40
3.500000
 41
0.900000
  1
リード線長め ３００
  7
KANJI
 50
0.000000
 51
0.000000
  0
TEXT
  8
1
 62
7
  6
CONTINUOUS
 10
2093.602265
 20
3811.511963
 40
3.500000
 41
0.900000
  1
スーパーハイ
  7
KANJI
 50
0.000000
 51
0.000000
  0
LINE
  8
1
 62
7
  6
CONTINUOUS
 10
1955.677072
 20
3841.845178
 11
1985.677072
 21
3841.845178
  0
LINE
  8
1
 62
7
  6
CONTINUOUS
 10
1955.677072
 20
3828.845178
 11
1955.677072
 21
3842.845178
  0
LINE
  8
1
 62
7
  6
CONTINUOUS
 10
1985.677072
 20
3828.845178
 11
1985.677072
 21
3842.845178
  0
LINE
  8
1
 62
7
  6
CONTINUOUS
 10
1955.677072
 20
3841.845178
 11
1959.177072
 21
3842.300178
  0
LINE
  8
1
 62
7
  6
CONTINUOUS
 10
1959.177072
 20
3842.300178
 11
1959.177072
 21
3841.390178
  0
LINE
  8
1
 62
7
  6
CONTINUOUS
 10
1959.177072
 20
3841.390178
 11
1955.677072
 21
3841.845178
  0
LINE
  8
1
 62
7
  6
CONTINUOUS
 10
1985.677072
 20
3841.845178
 11
1982.177072
 21
3841.390178
  0
LINE
  8
1
 62
7
  6
CONTINUOUS
 10
1982.177072
 20
3841.390178
 11
1982.177072
 21
3842.300178
  0
LINE
  8
1
 62
7
  6
CONTINUOUS
 10
1982.177072
 20
3842.300178
 11
1985.677072
 21
3841.845178
  0
TEXT
  8
1
 62
7
  6
CONTINUOUS
 10
1968.277072
 20
3842.845178
 40
3.200000
 41
0.900000
  1
30
  7
KANJI
 50
0.000000
 51
0.000000
  0
LINE
  8
1
 62
7
  6
CONTINUOUS
 10
1914.782695
 20
3753.495178
 11
1914.782695
 21
3793.395178
  0
LINE
  8
1
 62
7
  6
CONTINUOUS
 10
1901.782695
 20
3753.495178
 11
1915.782695
 21
3753.495178
  0
LINE
  8
1
 62
7
  6
CONTINUOUS
 10
1901.782695
 20
3793.395178
 11
1915.782695
 21
3793.395178
  0
LINE
  8
1
 62
7
  6
CONTINUOUS
 10
1914.782695
 20
3753.495178
 11
1914.327695
 21
3756.995178
  0
LINE
  8
1
 62
7
  6
CONTINUOUS
 10
1914.327695
 20
3756.995178
 11
1915.237695
 21
3756.995178
  0
LINE
  8
1
 62
7
  6
CONTINUOUS
 10
1915.237695
 20
3756.995178
 11
1914.782695
 21
3753.495178
  0
LINE
  8
1
 62
7
  6
CONTINUOUS
 10
1914.782695
 20
3793.395178
 11
1915.237695
 21
3789.895178
  0
LINE
  8
1
 62
7
  6
CONTINUOUS
 10
1915.237695
 20
3789.895178
 11
1914.327695
 21
3789.895178
  0
LINE
  8
1
 62
7
  6
CONTINUOUS
 10
1914.327695
 20
3789.895178
 11
1914.782695
 21
3793.395178
  0
TEXT
  8
1
 62
7
  6
CONTINUOUS
 10
1913.782695
 20
3771.045178
 40
3.200000
 41
0.900000
  1
40
  7
KANJI
 50
90.000000
 51
0.000000
  0
LINE
  8
1
 62
7
  6
CONTINUOUS
 10
1811.082907
 20
3757.995178
 11
1811.082907
 21
3794.195178
  0
LINE
  8
1
 62
7
  6
CONTINUOUS
 10
1834.628971
 20
3757.995178
 11
1810.082907
 21
3757.995178
  0
LINE
  8
1
 62
7
  6
CONTINUOUS
 10
1821.375394
 20
3794.195178
 11
1810.082907
 21
3794.195178
  0
LINE
  8
1
 62
7
  6
CONTINUOUS
 10
1811.082907
 20
3757.995178
 11
1810.627907
 21
3761.495178
  0
LINE
  8
1
 62
7
  6
CONTINUOUS
 10
1810.627907
 20
3761.495178
 11
1811.537907
 21
3761.495178
  0
LINE
  8
1
 62
7
  6
CONTINUOUS
 10
1811.537907
 20
3761.495178
 11
1811.082907
 21
3757.995178
  0
LINE
  8
1
 62
7
  6
CONTINUOUS
 10
1811.082907
 20
3794.195178
 11
1811.537907
 21
3790.695178
  0
LINE
  8
1
 62
7
  6
CONTINUOUS
 10
1811.537907
 20
3790.695178
 11
1810.627907
 21
3790.695178
  0
LINE
  8
1
 62
7
  6
CONTINUOUS
 10
1810.627907
 20
3790.695178
 11
1811.082907
 21
3794.195178
  0
TEXT
  8
1
 62
7
  6
CONTINUOUS
 10
1810.082907
 20
3766.452825
 40
3.200000
 41
0.900000
  1
36.2±0.3
  7
KANJI
 50
90.000000
 51
0.000000
  0
LINE
  8
1
 62
7
  6
CONTINUOUS
 10
1826.082907
 20
3731.495178
 11
1901.782695
 21
3731.495178
  0
LINE
  8
1
 62
7
  6
CONTINUOUS
 10
1826.082907
 20
3793.564836
 11
1826.082907
 21
3730.495178
  0
LINE
  8
1
 62
7
  6
CONTINUOUS
 10
1901.782695
 20
3753.495178
 11
1901.782695
 21
3730.495178
  0
LINE
  8
1
 62
7
  6
CONTINUOUS
 10
1901.782695
 20
3731.495178
 11
1898.282695
 21
3731.040178
  0
LINE
  8
1
 62
7
  6
CONTINUOUS
 10
1898.282695
 20
3731.040178
 11
1898.282695
 21
3731.950178
  0
LINE
  8
1
 62
7
  6
CONTINUOUS
 10
1898.282695
 20
3731.950178
 11
1901.782695
 21
3731.495178
  0
LINE
  8
1
 62
7
  6
CONTINUOUS
 10
1826.082907
 20
3731.495178
 11
1829.582907
 21
3731.950178
  0
LINE
  8
1
 62
7
  6
CONTINUOUS
 10
1829.582907
 20
3731.950178
 11
1829.582907
 21
3731.040178
  0
LINE
  8
1
 62
7
  6
CONTINUOUS
 10
1829.582907
 20
3731.040178
 11
1826.082907
 21
3731.495178
  0
TEXT
  8
1
 62
7
  6
CONTINUOUS
 10
1858.132801
 20
3732.495178
 40
3.200000
 41
0.900000
  1
(75.7)
  7
KANJI
 50
0.000000
 51
0.000000
  0
LINE
  8
1
 62
7
  6
CONTINUOUS
 10
1863.682695
 20
3740.435230
 11
1901.782695
 21
3740.435230
  0
LINE
  8
1
 62
7
  6
CONTINUOUS
 10
1863.682695
 20
3750.893962
 11
1863.682695
 21
3739.435230
  0
LINE
  8
1
 62
7
  6
CONTINUOUS
 10
1901.782695
 20
3753.495178
 11
1901.782695
 21
3739.435230
  0
LINE
  8
1
 62
7
  6
CONTINUOUS
 10
1863.682695
 20
3740.435230
 11
1867.182695
 21
3740.890230
  0
LINE
  8
1
 62
7
  6
CONTINUOUS
 10
1867.182695
 20
3740.890230
 11
1867.182695
 21
3739.980230
  0
LINE
  8
1
 62
7
  6
CONTINUOUS
 10
1867.182695
 20
3739.980230
 11
1863.682695
 21
3740.435230
  0
LINE
  8
1
 62
7
  6
CONTINUOUS
 10
1901.782695
 20
3740.435230
 11
1898.282695
 21
3739.980230
  0
LINE
  8
1
 62
7
  6
CONTINUOUS
 10
1898.282695
 20
3739.980230
 11
1898.282695
 21
3740.890230
  0
LINE
  8
1
 62
7
  6
CONTINUOUS
 10
1898.282695
 20
3740.890230
 11
1901.782695
 21
3740.435230
  0
TEXT
  8
1
 62
7
  6
CONTINUOUS
 10
1878.852695
 20
3741.435230
 40
3.200000
 41
0.900000
  1
38.1
  7
KANJI
 50
0.000000
 51
0.000000
  0
LINE
  8
1
 62
7
  6
CONTINUOUS
 10
1802.082907
 20
3757.995178
 11
1802.082907
 21
3825.095178
  0
LINE
  8
1
 62
7
  6
CONTINUOUS
 10
1834.628971
 20
3757.995178
 11
1801.082907
 21
3757.995178
  0
LINE
  8
1
 62
7
  6
CONTINUOUS
 10
1880.688907
 20
3825.095178
 11
1801.082907
 21
3825.095178
  0
LINE
  8
1
 62
7
  6
CONTINUOUS
 10
1802.082907
 20
3757.995178
 11
1801.627907
 21
3761.495178
  0
LINE
  8
1
 62
7
  6
CONTINUOUS
 10
1801.627907
 20
3761.495178
 11
1802.537907
 21
3761.495178
  0
LINE
  8
1
 62
7
  6
CONTINUOUS
 10
1802.537907
 20
3761.495178
 11
1802.082907
 21
3757.995178
  0
LINE
  8
1
 62
7
  6
CONTINUOUS
 10
1802.082907
 20
3825.095178
 11
1802.537907
 21
3821.595178
  0
LINE
  8
1
 62
7
  6
CONTINUOUS
 10
1802.537907
 20
3821.595178
 11
1801.627907
 21
3821.595178
  0
LINE
  8
1
 62
7
  6
CONTINUOUS
 10
1801.627907
 20
3821.595178
 11
1802.082907
 21
3825.095178
  0
TEXT
  8
1
 62
7
  6
CONTINUOUS
 10
1801.082907
 20
3782.382825
 40
3.200000
 41
0.900000
  1
67.1±0.2
  7
KANJI
 50
90.000000
 51
0.000000
  0
LINE
  8
1
 62
7
  6
CONTINUOUS
 10
1932.782695
 20
3753.495178
 11
1932.782695
 21
3829.195157
  0
LINE
  8
1
 62
7
  6
CONTINUOUS
 10
1901.782695
 20
3753.495178
 11
1933.782695
 21
3753.495178
  0
LINE
  8
1
 62
7
  6
CONTINUOUS
 10
1861.019112
 20
3829.195157
 11
1933.782695
 21
3829.195157
  0
LINE
  8
1
 62
7
  6
CONTINUOUS
 10
1932.782695
 20
3829.195157
 11
1933.237695
 21
3825.695157
  0
LINE
  8
1
 62
7
  6
CONTINUOUS
 10
1933.237695
 20
3825.695157
 11
1932.327695
 21
3825.695157
  0
LINE
  8
1
 62
7
  6
CONTINUOUS
 10
1932.327695
 20
3825.695157
 11
1932.782695
 21
3829.195157
  0
LINE
  8
1
 62
7
  6
CONTINUOUS
 10
1932.782695
 20
3753.495178
 11
1932.327695
 21
3756.995178
  0
LINE
  8
1
 62
7
  6
CONTINUOUS
 10
1932.327695
 20
3756.995178
 11
1933.237695
 21
3756.995178
  0
LINE
  8
1
 62
7
  6
CONTINUOUS
 10
1933.237695
 20
3756.995178
 11
1932.782695
 21
3753.495178
  0
TEXT
  8
1
 62
7
  6
CONTINUOUS
 10
1931.782695
 20
3785.545168
 40
3.200000
 41
0.900000
  1
(75.7)
  7
KANJI
 50
90.000000
 51
0.000000
  0
LINE
  8
1
 62
7
  6
CONTINUOUS
 10
1923.782695
 20
3753.495178
 11
1923.782695
 21
3794.195178
  0
LINE
  8
1
 62
7
  6
CONTINUOUS
 10
1901.782695
 20
3753.495178
 11
1924.782695
 21
3753.495178
  0
LINE
  8
1
 62
7
  6
CONTINUOUS
 10
1904.986181
 20
3794.195178
 11
1924.782695
 21
3794.195178
  0
LINE
  8
1
 62
7
  6
CONTINUOUS
 10
1923.782695
 20
3794.195178
 11
1924.237695
 21
3790.695178
  0
LINE
  8
1
 62
7
  6
CONTINUOUS
 10
1924.237695
 20
3790.695178
 11
1923.327695
 21
3790.695178
  0
LINE
  8
1
 62
7
  6
CONTINUOUS
 10
1923.327695
 20
3790.695178
 11
1923.782695
 21
3794.195178
  0
LINE
  8
1
 62
7
  6
CONTINUOUS
 10
1923.782695
 20
3753.495178
 11
1923.327695
 21
3756.995178
  0
LINE
  8
1
 62
7
  6
CONTINUOUS
 10
1923.327695
 20
3756.995178
 11
1924.237695
 21
3756.995178
  0
LINE
  8
1
 62
7
  6
CONTINUOUS
 10
1924.237695
 20
3756.995178
 11
1923.782695
 21
3753.495178
  0
TEXT
  8
1
 62
7
  6
CONTINUOUS
 10
1922.782695
 20
3769.485178
 40
3.200000
 41
0.900000
  1
40.7
  7
KANJI
 50
90.000000
 51
0.000000
  0
LINE
  8
1
 62
7
  6
CONTINUOUS
 10
1863.682695
 20
3841.845178
 11
1885.282695
 21
3841.845178
  0
LINE
  8
1
 62
7
  6
CONTINUOUS
 10
1863.682695
 20
3832.868641
 11
1863.682695
 21
3842.845178
  0
LINE
  8
1
 62
7
  6
CONTINUOUS
 10
1885.282695
 20
3829.591006
 11
1885.282695
 21
3842.845178
  0
LINE
  8
1
 62
7
  6
CONTINUOUS
 10
1885.282695
 20
3841.845178
 11
1881.782695
 21
3841.390178
  0
LINE
  8
1
 62
7
  6
CONTINUOUS
 10
1881.782695
 20
3841.390178
 11
1881.782695
 21
3842.300178
  0
LINE
  8
1
 62
7
  6
CONTINUOUS
 10
1881.782695
 20
3842.300178
 11
1885.282695
 21
3841.845178
  0
LINE
  8
1
 62
7
  6
CONTINUOUS
 10
1863.682695
 20
3841.845178
 11
1867.182695
 21
3842.300178
  0
LINE
  8
1
 62
7
  6
CONTINUOUS
 10
1867.182695
 20
3842.300178
 11
1867.182695
 21
3841.390178
  0
LINE
  8
1
 62
7
  6
CONTINUOUS
 10
1867.182695
 20
3841.390178
 11
1863.682695
 21
3841.845178
  0
TEXT
  8
1
 62
7
  6
CONTINUOUS
 10
1865.709544
 20
3843.171397
 40
3.200000
 41
0.900000
  1
21.6±0.3
  7
KANJI
 50
0.000000
 51
0.000000
  0
LINE
  8
1
 62
7
  6
CONTINUOUS
 10
1839.582695
 20
3850.845178
 11
1885.282695
 21
3850.845178
  0
LINE
  8
1
 62
7
  6
CONTINUOUS
 10
1839.582695
 20
3762.243298
 11
1839.582695
 21
3851.845178
  0
LINE
  8
1
 62
7
  6
CONTINUOUS
 10
1885.282695
 20
3829.591006
 11
1885.282695
 21
3851.845178
  0
LINE
  8
1
 62
7
  6
CONTINUOUS
 10
1885.282695
 20
3850.845178
 11
1881.782695
 21
3850.390178
  0
LINE
  8
1
 62
7
  6
CONTINUOUS
 10
1881.782695
 20
3850.390178
 11
1881.782695
 21
3851.300178
  0
LINE
  8
1
 62
7
  6
CONTINUOUS
 10
1881.782695
 20
3851.300178
 11
1885.282695
 21
3850.845178
  0
LINE
  8
1
 62
7
  6
CONTINUOUS
 10
1839.582695
 20
3850.845178
 11
1843.082695
 21
3851.300178
  0
LINE
  8
1
 62
7
  6
CONTINUOUS
 10
1843.082695
 20
3851.300178
 11
1843.082695
 21
3850.390178
  0
LINE
  8
1
 62
7
  6
CONTINUOUS
 10
1843.082695
 20
3850.390178
 11
1839.582695
 21
3850.845178
  0
TEXT
  8
1
 62
7
  6
CONTINUOUS
 10
1852.790342
 20
3851.845178
 40
3.200000
 41
0.900000
  1
45.7±0.2
  7
KANJI
 50
0.000000
 51
0.000000
  0
LINE
  8
1
 62
7
  6
CONTINUOUS
 10
1885.208277
 20
3780.996246
 11
1842.157113
 21
3807.394111
  0
LINE
  8
1
 62
7
  6
CONTINUOUS
 10
1842.157113
 20
3807.394111
 11
1845.378700
 21
3805.952443
  0
LINE
  8
1
 62
7
  6
CONTINUOUS
 10
1845.378700
 20
3805.952443
 11
1844.903015
 21
3805.176669
  0
LINE
  8
1
 62
7
  6
CONTINUOUS
 10
1844.903015
 20
3805.176669
 11
1842.157113
 21
3807.394111
  0
LINE
  8
1
 62
7
  6
CONTINUOUS
 10
1885.208277
 20
3780.996246
 11
1881.986691
 21
3782.437914
  0
LINE
  8
1
 62
7
  6
CONTINUOUS
 10
1881.986691
 20
3782.437914
 11
1882.462375
 21
3783.213687
  0
LINE
  8
1
 62
7
  6
CONTINUOUS
 10
1882.462375
 20
3783.213687
 11
1885.208277
 21
3780.996246
  0
TEXT
  8
1
 62
7
  6
CONTINUOUS
 10
1852.881907
 20
3801.990966
 40
3.200000
 41
0.900000
  1
50.5
  7
KANJI
 50
328.484446
 51
0.000000
  0
TEXT
  8
1
 62
7
  6
CONTINUOUS
 10
1849.608314
 20
3803.998249
 40
3.200000
 41
0.900000
  1
φ
  7
KANJI
 50
328.484446
 51
0.000000
  0
ENDSEC
  0
EOF
