  0
SECTION
  2
HEADER
  9
$ACADVER
  1
AC1003
  9
$INSBASE
 10
0.000000
 20
0.000000
  9
$EXTMIN
 10
0.000000
 20
0.000000
  9
$EXTMAX
 10
210.000000
 20
148.000000
  9
$LIMMIN
 10
0.000000
 20
0.000000
  9
$LIMMAX
 10
210.000000
 20
148.000000
  9
$VIEWCTR
 10
105.000000
 20
74.000000
  9
$VIEWSIZE
 40
148.000000
  9
$PEXTMIN
 10
0.000000
 20
0.000000
 30
0.000000
  9
$PEXTMAX
 10
210.000000
 20
148.000000
 30
0.000000
  9
$SNAPMODE
 70
     0
  9
$SNAPUNIT
 10
1.000000
 20
1.000000
  9
$SNAPBASE
 10
0.000000
 20
0.000000
  9
$SNAPANG
 50
0.000000
  9
$SNAPISOPAIR
 70
     0
  9
$SNAPSTYLE
 70
     0
  9
$GRIDMODE
 70
     0
  9
$GRIDUNIT
 10
0.000000
 20
0.000000
  9
$ORTHOMODE
 70
     0
  9
$REGENMODE
 70
     1
  9
$FILLMODE
 70
     1
  9
$QTEXTMODE
 70
     0
  9
$DRAGMODE
 70
     2
  9
$LTSCALE
 40
0.250000
  9
$OSMODE
 70
     0
  9
$ATTMODE
 70
     1
  9
$TEXTSIZE
 40
0.200000
  9
$TRACEWID
 40
0.050000
  9
$TEXTSTYLE
  7
STANDARD
  9
$CLAYER
  8
0
  9
$CELTYPE
  6
BYLAYER
  9
$CECOLOR
 62
   256
  9
$DIMSCALE
 40
1.000000
  9
$DIMASZ
 40
1.000000
  9
$DIMEXO
 40
0.000000
  9
$DIMDLI
 40
0.500000
  9
$DIMRND
 40
0.000000
  9
$DIMDLE
 40
0.000000
  9
$DIMEXE
 40
0.000000
  9
$DIMTP
 40
0.000000
  9
$DIMTM
 40
0.000000
  9
$DIMTXT
 40
0.180000
  9
$DIMCEN
 40
0.000000
  9
$DIMTSZ
 40
0.000000
  9
$DIMTOL
 70
     0
  9
$DIMLIM
 70
     0
  9
$DIMTIH
 70
     1
  9
$DIMTOH
 70
     1
  9
$DIMSE1
 70
     0
  9
$DIMSE2
 70
     0
  9
$DIMTAD
 70
     0
  9
$DIMZIN
 70
     0
  9
$DIMBLK
  1

  9
$DIMASO
 70
     0
  9
$DIMSHO
 70
     0
  9
$DIMPOST
  1

  9
$DIMAPOST
  1

  9
$DIMALT
 70
     0
  9
$DIMALTD
 70
     0
  9
$DIMALTF
 40
25.400000
  9
$DIMLFAC
 40
1.000000
  9
$DIMTOFL
 70
     0
  9
$DIMTVP
 40
0.000000
  9
$DIMTIX
 70
     0
  9
$DIMSOXD
 70
     0
  9
$DIMSAH
 70
     0
  9
$DIMBLKL
  1

  9
$DIMBLKR
  1

  9
$LUNITS
 70
     2
  9
$LUPREC
 70
     2
  9
$AXISMODE
 70
     0
  9
$AXISUNIT
 10
1.000000
 20
1.000000
  9
$SKETCHINC
 40
0.000000
  9
$FILLETRAD
 40
0.000000
  9
$AUNITS
 70
     1
  9
$AUPREC
 70
     2
  9
$MENU
  1
ACAD
  9
$ELEVATION
 40
0.000000
  9
$THICKNESS
 40
0.000000
  9
$VIEWDIR
 10
0.000000
 20
0.000000
 30
1.000000
  9
$LIMCHECK
 70
     1
  9
$BLIPMODE
 70
     1
  9
$CHAMFERA
 40
0.000000
  9
$CHAMFERB
 40
0.000000
  9
$FASTZOOM
 70
     1
  9
$SKPOLY
 70
     0
  9
$TDCREATE
 40
0.000000
  9
$TDUPDATE
 40
0.000000
  9
$TDINDWG
 40
0.000000
  9
$TDUSRTIMER
 40
0.000000
  9
$USRTIMER
 70
     1
  9
$ANGBASE
 50
0.000000
  9
$ANGDIR
 70
     0
  9
$PDMODE
 70
     0
  9
$PDSIZE
 40
0.000000
  9
$PLINEWID
 40
0.000000
  9
$COORDS
 70
     2
  9
$USERI1
 70
     0
  9
$USERI2
 70
     0
  9
$USERI3
 70
     0
  9
$USERI4
 70
     0
  9
$USERI5
 70
     0
  9
$USERR1
 40
0.000000
  9
$USERR2
 40
0.000000
  9
$USERR3
 40
0.000000
  9
$USERR4
 40
0.000000
  9
$USERR5
 40
0.000000
  0
ENDSEC
  0
SECTION
  2
TABLES
  0
TABLE
  2
LTYPE
 70
     5
  0
LTYPE
  2
CONTINUOUS
 70
    64
  3
Solid line
 72
    65
 73
     0
 40
0.0
  0
LTYPE
  2
HIDDEN
 70
    64
  3
------------------------
 72
    65
 73
     2
 40
12.6
 49
8.4
 49
-4.2
  0
LTYPE
  2
DOT
 70
    64
  3
ÑÑÑÑÑÑÑÑÑÑÑÑÑÑÑÑÑÑÑÑÑÑÑÑ
 72
    65
 73
     2
 40
8.0
 49
6.0
 49
-2.0
  0
LTYPE
  2
DASHDOT
 70
    64
  3
--Ñ--Ñ--Ñ--Ñ--Ñ--Ñ--Ñ--
 72
    65
 73
     4
 40
50.5
 49
30.0
 49
-9.0
 49
2.5
 49
-9.0
  0
LTYPE
  2
DIVIDE
 70
    64
  3
--ÑÑ--ÑÑ--ÑÑ--ÑÑ--ÑÑ--
 72
    65
 73
     6
 40
58.0
 49
30.0
 49
-9.0
 49
2.5
 49
-5.0
 49
2.5
 49
-9.0
  0
ENDTAB
  0
TABLE
  2
LAYER
 70
1
  0
LAYER
  2
1
 70
64
 62
7
  6
CONTINUOUS
  0
ENDTAB
  0
TABLE
  2
STYLE
 70
     2
  0
STYLE
  2
STANDARD
 70
    64
 40
0.0
 41
1.0
 50
0.0
 71
     0
 42
0.2
  3
TXT
  4

  0
STYLE
  2
KANJI
 70
    64
 40
0.0
 41
1.0
 50
0.0
 71
     0
 42
0.2
  3
TXT
  4
BIGFONT
  0
ENDTAB
  0
TABLE
  2
VIEW
 70
     0
  0
ENDTAB
  0
ENDSEC
  0
SECTION
  2
BLOCKS
  0
ENDSEC
  0
SECTION
  2
ENTITIES
  0
LINE
  8
1
 62
7
  6
CONTINUOUS
 10
154.822995
 20
486.738918
 11
154.933601
 21
486.849524
  0
LINE
  8
1
 62
7
  6
CONTINUOUS
 10
154.792720
 20
486.567222
 11
155.075023
 21
486.849524
  0
LINE
  8
1
 62
7
  6
CONTINUOUS
 10
154.762446
 20
486.395526
 11
155.216444
 21
486.849524
  0
LINE
  8
1
 62
7
  6
CONTINUOUS
 10
154.888495
 20
486.380154
 11
155.357865
 21
486.849524
  0
LINE
  8
1
 62
7
  6
CONTINUOUS
 10
155.029916
 20
486.380154
 11
155.499287
 21
486.849524
  0
LINE
  8
1
 62
7
  6
CONTINUOUS
 10
155.019774
 20
486.228590
 11
155.640708
 21
486.849524
  0
LINE
  8
1
 62
7
  6
CONTINUOUS
 10
154.990588
 20
486.057983
 11
155.782130
 21
486.849524
  0
LINE
  8
1
 62
7
  6
CONTINUOUS
 10
155.454180
 20
486.380154
 11
155.923551
 21
486.849524
  0
LINE
  8
1
 62
7
  6
CONTINUOUS
 10
154.961403
 20
485.887376
 11
155.421380
 21
486.347354
  0
LINE
  8
1
 62
7
  6
CONTINUOUS
 10
155.595602
 20
486.380154
 11
156.064972
 21
486.849524
  0
LINE
  8
1
 62
7
  6
CONTINUOUS
 10
154.932217
 20
485.716769
 11
155.392194
 21
486.176747
  0
LINE
  8
1
 62
7
  6
CONTINUOUS
 10
155.737023
 20
486.380154
 11
156.206394
 21
486.849524
  0
LINE
  8
1
 62
7
  6
CONTINUOUS
 10
154.903031
 20
485.546162
 11
155.363009
 21
486.006139
  0
LINE
  8
1
 62
7
  6
CONTINUOUS
 10
155.793800
 20
486.295510
 11
156.347815
 21
486.849524
  0
LINE
  8
1
 62
7
  6
CONTINUOUS
 10
154.873845
 20
485.375555
 11
155.333823
 21
485.835532
  0
LINE
  8
1
 62
7
  6
CONTINUOUS
 10
155.764615
 20
486.124903
 11
156.489236
 21
486.849524
  0
LINE
  8
1
 62
7
  6
CONTINUOUS
 10
154.844659
 20
485.204948
 11
155.304637
 21
485.664925
  0
LINE
  8
1
 62
7
  6
CONTINUOUS
 10
155.735429
 20
485.954296
 11
156.630658
 21
486.849524
  0
LINE
  8
1
 62
7
  6
CONTINUOUS
 10
154.815474
 20
485.034341
 11
155.275451
 21
485.494318
  0
LINE
  8
1
 62
7
  6
CONTINUOUS
 10
156.302708
 20
486.380154
 11
156.772079
 21
486.849524
  0
LINE
  8
1
 62
7
  6
CONTINUOUS
 10
155.706243
 20
485.783688
 11
156.166221
 21
486.243666
  0
LINE
  8
1
 62
7
  6
CONTINUOUS
 10
154.786288
 20
484.863733
 11
155.246265
 21
485.323711
  0
LINE
  8
1
 62
7
  6
CONTINUOUS
 10
156.444130
 20
486.380154
 11
156.913500
 21
486.849524
  0
LINE
  8
1
 62
7
  6
CONTINUOUS
 10
155.677057
 20
485.613081
 11
156.137035
 21
486.073059
  0
LINE
  8
1
 62
7
  6
CONTINUOUS
 10
154.757102
 20
484.693126
 11
155.217080
 21
485.153104
  0
LINE
  8
1
 62
7
  6
CONTINUOUS
 10
156.567827
 20
486.362429
 11
157.054922
 21
486.849524
  0
LINE
  8
1
 62
7
  6
CONTINUOUS
 10
155.647871
 20
485.442474
 11
156.107849
 21
485.902452
  0
LINE
  8
1
 62
7
  6
CONTINUOUS
 10
154.727916
 20
484.522519
 11
155.187894
 21
484.982497
  0
LINE
  8
1
 62
7
  6
CONTINUOUS
 10
154.382056
 20
484.176659
 11
154.520320
 21
484.314923
  0
LINE
  8
1
 62
7
  6
CONTINUOUS
 10
156.538641
 20
486.191822
 11
157.196343
 21
486.849524
  0
LINE
  8
1
 62
7
  6
CONTINUOUS
 10
155.618686
 20
485.271867
 11
156.078663
 21
485.731845
  0
LINE
  8
1
 62
7
  6
CONTINUOUS
 10
154.698731
 20
484.351912
 11
155.158708
 21
484.811890
  0
LINE
  8
1
 62
7
  6
CONTINUOUS
 10
154.351782
 20
484.004963
 11
154.661742
 21
484.314923
  0
LINE
  8
1
 62
7
  6
CONTINUOUS
 10
156.509455
 20
486.021215
 11
157.317262
 21
486.829022
  0
LINE
  8
1
 62
7
  6
CONTINUOUS
 10
155.589500
 20
485.101260
 11
156.049477
 21
485.561237
  0
LINE
  8
1
 62
7
  6
CONTINUOUS
 10
154.333792
 20
483.845552
 11
155.129522
 21
484.641282
  0
LINE
  8
1
 62
7
  6
CONTINUOUS
 10
157.009815
 20
486.380154
 11
157.286988
 21
486.657326
  0
LINE
  8
1
 62
7
  6
CONTINUOUS
 10
156.480269
 20
485.850608
 11
156.940247
 21
486.310585
  0
LINE
  8
1
 62
7
  6
CONTINUOUS
 10
155.560314
 20
484.930653
 11
156.020292
 21
485.390630
  0
LINE
  8
1
 62
7
  6
CONTINUOUS
 10
154.475214
 20
483.845552
 11
155.100337
 21
484.470675
  0
LINE
  8
1
 62
7
  6
CONTINUOUS
 10
157.151237
 20
486.380154
 11
157.256713
 21
486.485630
  0
LINE
  8
1
 62
7
  6
CONTINUOUS
 10
156.451083
 20
485.680001
 11
156.911061
 21
486.139978
  0
LINE
  8
1
 62
7
  6
CONTINUOUS
 10
155.531128
 20
484.760046
 11
155.991106
 21
485.220023
  0
LINE
  8
1
 62
7
  6
CONTINUOUS
 10
154.616635
 20
483.845552
 11
155.086006
 21
484.314923
  0
LINE
  8
1
 62
7
  6
CONTINUOUS
 10
156.421898
 20
485.509394
 11
156.881875
 21
485.969371
  0
LINE
  8
1
 62
7
  6
CONTINUOUS
 10
155.501943
 20
484.589439
 11
155.961920
 21
485.049416
  0
LINE
  8
1
 62
7
  6
CONTINUOUS
 10
154.758056
 20
483.845552
 11
155.227427
 21
484.314923
  0
LINE
  8
1
 62
7
  6
CONTINUOUS
 10
156.392712
 20
485.338786
 11
156.852689
 21
485.798764
  0
LINE
  8
1
 62
7
  6
CONTINUOUS
 10
155.472757
 20
484.418831
 11
155.932734
 21
484.878809
  0
LINE
  8
1
 62
7
  6
CONTINUOUS
 10
154.899478
 20
483.845552
 11
155.368848
 21
484.314923
  0
LINE
  8
1
 62
7
  6
CONTINUOUS
 10
156.363526
 20
485.168179
 11
156.823504
 21
485.628157
  0
LINE
  8
1
 62
7
  6
CONTINUOUS
 10
155.040899
 20
483.845552
 11
155.903549
 21
484.708202
  0
LINE
  8
1
 62
7
  6
CONTINUOUS
 10
156.334340
 20
484.997572
 11
156.794318
 21
485.457550
  0
LINE
  8
1
 62
7
  6
CONTINUOUS
 10
155.182321
 20
483.845552
 11
155.874363
 21
484.537595
  0
LINE
  8
1
 62
7
  6
CONTINUOUS
 10
156.305155
 20
484.826965
 11
156.765132
 21
485.286943
  0
LINE
  8
1
 62
7
  6
CONTINUOUS
 10
155.323742
 20
483.845552
 11
155.845177
 21
484.366988
  0
LINE
  8
1
 62
7
  6
CONTINUOUS
 10
156.275969
 20
484.656358
 11
156.735946
 21
485.116336
  0
LINE
  8
1
 62
7
  6
CONTINUOUS
 10
155.465163
 20
483.845552
 11
155.934534
 21
484.314923
  0
LINE
  8
1
 62
7
  6
CONTINUOUS
 10
156.246783
 20
484.485751
 11
156.706761
 21
484.945728
  0
LINE
  8
1
 62
7
  6
CONTINUOUS
 10
155.606585
 20
483.845552
 11
156.075955
 21
484.314923
  0
LINE
  8
1
 62
7
  6
CONTINUOUS
 10
156.217597
 20
484.315144
 11
156.677575
 21
484.775121
  0
LINE
  8
1
 62
7
  6
CONTINUOUS
 10
155.748006
 20
483.845552
 11
156.217377
 21
484.314923
  0
LINE
  8
1
 62
7
  6
CONTINUOUS
 10
155.889427
 20
483.845552
 11
156.648389
 21
484.604514
  0
LINE
  8
1
 62
7
  6
CONTINUOUS
 10
156.030849
 20
483.845552
 11
156.619203
 21
484.433907
  0
LINE
  8
1
 62
7
  6
CONTINUOUS
 10
156.172270
 20
483.845552
 11
156.641641
 21
484.314923
  0
LINE
  8
1
 62
7
  6
CONTINUOUS
 10
156.313691
 20
483.845552
 11
156.783062
 21
484.314923
  0
LINE
  8
1
 62
7
  6
CONTINUOUS
 10
156.455113
 20
483.845552
 11
156.876324
 21
484.266763
  0
LINE
  8
1
 62
7
  6
CONTINUOUS
 10
156.596534
 20
483.845552
 11
156.846049
 21
484.095067
  0
LINE
  8
1
 62
7
  6
CONTINUOUS
 10
156.737955
 20
483.845552
 11
156.815774
 21
483.923371
  0
LINE
  8
1
 62
7
  6
CONTINUOUS
 10
176.618166
 20
482.693458
 11
165.746378
 21
483.219073
  0
LINE
  8
1
 62
7
  6
CONTINUOUS
 10
167.030740
 20
455.090948
 11
160.663234
 21
463.918570
  0
LINE
  8
1
 62
7
  6
CONTINUOUS
 10
139.472566
 20
445.376817
 11
142.404203
 21
455.859066
  0
LINE
  8
1
 62
7
  6
CONTINUOUS
 10
114.695512
 20
460.866003
 11
124.718710
 21
465.109532
  0
LINE
  8
1
 62
7
  6
CONTINUOUS
 10
111.357205
 20
489.894833
 11
120.924291
 21
484.704178
  0
LINE
  8
1
 62
7
  6
CONTINUOUS
 10
122.381242
 20
475.846451
 11
163.950462
 21
475.846451
  0
LINE
  8
1
 62
7
  6
CONTINUOUS
 10
187.665852
 20
507.717323
 11
187.665852
 21
508.819020
  0
LINE
  8
1
 62
7
  6
CONTINUOUS
 10
213.475186
 20
508.717465
 11
188.604938
 21
508.717465
  0
LINE
  8
1
 62
7
  6
CONTINUOUS
 10
213.293833
 20
511.717465
 11
189.165852
 21
511.717465
  0
LINE
  8
1
 62
7
  6
CONTINUOUS
 10
188.598517
 20
510.217465
 11
213.105926
 21
510.217465
  0
LINE
  8
1
 62
7
  6
CONTINUOUS
 10
189.165852
 20
511.717465
 11
189.165852
 21
511.353936
  0
LINE
  8
1
 62
7
  6
CONTINUOUS
 10
223.234682
 20
511.717465
 11
215.293833
 21
511.717465
  0
LINE
  8
1
 62
7
  6
CONTINUOUS
 10
235.830971
 20
508.717465
 11
215.475186
 21
508.717465
  0
LINE
  8
1
 62
7
  6
CONTINUOUS
 10
215.105926
 20
510.217465
 11
235.830971
 21
510.217465
  0
LINE
  8
1
 62
7
  6
DASHDOT
 10
164.165852
 20
478.846451
 11
166.165852
 21
478.846451
  0
LINE
  8
1
 62
7
  6
CONTINUOUS
 10
180.996065
 20
513.848237
 11
183.117385
 21
515.969557
  0
LINE
  8
1
 62
7
  6
CONTINUOUS
 10
178.167638
 20
441.016239
 11
180.288958
 21
438.894918
  0
LINE
  8
1
 62
7
  6
CONTINUOUS
 10
105.335639
 20
443.844666
 11
103.214319
 21
441.723345
  0
LINE
  8
1
 62
7
  6
CONTINUOUS
 10
178.167638
 20
516.676664
 11
180.996065
 21
513.848237
  0
LINE
  8
1
 62
7
  6
CONTINUOUS
 10
180.996065
 20
443.844666
 11
178.167638
 21
441.016239
  0
LINE
  8
1
 62
7
  6
CONTINUOUS
 10
108.164066
 20
441.016239
 11
105.335639
 21
443.844666
  0
LINE
  8
1
 62
7
  6
CONTINUOUS
 10
183.117385
 20
515.969557
 11
180.288958
 21
518.797984
  0
LINE
  8
1
 62
7
  6
CONTINUOUS
 10
180.288958
 20
438.894918
 11
183.117385
 21
441.723345
  0
LINE
  8
1
 62
7
  6
CONTINUOUS
 10
103.214319
 20
441.723345
 11
106.042746
 21
438.894918
  0
LINE
  8
1
 62
7
  6
CONTINUOUS
 10
180.288958
 20
518.797984
 11
178.167638
 21
516.676664
  0
LINE
  8
1
 62
7
  6
CONTINUOUS
 10
183.117385
 20
441.723345
 11
180.996065
 21
443.844666
  0
LINE
  8
1
 62
7
  6
CONTINUOUS
 10
106.042746
 20
438.894918
 11
108.164066
 21
441.016239
  0
LINE
  8
1
 62
7
  6
CONTINUOUS
 10
108.164066
 20
516.676664
 11
106.042746
 21
518.797984
  0
LINE
  8
1
 62
7
  6
CONTINUOUS
 10
105.335639
 20
513.848237
 11
108.164066
 21
516.676664
  0
LINE
  8
1
 62
7
  6
CONTINUOUS
 10
103.214319
 20
515.969557
 11
105.335639
 21
513.848237
  0
LINE
  8
1
 62
7
  6
CONTINUOUS
 10
106.042746
 20
518.797984
 11
103.214319
 21
515.969557
  0
LINE
  8
1
 62
7
  6
CONTINUOUS
 10
187.665852
 20
511.217429
 11
187.665852
 21
510.119020
  0
LINE
  8
1
 62
7
  6
CONTINUOUS
 10
168.757073
 20
522.646451
 11
117.574631
 21
522.646451
  0
LINE
  8
1
 62
7
  6
CONTINUOUS
 10
186.965852
 20
504.437331
 11
186.965852
 21
453.255230
  0
LINE
  8
1
 62
7
  6
CONTINUOUS
 10
189.165852
 20
507.819020
 11
189.165852
 21
507.558936
  0
LINE
  8
1
 62
7
  6
CONTINUOUS
 10
188.165852
 20
508.819020
 11
187.665852
 21
508.819020
  0
LINE
  8
1
 62
7
  6
CONTINUOUS
 10
188.165852
 20
510.119020
 11
187.665852
 21
510.119020
  0
LINE
  8
1
 62
7
  6
CONTINUOUS
 10
189.165852
 20
511.353936
 11
189.165852
 21
511.119020
  0
LINE
  8
1
 62
7
  6
CONTINUOUS
 10
99.365852
 20
453.255230
 11
99.365852
 21
504.437673
  0
LINE
  8
1
 62
7
  6
CONTINUOUS
 10
168.757073
 20
435.046451
 11
117.574631
 21
435.046451
  0
LINE
  8
1
 62
7
  6
DASHDOT
 10
186.965852
 20
478.846451
 11
194.053352
 21
478.846451
  0
LINE
  8
1
 62
7
  6
DASHDOT
 10
166.165852
 20
478.846451
 11
186.965852
 21
478.846451
  0
LINE
  8
1
 62
7
  6
CONTINUOUS
 10
131.971457
 20
510.604007
 11
133.878221
 21
499.887837
  0
LINE
  8
1
 62
7
  6
CONTINUOUS
 10
189.165852
 20
520.246451
 11
189.165852
 21
511.717465
  0
LINE
  8
1
 62
7
  6
CONTINUOUS
 10
184.278352
 20
434.053951
 11
184.278352
 21
441.413951
  0
LINE
  8
1
 62
7
  6
CONTINUOUS
 10
102.053352
 20
441.413951
 11
102.053352
 21
434.053951
  0
LINE
  8
1
 62
7
  6
CONTINUOUS
 10
102.053352
 20
524.111189
 11
102.053352
 21
516.278951
  0
LINE
  8
1
 62
7
  6
CONTINUOUS
 10
184.278352
 20
524.111189
 11
184.278352
 21
516.278951
  0
LINE
  8
1
 62
7
  6
CONTINUOUS
 10
180.598352
 20
437.733951
 11
187.958352
 21
437.733951
  0
LINE
  8
1
 62
7
  6
CONTINUOUS
 10
98.373352
 20
437.733951
 11
105.733352
 21
437.733951
  0
LINE
  8
1
 62
7
  6
CONTINUOUS
 10
98.373352
 20
519.958951
 11
105.733352
 21
519.958951
  0
LINE
  8
1
 62
7
  6
CONTINUOUS
 10
180.598352
 20
519.958951
 11
187.958352
 21
519.958951
  0
LINE
  8
1
 62
7
  6
CONTINUOUS
 10
97.165852
 20
520.246451
 11
97.165852
 21
437.446451
  0
LINE
  8
1
 62
7
  6
CONTINUOUS
 10
184.565852
 20
524.846451
 11
101.765852
 21
524.846451
  0
LINE
  8
1
 62
7
  6
CONTINUOUS
 10
189.165852
 20
437.446451
 11
189.165852
 21
507.558936
  0
LINE
  8
1
 62
7
  6
CONTINUOUS
 10
101.765852
 20
432.846451
 11
184.565852
 21
432.846451
  0
LINE
  8
1
 62
7
  6
CONTINUOUS
 10
229.906813
 20
423.379383
 11
200.351747
 21
423.379383
  0
LINE
  8
1
 62
7
  6
CONTINUOUS
 10
200.053573
 20
487.835261
 11
223.933857
 21
487.835261
  0
LINE
  8
1
 62
7
  6
HIDDEN
 10
178.073348
 20
448.888703
 11
186.753226
 21
440.208825
  0
LINE
  8
1
 62
7
  6
HIDDEN
 10
181.803478
 20
435.259078
 11
173.123601
 21
443.938955
  0
LINE
  8
1
 62
7
  6
DASHDOT
 10
92.278352
 20
478.846451
 11
164.165852
 21
478.846451
  0
LINE
  8
1
 62
7
  6
DASHDOT
 10
143.165852
 20
427.958951
 11
143.165852
 21
529.733951
  0
LINE
  8
1
 62
7
  6
CONTINUOUS
 10
136.762728
 20
458.846451
 11
149.568976
 21
458.846451
  0
LINE
  8
1
 62
7
  6
CONTINUOUS
 10
136.762728
 20
498.846451
 11
147.602951
 21
498.846451
  0
LINE
  8
1
 62
7
  6
CONTINUOUS
 10
147.602951
 20
498.846451
 11
149.568976
 21
498.846451
  0
LINE
  8
1
 62
7
  6
CONTINUOUS
 10
129.564381
 20
494.846451
 11
156.767322
 21
494.846451
  0
LINE
  8
1
 62
7
  6
CONTINUOUS
 10
126.145656
 20
483.846451
 11
126.640253
 21
486.651451
  0
LINE
  8
1
 62
7
  6
CONTINUOUS
 10
126.640253
 20
486.651451
 11
127.751364
 21
486.651451
  0
LINE
  8
1
 62
7
  6
CONTINUOUS
 10
127.751364
 20
486.651451
 11
127.917710
 21
487.594848
  0
LINE
  8
1
 62
7
  6
CONTINUOUS
 10
127.917710
 20
487.594848
 11
126.806599
 21
487.594848
  0
LINE
  8
1
 62
7
  6
CONTINUOUS
 10
126.806599
 20
487.594848
 11
127.027008
 21
488.846848
  0
LINE
  8
1
 62
7
  6
CONTINUOUS
 10
127.027008
 20
488.846848
 11
132.027008
 21
488.846848
  0
LINE
  8
1
 62
7
  6
CONTINUOUS
 10
132.027008
 20
488.846848
 11
131.806599
 21
487.594848
  0
LINE
  8
1
 62
7
  6
CONTINUOUS
 10
131.806599
 20
487.594848
 11
131.306599
 21
487.594848
  0
LINE
  8
1
 62
7
  6
CONTINUOUS
 10
131.306599
 20
487.594848
 11
130.645656
 21
483.846451
  0
LINE
  8
1
 62
7
  6
CONTINUOUS
 10
130.645656
 20
483.846451
 11
126.145656
 21
483.846451
  0
LINE
  8
1
 62
7
  6
CONTINUOUS
 10
154.842498
 20
486.849524
 11
154.759735
 21
486.380154
  0
LINE
  8
1
 62
7
  6
CONTINUOUS
 10
154.759735
 20
486.380154
 11
155.045702
 21
486.380154
  0
LINE
  8
1
 62
7
  6
CONTINUOUS
 10
155.045702
 20
486.380154
 11
154.692403
 21
484.314923
  0
LINE
  8
1
 62
7
  6
CONTINUOUS
 10
154.692403
 20
484.314923
 11
154.406436
 21
484.314923
  0
LINE
  8
1
 62
7
  6
CONTINUOUS
 10
154.406436
 20
484.314923
 11
154.323673
 21
483.845552
  0
LINE
  8
1
 62
7
  6
CONTINUOUS
 10
154.323673
 20
483.845552
 11
156.802053
 21
483.845552
  0
LINE
  8
1
 62
7
  6
CONTINUOUS
 10
156.802053
 20
483.845552
 11
156.884815
 21
484.314923
  0
LINE
  8
1
 62
7
  6
CONTINUOUS
 10
156.884815
 20
484.314923
 11
156.598849
 21
484.314923
  0
LINE
  8
1
 62
7
  6
CONTINUOUS
 10
156.598849
 20
484.314923
 11
156.952148
 21
486.380154
  0
LINE
  8
1
 62
7
  6
CONTINUOUS
 10
156.952148
 20
486.380154
 11
157.238115
 21
486.380154
  0
LINE
  8
1
 62
7
  6
CONTINUOUS
 10
157.238115
 20
486.380154
 11
157.320877
 21
486.849524
  0
LINE
  8
1
 62
7
  6
CONTINUOUS
 10
157.320877
 20
486.849524
 11
154.842498
 21
486.849524
  0
LINE
  8
1
 62
7
  6
CONTINUOUS
 10
155.426991
 20
486.380154
 11
155.073692
 21
484.314923
  0
LINE
  8
1
 62
7
  6
CONTINUOUS
 10
155.073692
 20
484.314923
 11
155.454981
 21
484.314923
  0
LINE
  8
1
 62
7
  6
CONTINUOUS
 10
155.454981
 20
484.314923
 11
155.808280
 21
486.380154
  0
LINE
  8
1
 62
7
  6
CONTINUOUS
 10
155.808280
 20
486.380154
 11
155.426991
 21
486.380154
  0
LINE
  8
1
 62
7
  6
CONTINUOUS
 10
156.189570
 20
486.380154
 11
155.836270
 21
484.314923
  0
LINE
  8
1
 62
7
  6
CONTINUOUS
 10
155.836270
 20
484.314923
 11
156.217559
 21
484.314923
  0
LINE
  8
1
 62
7
  6
CONTINUOUS
 10
156.217559
 20
484.314923
 11
156.570859
 21
486.380154
  0
LINE
  8
1
 62
7
  6
CONTINUOUS
 10
156.570859
 20
486.380154
 11
156.189570
 21
486.380154
  0
LINE
  8
1
 62
7
  6
CONTINUOUS
 10
126.673429
 20
465.646451
 11
159.658274
 21
465.646451
  0
LINE
  8
1
 62
7
  6
DASHDOT
 10
150.353352
 20
464.171961
 11
135.978352
 21
464.171961
  0
LINE
  8
1
 62
7
  6
DASHDOT
 10
135.978352
 20
464.171961
 11
135.978352
 21
460.897315
  0
LINE
  8
1
 62
7
  6
DASHDOT
 10
150.353352
 20
460.897315
 11
150.353352
 21
464.171961
  0
LINE
  8
1
 62
7
  6
DASHDOT
 10
135.978352
 20
460.897315
 11
150.353352
 21
460.897315
  0
LINE
  8
1
 62
7
  6
CONTINUOUS
 10
235.830971
 20
511.267465
 11
245.830971
 21
511.267465
  0
LINE
  8
1
 62
7
  6
CONTINUOUS
 10
245.830971
 20
511.267465
 11
245.830971
 21
510.667465
  0
LINE
  8
1
 62
7
  6
CONTINUOUS
 10
245.830971
 20
510.667465
 11
235.830971
 21
510.667465
  0
LINE
  8
1
 62
7
  6
CONTINUOUS
 10
235.830971
 20
510.667465
 11
235.830971
 21
511.267465
  0
LINE
  8
1
 62
7
  6
CONTINUOUS
 10
235.830971
 20
511.267465
 11
235.830971
 21
510.667465
  0
LINE
  8
1
 62
7
  6
CONTINUOUS
 10
235.830971
 20
510.667465
 11
235.830971
 21
508.717465
  0
LINE
  8
1
 62
7
  6
CONTINUOUS
 10
235.830971
 20
510.217465
 11
235.830971
 21
509.767465
  0
LINE
  8
1
 62
7
  6
CONTINUOUS
 10
235.830971
 20
509.767465
 11
245.830971
 21
509.767465
  0
LINE
  8
1
 62
7
  6
CONTINUOUS
 10
245.830971
 20
509.767465
 11
245.830971
 21
509.167465
  0
LINE
  8
1
 62
7
  6
CONTINUOUS
 10
245.830971
 20
509.167465
 11
235.830971
 21
509.167465
  0
LINE
  8
1
 62
7
  6
CONTINUOUS
 10
235.830971
 20
509.167465
 11
235.830971
 21
509.767465
  0
LINE
  8
1
 62
7
  6
CONTINUOUS
 10
235.830971
 20
509.767465
 11
235.830971
 21
509.167465
  0
LINE
  8
1
 62
7
  6
CONTINUOUS
 10
223.234682
 20
511.717465
 11
235.830971
 21
511.717465
  0
LINE
  8
1
 62
7
  6
CONTINUOUS
 10
235.830971
 20
511.267465
 11
235.830971
 21
511.717465
  0
LINE
  8
1
 62
7
  6
DASHDOT
 10
128.335283
 20
467.779800
 11
140.573078
 21
467.779800
  0
LINE
  8
1
 62
7
  6
DASHDOT
 10
140.573078
 20
467.779800
 11
140.573078
 21
466.779800
  0
LINE
  8
1
 62
7
  6
DASHDOT
 10
140.573078
 20
466.779800
 11
128.335283
 21
466.779800
  0
LINE
  8
1
 62
7
  6
DASHDOT
 10
128.335283
 20
466.779800
 11
128.335283
 21
467.779800
  0
LINE
  8
1
 62
7
  6
HIDDEN
 10
99.578478
 20
440.208825
 11
108.258356
 21
448.888703
  0
LINE
  8
1
 62
7
  6
HIDDEN
 10
113.208103
 20
443.938955
 11
104.528226
 21
435.259078
  0
LINE
  8
1
 62
7
  6
HIDDEN
 10
186.753226
 20
517.484078
 11
178.073348
 21
508.804200
  0
LINE
  8
1
 62
7
  6
HIDDEN
 10
173.123601
 20
513.753948
 11
181.803478
 21
522.433825
  0
LINE
  8
1
 62
7
  6
HIDDEN
 10
108.258356
 20
508.804200
 11
99.578478
 21
517.484078
  0
LINE
  8
1
 62
7
  6
HIDDEN
 10
104.528226
 20
522.433825
 11
113.208103
 21
513.753948
  0
LINE
  8
1
 62
7
  6
CONTINUOUS
 10
279.468538
 20
515.743472
 11
279.829677
 21
522.146468
  0
LINE
  8
1
 62
7
  6
CONTINUOUS
 10
277.736991
 20
515.946136
 11
278.084447
 21
522.233379
  0
LINE
  8
1
 62
7
  6
CONTINUOUS
 10
278.282743
 20
511.621451
 11
288.561597
 21
511.621451
  0
LINE
  8
1
 62
7
  6
CONTINUOUS
 10
271.161597
 20
523.181133
 11
293.161597
 21
523.181133
  0
LINE
  8
1
 62
7
  6
CONTINUOUS
 10
274.802425
 20
512.477314
 11
271.161597
 21
513.350755
  0
LINE
  8
1
 62
7
  6
CONTINUOUS
 10
288.561597
 20
511.621451
 11
293.161597
 21
513.350755
  0
LINE
  8
1
 62
7
  6
CONTINUOUS
 10
271.161597
 20
459.296451
 11
271.161597
 21
432.846451
  0
LINE
  8
1
 62
7
  6
CONTINUOUS
 10
271.161597
 20
434.422119
 11
293.161597
 21
434.422119
  0
LINE
  8
1
 62
7
  6
CONTINUOUS
 10
278.161597
 20
446.071451
 11
288.561597
 21
446.071451
  0
LINE
  8
1
 62
7
  6
CONTINUOUS
 10
288.561597
 20
446.071451
 11
293.161597
 21
444.346451
  0
LINE
  8
1
 62
7
  6
CONTINUOUS
 10
278.161597
 20
446.071451
 11
271.161597
 21
444.346451
  0
LINE
  8
1
 62
7
  6
CONTINUOUS
 10
271.161597
 20
524.846451
 11
271.161597
 21
508.912530
  0
LINE
  8
1
 62
7
  6
CONTINUOUS
 10
293.161597
 20
498.396451
 11
293.161597
 21
524.846451
  0
LINE
  8
1
 62
7
  6
CONTINUOUS
 10
293.161597
 20
459.296451
 11
293.161597
 21
432.846451
  0
LINE
  8
1
 62
7
  6
CONTINUOUS
 10
267.216467
 20
508.050030
 11
270.221205
 21
508.050030
  0
LINE
  8
1
 62
7
  6
CONTINUOUS
 10
275.960006
 20
515.199892
 11
276.362130
 21
522.329553
  0
LINE
  8
1
 62
7
  6
CONTINUOUS
 10
271.161597
 20
507.187530
 11
266.161597
 21
507.187530
  0
LINE
  8
1
 62
7
  6
CONTINUOUS
 10
271.161597
 20
508.912530
 11
266.161597
 21
508.912530
  0
LINE
  8
1
 62
7
  6
CONTINUOUS
 10
266.161597
 20
432.846451
 11
266.161597
 21
507.187530
  0
LINE
  8
1
 62
7
  6
CONTINUOUS
 10
278.161597
 20
511.402566
 11
278.161597
 21
481.721451
  0
LINE
  8
1
 62
7
  6
CONTINUOUS
 10
271.161597
 20
498.396451
 11
271.161597
 21
507.187530
  0
LINE
  8
1
 62
7
  6
CONTINUOUS
 10
298.161597
 20
432.846451
 11
298.161597
 21
524.846451
  0
LINE
  8
1
 62
7
  6
CONTINUOUS
 10
298.161597
 20
524.846451
 11
266.161597
 21
524.846451
  0
LINE
  8
1
 62
7
  6
CONTINUOUS
 10
266.161597
 20
524.846451
 11
266.161597
 21
508.912530
  0
LINE
  8
1
 62
7
  6
CONTINUOUS
 10
298.161597
 20
432.846451
 11
266.161597
 21
432.846451
  0
LINE
  8
1
 62
7
  6
DASHDOT
 10
262.161597
 20
478.846451
 11
302.161597
 21
478.846451
  0
LINE
  8
1
 62
7
  6
DASHDOT
 10
264.161597
 20
519.958951
 11
276.228424
 21
519.958951
  0
LINE
  8
1
 62
7
  6
DASHDOT
 10
264.161597
 20
437.733951
 11
300.161597
 21
437.733951
  0
LINE
  8
1
 62
7
  6
CONTINUOUS
 10
278.161597
 20
446.071451
 11
278.161597
 21
475.971451
  0
LINE
  8
1
 62
7
  6
CONTINUOUS
 10
288.561597
 20
511.621451
 11
288.561597
 21
481.721451
  0
LINE
  8
1
 62
7
  6
CONTINUOUS
 10
288.561597
 20
446.071451
 11
288.561597
 21
475.971451
  0
LINE
  8
1
 62
7
  6
DASHDOT
 10
279.706298
 20
519.958951
 11
300.161597
 21
519.958951
  0
ARC
  8
1
 62
7
  6
CONTINUOUS
 10
143.165852
 20
478.846451
 40
41.596580
 50
129.035676
 51
131.089364
  0
ARC
  8
1
 62
7
  6
CONTINUOUS
 10
143.165852
 20
478.846451
 40
41.596580
 50
-76.678610
 51
-48.910636
  0
ARC
  8
1
 62
7
  6
CONTINUOUS
 10
125.571278
 20
409.911808
 40
72.548686
 50
44.309560
 51
56.419719
  0
ARC
  8
1
 62
7
  6
CONTINUOUS
 10
143.165852
 20
478.846451
 40
41.596580
 50
26.178533
 51
37.569023
  0
ARC
  8
1
 62
7
  6
CONTINUOUS
 10
180.738945
 20
490.133060
 40
26.213306
 50
120.674011
 51
132.958341
  0
ARC
  8
1
 62
7
  6
CONTINUOUS
 10
186.091089
 20
422.110413
 40
72.548686
 50
95.738131
 51
108.722313
  0
ARC
  8
1
 62
7
  6
CONTINUOUS
 10
78.300540
 20
449.622396
 40
72.548686
 50
-7.119012
 51
5.865170
  0
ARC
  8
1
 62
7
  6
CONTINUOUS
 10
129.108394
 20
548.588418
 40
72.548686
 50
-109.976154
 51
-96.991972
  0
ARC
  8
1
 62
7
  6
CONTINUOUS
 10
188.927636
 20
533.320419
 40
72.548686
 50
-161.404726
 51
-148.420544
  0
ARC
  8
1
 62
7
  6
CONTINUOUS
 10
178.377483
 20
496.483112
 40
2.235387
 50
-78.123561
 51
18.640321
  0
ARC
  8
1
 62
7
  6
CONTINUOUS
 10
178.908841
 20
462.313167
 40
2.235387
 50
-129.552133
 51
-32.788250
  0
ARC
  8
1
 62
7
  6
CONTINUOUS
 10
152.524999
 20
440.593123
 40
2.235387
 50
179.019296
 51
-84.216822
  0
ARC
  8
1
 62
7
  6
CONTINUOUS
 10
119.093528
 20
447.678615
 40
2.235387
 50
153.762744
 51
-135.645393
  0
ARC
  8
1
 62
7
  6
CONTINUOUS
 10
103.789008
 20
478.234124
 40
2.235387
 50
76.162153
 51
172.926035
  0
ARC
  8
1
 62
7
  6
CONTINUOUS
 10
118.136054
 20
509.250727
 40
2.235387
 50
24.733582
 51
121.497464
  0
ARC
  8
1
 62
7
  6
CONTINUOUS
 10
143.165852
 20
478.846451
 40
41.596580
 50
51.349385
 51
54.423754
  0
ARC
  8
1
 62
7
  6
CONTINUOUS
 10
143.165852
 20
478.846451
 40
41.596580
 50
-25.250039
 51
2.995182
  0
ARC
  8
1
 62
7
  6
CONTINUOUS
 10
143.165852
 20
478.846451
 40
41.596580
 50
-128.107181
 51
-99.861961
  0
ARC
  8
1
 62
7
  6
CONTINUOUS
 10
143.165852
 20
478.846451
 40
41.596580
 50
-179.535753
 51
-151.290532
  0
ARC
  8
1
 62
7
  6
CONTINUOUS
 10
143.165852
 20
478.846451
 40
41.596580
 50
137.564065
 51
157.280897
  0
ARC
  8
1
 62
7
  6
CONTINUOUS
 10
175.416518
 20
456.507709
 40
26.213306
 50
69.245440
 51
87.372575
  0
ARC
  8
1
 62
7
  6
CONTINUOUS
 10
145.808682
 20
439.703887
 40
26.213306
 50
22.827645
 51
35.944004
  0
ARC
  8
1
 62
7
  6
CONTINUOUS
 10
114.210740
 20
452.375214
 40
26.213306
 50
-33.611703
 51
-15.484567
  0
ARC
  8
1
 62
7
  6
CONTINUOUS
 10
104.416589
 20
484.979923
 40
26.213306
 50
-85.040274
 51
-66.913139
  0
ARC
  8
1
 62
7
  6
CONTINUOUS
 10
123.801422
 20
512.966002
 40
26.213306
 50
-136.468846
 51
-118.341710
  0
ARC
  8
1
 62
7
  6
CONTINUOUS
 10
143.165852
 20
478.846451
 40
21.000000
 50
130.367594
 51
-171.786789
  0
ARC
  8
1
 62
7
  6
CONTINUOUS
 10
143.165852
 20
478.846451
 40
21.000000
 50
-38.246620
 51
-8.213211
  0
ARC
  8
1
 62
7
  6
CONTINUOUS
 10
143.165852
 20
478.846451
 40
21.000000
 50
-171.786789
 51
-141.753380
  0
ARC
  8
1
 62
7
  6
CONTINUOUS
 10
187.171789
 20
444.469346
 40
64.250000
 50
89.559408
 51
123.516158
  0
ARC
  8
1
 62
7
  6
CONTINUOUS
 10
187.171789
 20
444.469346
 40
65.750000
 50
89.569460
 51
124.426617
  0
ARC
  8
1
 62
7
  6
CONTINUOUS
 10
187.171789
 20
444.469346
 40
67.250000
 50
89.693681
 51
126.042430
  0
ARC
  8
1
 62
7
  6
CONTINUOUS
 10
187.171789
 20
444.469346
 40
67.750000
 50
90.434282
 51
126.619540
  0
ARC
  8
1
 62
7
  6
CONTINUOUS
 10
187.171789
 20
444.469346
 40
62.250000
 50
90.458314
 51
122.474666
  0
ARC
  8
1
 62
7
  6
CONTINUOUS
 10
214.287321
 20
477.032412
 40
72.548686
 50
147.166703
 51
160.150885
  0
ARC
  8
1
 62
7
  6
CONTINUOUS
 10
108.788747
 20
434.840514
 40
67.000000
 50
7.592926
 51
31.226768
  0
ARC
  8
1
 62
7
  6
CONTINUOUS
 10
99.159915
 20
513.223556
 40
67.000000
 50
-82.407074
 51
-58.773232
  0
ARC
  8
1
 62
7
  6
CONTINUOUS
 10
99.159915
 20
513.223556
 40
63.000000
 50
-87.295501
 51
-62.190400
  0
ARC
  8
1
 62
7
  6
CONTINUOUS
 10
177.542957
 20
522.852388
 40
67.000000
 50
-172.407074
 51
-148.773232
  0
ARC
  8
1
 62
7
  6
CONTINUOUS
 10
143.165852
 20
478.846451
 40
43.800000
 50
0.000000
 51
36.029653
  0
ARC
  8
1
 62
7
  6
CONTINUOUS
 10
143.165852
 20
478.846451
 40
50.728203
 50
47.617388
 51
59.703347
  0
ARC
  8
1
 62
7
  6
CONTINUOUS
 10
176.012474
 20
514.840023
 40
2.000000
 50
-80.989123
 51
47.617388
  0
ARC
  8
1
 62
7
  6
CONTINUOUS
 10
187.171789
 20
444.469346
 40
69.250000
 50
99.010877
 51
123.144935
  0
ARC
  8
1
 62
7
  6
CONTINUOUS
 10
146.574949
 20
506.638142
 40
5.000000
 50
-96.993312
 51
-56.855065
  0
ARC
  8
1
 62
7
  6
CONTINUOUS
 10
143.165852
 20
478.846451
 40
50.728203
 50
-45.724029
 51
-30.296653
  0
ARC
  8
1
 62
7
  6
CONTINUOUS
 10
185.659556
 20
503.700045
 40
1.500000
 50
29.440806
 51
91.462514
  0
ARC
  8
1
 62
7
  6
CONTINUOUS
 10
187.171789
 20
444.469346
 40
60.750000
 50
91.462514
 51
116.966373
  0
ARC
  8
1
 62
7
  6
CONTINUOUS
 10
143.165852
 20
478.846451
 40
23.000000
 50
0.000000
 51
46.005536
  0
ARC
  8
1
 62
7
  6
CONTINUOUS
 10
160.530573
 20
496.831624
 40
2.000000
 50
116.966373
 51
-133.994464
  0
ARC
  8
1
 62
7
  6
CONTINUOUS
 10
143.165852
 20
478.846451
 40
50.728203
 50
134.275971
 51
149.703347
  0
ARC
  8
1
 62
7
  6
CONTINUOUS
 10
143.165852
 20
478.846451
 40
50.728203
 50
-135.724029
 51
-120.296653
  0
ARC
  8
1
 62
7
  6
CONTINUOUS
 10
143.165852
 20
478.846451
 40
43.800000
 50
49.177225
 51
129.395548
  0
ARC
  8
1
 62
7
  6
CONTINUOUS
 10
143.165852
 20
478.846451
 40
43.800000
 50
-134.425803
 51
-50.604452
  0
ARC
  8
1
 62
7
  6
CONTINUOUS
 10
143.165852
 20
478.846451
 40
23.000000
 50
83.006688
 51
141.545538
  0
ARC
  8
1
 62
7
  6
CONTINUOUS
 10
143.165852
 20
478.846451
 40
23.000000
 50
-103.800604
 51
-38.454462
  0
ARC
  8
1
 62
7
  6
CONTINUOUS
 10
115.974162
 20
485.525675
 40
5.000000
 50
-13.800604
 51
31.226768
  0
ARC
  8
1
 62
7
  6
CONTINUOUS
 10
109.147958
 20
513.735142
 40
2.000000
 50
7.592926
 51
134.275971
  0
ARC
  8
1
 62
7
  6
CONTINUOUS
 10
116.151413
 20
519.952405
 40
1.540000
 50
123.312534
 51
-177.295501
  0
ARC
  8
1
 62
7
  6
CONTINUOUS
 10
143.165852
 20
478.846451
 40
50.728203
 50
120.296653
 51
123.312534
  0
ARC
  8
1
 62
7
  6
CONTINUOUS
 10
177.542957
 20
522.852388
 40
63.000000
 50
-177.295501
 51
-152.190400
  0
ARC
  8
1
 62
7
  6
CONTINUOUS
 10
123.588285
 20
494.393762
 40
2.000000
 50
-152.190400
 51
-38.454462
  0
ARC
  8
1
 62
7
  6
CONTINUOUS
 10
177.183745
 20
443.957761
 40
2.000000
 50
-172.407074
 51
-45.724029
  0
ARC
  8
1
 62
7
  6
CONTINUOUS
 10
170.357541
 20
472.167228
 40
5.000000
 50
166.199396
 51
-148.773232
  0
ARC
  8
1
 62
7
  6
CONTINUOUS
 10
162.743419
 20
463.299140
 40
2.000000
 50
27.809600
 51
141.545538
  0
ARC
  8
1
 62
7
  6
CONTINUOUS
 10
108.788747
 20
434.840514
 40
63.000000
 50
2.704499
 51
27.809600
  0
ARC
  8
1
 62
7
  6
CONTINUOUS
 10
143.165852
 20
478.846451
 40
50.728203
 50
-59.703347
 51
-56.687466
  0
ARC
  8
1
 62
7
  6
CONTINUOUS
 10
170.180291
 20
437.740498
 40
1.540000
 50
-56.687466
 51
2.704499
  0
ARC
  8
1
 62
7
  6
CONTINUOUS
 10
143.165852
 20
478.846451
 40
43.800000
 50
135.574197
 51
-140.604452
  0
ARC
  8
1
 62
7
  6
CONTINUOUS
 10
143.165852
 20
478.846451
 40
43.800000
 50
-44.425803
 51
-0.000000
  0
ARC
  8
1
 62
7
  6
CONTINUOUS
 10
143.165852
 20
478.846451
 40
50.728203
 50
-149.703347
 51
-146.687466
  0
ARC
  8
1
 62
7
  6
CONTINUOUS
 10
102.059898
 20
451.832012
 40
1.540000
 50
-146.687466
 51
-87.295501
  0
ARC
  8
1
 62
7
  6
CONTINUOUS
 10
143.165852
 20
478.846451
 40
23.000000
 50
166.199396
 51
-128.454462
  0
ARC
  8
1
 62
7
  6
CONTINUOUS
 10
127.618541
 20
459.268885
 40
2.000000
 50
-62.190400
 51
51.545538
  0
ARC
  8
1
 62
7
  6
CONTINUOUS
 10
108.277161
 20
444.828558
 40
2.000000
 50
97.592926
 51
-135.724029
  0
ARC
  8
1
 62
7
  6
CONTINUOUS
 10
143.165852
 20
478.846451
 40
23.000000
 50
-13.800604
 51
-0.000000
  0
ARC
  8
1
 62
7
  6
CONTINUOUS
 10
136.486629
 20
451.654762
 40
5.000000
 50
76.199396
 51
121.226768
  0
ARC
  8
1
 62
7
  6
CONTINUOUS
 10
143.165852
 20
478.846451
 40
41.596580
 50
77.607104
 51
105.852325
  0
ARC
  8
1
 62
7
  6
CONTINUOUS
 10
151.331049
 20
517.372291
 40
2.235387
 50
-26.694990
 51
70.068893
  0
ARC
  8
1
 62
7
  6
CONTINUOUS
 10
157.768067
 20
515.259364
 40
26.213306
 50
172.102583
 51
-169.770282
  0
ARC
  8
1
 62
7
  6
CONTINUOUS
 10
142.617573
 20
439.563672
 40
28.582726
 50
-117.004457
 51
-62.995543
  0
ARC
  8
1
 62
7
  6
HIDDEN
 10
184.278352
 20
437.733951
 40
3.500000
 50
-135.000000
 51
45.000000
  0
ARC
  8
1
 62
7
  6
HIDDEN
 10
143.165852
 20
478.846451
 40
46.000000
 50
-60.000000
 51
-49.363679
  0
ARC
  8
1
 62
7
  6
HIDDEN
 10
143.165852
 20
478.846451
 40
46.000000
 50
-40.636321
 51
-30.000000
  0
ARC
  8
1
 62
7
  6
CONTINUOUS
 10
143.165852
 20
478.846451
 40
21.000000
 50
107.752790
 51
130.367594
  0
ARC
  8
1
 62
7
  6
CONTINUOUS
 10
143.165852
 20
478.846451
 40
21.000000
 50
-141.753380
 51
-107.752790
  0
ARC
  8
1
 62
7
  6
CONTINUOUS
 10
143.165852
 20
478.846451
 40
21.000000
 50
-72.247210
 51
-38.246620
  0
ARC
  8
1
 62
7
  6
CONTINUOUS
 10
143.165852
 20
478.846451
 40
21.000000
 50
-8.213211
 51
-0.000000
  0
ARC
  8
1
 62
7
  6
CONTINUOUS
 10
143.165852
 20
478.846451
 40
21.000000
 50
0.000000
 51
49.632406
  0
ARC
  8
1
 62
7
  6
CONTINUOUS
 10
143.165852
 20
478.846451
 40
21.000000
 50
49.632406
 51
66.037602
  0
ARC
  8
1
 62
7
  6
CONTINUOUS
 10
143.165852
 20
478.846451
 40
21.000000
 50
66.037602
 51
71.008003
  0
ARC
  8
1
 62
7
  6
CONTINUOUS
 10
143.165852
 20
478.846451
 40
21.000000
 50
71.008003
 51
72.247210
  0
ARC
  8
1
 62
7
  6
HIDDEN
 10
143.165852
 20
478.846451
 40
46.000000
 50
-150.000000
 51
-139.363679
  0
ARC
  8
1
 62
7
  6
HIDDEN
 10
143.165852
 20
478.846451
 40
46.000000
 50
-130.636321
 51
-120.000000
  0
ARC
  8
1
 62
7
  6
HIDDEN
 10
102.053352
 20
437.733951
 40
3.500000
 50
135.000000
 51
-45.000000
  0
ARC
  8
1
 62
7
  6
HIDDEN
 10
143.165852
 20
478.846451
 40
46.000000
 50
30.000000
 51
40.636321
  0
ARC
  8
1
 62
7
  6
HIDDEN
 10
143.165852
 20
478.846451
 40
46.000000
 50
49.363679
 51
60.000000
  0
ARC
  8
1
 62
7
  6
HIDDEN
 10
184.278352
 20
519.958951
 40
3.500000
 50
-45.000000
 51
135.000000
  0
ARC
  8
1
 62
7
  6
HIDDEN
 10
143.165852
 20
478.846451
 40
46.000000
 50
139.363679
 51
150.000000
  0
ARC
  8
1
 62
7
  6
HIDDEN
 10
102.053352
 20
519.958951
 40
3.500000
 50
45.000000
 51
-135.000000
  0
ARC
  8
1
 62
7
  6
HIDDEN
 10
143.165852
 20
478.846451
 40
46.000000
 50
120.000000
 51
130.636321
  0
ARC
  8
1
 62
7
  6
CONTINUOUS
 10
269.340071
 20
516.466726
 40
6.740060
 50
-74.320642
 51
-10.833514
  0
ARC
  8
1
 62
7
  6
CONTINUOUS
 10
269.299037
 20
516.487834
 40
10.196707
 50
-79.475100
 51
-4.186329
  0
ARC
  8
1
 62
7
  6
CONTINUOUS
 10
269.540313
 20
516.223071
 40
8.201355
 50
-85.237716
 51
-1.935075
  0
ARC
  8
1
 62
7
  6
CONTINUOUS
 10
267.357998
 20
507.086016
 40
0.974348
 50
98.352211
 51
174.019705
  0
ARC
  8
1
 62
7
  6
CONTINUOUS
 10
267.259142
 20
508.929201
 40
0.880207
 50
-178.914720
 51
-92.779006
  0
ARC
  8
1
 62
7
  6
CONTINUOUS
 10
238.416501
 20
474.843619
 40
40.335806
 50
9.817724
 51
35.726640
  0
ARC
  8
1
 62
7
  6
CONTINUOUS
 10
238.416501
 20
482.849284
 40
40.335806
 50
-35.726640
 51
-9.817724
  0
ARC
  8
1
 62
7
  6
CONTINUOUS
 10
252.967261
 20
500.512561
 40
40.250000
 50
-27.830656
 51
-3.013667
  0
ARC
  8
1
 62
7
  6
CONTINUOUS
 10
252.967261
 20
457.180342
 40
40.250000
 50
3.013667
 51
27.830656
  0
CIRCLE
  8
1
 62
7
  6
CONTINUOUS
 10
102.053352
 20
437.733951
 40
2.587500
  0
CIRCLE
  8
1
 62
7
  6
CONTINUOUS
 10
102.053352
 20
519.958951
 40
2.587500
  0
CIRCLE
  8
1
 62
7
  6
CONTINUOUS
 10
184.278352
 20
437.733951
 40
2.587500
  0
CIRCLE
  8
1
 62
7
  6
CONTINUOUS
 10
184.278352
 20
519.958951
 40
2.587500
  0
ARC
  8
1
 62
7
  6
CONTINUOUS
 10
280.811005
 20
509.738385
 40
13.354026
 50
108.541720
 51
109.459996
  0
ARC
  8
1
 62
7
  6
CONTINUOUS
 10
277.923043
 20
518.351755
 40
4.269398
 50
105.721827
 51
108.554526
  0
ARC
  8
1
 62
7
  6
CONTINUOUS
 10
277.411017
 20
520.174094
 40
2.376493
 50
100.780246
 51
105.744107
  0
ARC
  8
1
 62
7
  6
CONTINUOUS
 10
277.257847
 20
520.981397
 40
1.554788
 50
93.430133
 51
100.799903
  0
ARC
  8
1
 62
7
  6
CONTINUOUS
 10
277.232557
 20
521.399285
 40
1.136136
 50
83.537500
 51
93.417934
  0
ARC
  8
1
 62
7
  6
CONTINUOUS
 10
277.229030
 20
521.424354
 40
1.111641
 50
75.440016
 51
83.211414
  0
ARC
  8
1
 62
7
  6
CONTINUOUS
 10
277.156991
 20
521.147545
 40
1.397671
 50
69.137574
 51
75.434382
  0
ARC
  8
1
 62
7
  6
CONTINUOUS
 10
276.994215
 20
520.719705
 40
1.855430
 50
64.282235
 51
69.145638
  0
ARC
  8
1
 62
7
  6
CONTINUOUS
 10
276.673718
 20
520.053025
 40
2.595146
 50
60.730463
 51
64.294347
  0
ARC
  8
1
 62
7
  6
CONTINUOUS
 10
276.027003
 20
518.897641
 40
3.919212
 50
58.334212
 51
60.741289
  0
ARC
  8
1
 62
7
  6
CONTINUOUS
 10
271.253710
 20
511.215758
 40
12.963292
 50
57.323119
 51
58.201796
  0
ARC
  8
1
 62
7
  6
CONTINUOUS
 10
281.592268
 20
527.332209
 40
6.184182
 50
-122.685933
 51
-120.860867
  0
ARC
  8
1
 62
7
  6
CONTINUOUS
 10
279.599920
 20
523.998072
 40
2.300123
 50
-120.860867
 51
-116.109303
  0
ARC
  8
1
 62
7
  6
CONTINUOUS
 10
279.130405
 20
523.040068
 40
1.233251
 50
-116.109303
 51
-107.659951
  0
ARC
  8
1
 62
7
  6
CONTINUOUS
 10
278.994270
 20
522.612469
 40
0.784504
 50
-107.659951
 51
-94.938994
  0
ARC
  8
1
 62
7
  6
CONTINUOUS
 10
278.986214
 20
522.519239
 40
0.690927
 50
-94.938994
 51
-80.190433
  0
ARC
  8
1
 62
7
  6
CONTINUOUS
 10
278.885954
 20
523.099102
 40
1.279393
 50
-80.190433
 51
-71.901963
  0
ARC
  8
1
 62
7
  6
CONTINUOUS
 10
278.811504
 20
523.326911
 40
1.519059
 50
-71.901963
 51
-64.538896
  0
ARC
  8
1
 62
7
  6
CONTINUOUS
 10
277.064540
 20
526.995904
 40
5.582727
 50
-64.538896
 51
-62.448243
  0
ARC
  8
1
 62
7
  6
CONTINUOUS
 10
277.273442
 20
526.595491
 40
5.131096
 50
-62.448243
 51
-60.120001
  0
ARC
  8
1
 62
7
  6
CONTINUOUS
 10
213.884071
 20
510.141755
 40
1.682630
 50
110.535222
 51
121.898610
  0
ARC
  8
1
 62
7
  6
CONTINUOUS
 10
213.494918
 20
510.792193
 40
0.924879
 50
122.723674
 51
138.877643
  0
ARC
  8
1
 62
7
  6
CONTINUOUS
 10
213.260235
 20
511.013942
 40
0.602387
 50
140.085897
 51
160.648366
  0
ARC
  8
1
 62
7
  6
CONTINUOUS
 10
213.220366
 20
511.038822
 40
0.556620
 50
161.704858
 51
-177.560309
  0
ARC
  8
1
 62
7
  6
CONTINUOUS
 10
213.386978
 20
511.048205
 40
0.723485
 50
-177.379637
 51
-160.839566
  0
ARC
  8
1
 62
7
  6
CONTINUOUS
 10
213.737998
 20
511.164108
 40
1.093115
 50
-161.139755
 51
-149.296477
  0
ARC
  8
1
 62
7
  6
CONTINUOUS
 10
214.212011
 20
511.436119
 40
1.639590
 50
-149.581212
 51
-141.092642
  0
ARC
  8
1
 62
7
  6
CONTINUOUS
 10
214.705010
 20
511.825549
 40
2.267819
 50
-141.259258
 51
-134.839212
  0
ARC
  8
1
 62
7
  6
CONTINUOUS
 10
215.786129
 20
512.924804
 40
3.809615
 50
-134.711418
 51
-131.236647
  0
ARC
  8
1
 62
7
  6
CONTINUOUS
 10
245.700342
 20
547.056043
 40
49.194653
 50
-131.233133
 51
-130.969246
  0
ARC
  8
1
 62
7
  6
CONTINUOUS
 10
210.957629
 20
507.042498
 40
3.797233
 50
45.826133
 51
49.063121
  0
ARC
  8
1
 62
7
  6
CONTINUOUS
 10
212.609279
 20
508.742239
 40
1.427198
 50
37.961840
 51
45.832817
  0
ARC
  8
1
 62
7
  6
CONTINUOUS
 10
213.187419
 20
509.195534
 40
0.692544
 50
23.253306
 51
37.816883
  0
ARC
  8
1
 62
7
  6
CONTINUOUS
 10
213.428984
 20
509.303860
 40
0.427855
 50
0.515462
 51
22.696580
  0
ARC
  8
1
 62
7
  6
CONTINUOUS
 10
213.422543
 20
509.308151
 40
0.434280
 50
-23.957716
 51
-0.058302
  0
ARC
  8
1
 62
7
  6
CONTINUOUS
 10
213.133176
 20
509.426111
 40
0.746678
 50
-40.963697
 51
-23.213149
  0
ARC
  8
1
 62
7
  6
CONTINUOUS
 10
212.464212
 20
509.962678
 40
1.603940
 50
-50.927256
 51
-39.771035
  0
ARC
  8
1
 62
7
  6
CONTINUOUS
 10
215.884071
 20
510.141755
 40
1.682630
 50
110.535222
 51
121.898610
  0
ARC
  8
1
 62
7
  6
CONTINUOUS
 10
215.494918
 20
510.792193
 40
0.924879
 50
122.723674
 51
138.877643
  0
ARC
  8
1
 62
7
  6
CONTINUOUS
 10
215.260235
 20
511.013942
 40
0.602387
 50
140.085897
 51
160.648366
  0
ARC
  8
1
 62
7
  6
CONTINUOUS
 10
215.220366
 20
511.038822
 40
0.556620
 50
161.704858
 51
-177.560309
  0
ARC
  8
1
 62
7
  6
CONTINUOUS
 10
215.386978
 20
511.048205
 40
0.723485
 50
-177.379637
 51
-160.839566
  0
ARC
  8
1
 62
7
  6
CONTINUOUS
 10
215.737998
 20
511.164108
 40
1.093115
 50
-161.139755
 51
-149.296477
  0
ARC
  8
1
 62
7
  6
CONTINUOUS
 10
216.212011
 20
511.436119
 40
1.639590
 50
-149.581212
 51
-141.092642
  0
ARC
  8
1
 62
7
  6
CONTINUOUS
 10
216.705010
 20
511.825549
 40
2.267819
 50
-141.259258
 51
-134.839212
  0
ARC
  8
1
 62
7
  6
CONTINUOUS
 10
217.786129
 20
512.924804
 40
3.809615
 50
-134.711418
 51
-131.236647
  0
ARC
  8
1
 62
7
  6
CONTINUOUS
 10
247.700342
 20
547.056043
 40
49.194653
 50
-131.233133
 51
-130.969246
  0
ARC
  8
1
 62
7
  6
CONTINUOUS
 10
212.957629
 20
507.042498
 40
3.797233
 50
45.826133
 51
49.063121
  0
ARC
  8
1
 62
7
  6
CONTINUOUS
 10
214.609279
 20
508.742239
 40
1.427198
 50
37.961840
 51
45.832817
  0
ARC
  8
1
 62
7
  6
CONTINUOUS
 10
215.187419
 20
509.195534
 40
0.692544
 50
23.253306
 51
37.816883
  0
ARC
  8
1
 62
7
  6
CONTINUOUS
 10
215.428984
 20
509.303860
 40
0.427855
 50
0.515462
 51
22.696580
  0
ARC
  8
1
 62
7
  6
CONTINUOUS
 10
215.422543
 20
509.308151
 40
0.434280
 50
-23.957716
 51
-0.058302
  0
ARC
  8
1
 62
7
  6
CONTINUOUS
 10
215.133176
 20
509.426111
 40
0.746678
 50
-40.963697
 51
-23.213149
  0
ARC
  8
1
 62
7
  6
CONTINUOUS
 10
214.464212
 20
509.962678
 40
1.603940
 50
-50.927256
 51
-39.771035
  0
ARC
  8
1
 62
7
  6
CONTINUOUS
 10
186.665852
 20
511.217429
 40
1.000000
 50
0.000000
 51
90.434282
  0
ARC
  8
1
 62
7
  6
CONTINUOUS
 10
186.665852
 20
507.717323
 40
1.000000
 50
-89.541686
 51
0.000000
  0
ARC
  8
1
 62
7
  6
CONTINUOUS
 10
188.165852
 20
511.119020
 40
1.000000
 50
-90.000000
 51
-64.363203
  0
ARC
  8
1
 62
7
  6
CONTINUOUS
 10
188.165852
 20
507.819020
 40
1.000000
 50
0.000000
 51
63.954437
  0
ARC
  8
1
 62
7
  6
CONTINUOUS
 10
188.165852
 20
511.119020
 40
1.000000
 50
-64.363203
 51
0.000000
  0
ARC
  8
1
 62
7
  6
CONTINUOUS
 10
188.165852
 20
507.819020
 40
1.000000
 50
63.954437
 51
90.000000
  0
ARC
  8
1
 62
7
  6
CONTINUOUS
 10
101.765852
 20
520.246451
 40
4.600000
 50
90.000000
 51
180.000000
  0
ARC
  8
1
 62
7
  6
CONTINUOUS
 10
101.765852
 20
437.446451
 40
4.600000
 50
180.000000
 51
-90.000000
  0
ARC
  8
1
 62
7
  6
CONTINUOUS
 10
184.565852
 20
437.446451
 40
4.600000
 50
-90.000000
 51
-0.000000
  0
ARC
  8
1
 62
7
  6
CONTINUOUS
 10
184.565852
 20
520.246451
 40
4.600000
 50
0.000000
 51
90.000000
  0
LINE
  8
1
 62
7
  6
CONTINUOUS
 10
200.351747
 20
423.379383
 11
186.009545
 21
435.810900
  0
LINE
  8
1
 62
7
  6
CONTINUOUS
 10
188.956114
 20
433.866664
 11
188.352506
 21
433.170284
  0
LINE
  8
1
 62
7
  6
CONTINUOUS
 10
188.352506
 20
433.170284
 11
186.009545
 21
435.810900
  0
LINE
  8
1
 62
7
  6
CONTINUOUS
 10
186.009545
 20
435.810900
 11
188.956114
 21
433.866664
  0
LINE
  8
1
 62
7
  6
CONTINUOUS
 10
132.271255
 20
412.919236
 11
129.639306
 21
414.097286
  0
LINE
  8
1
 62
7
  6
CONTINUOUS
 10
133.022148
 20
413.087976
 11
132.645651
 21
412.246823
  0
LINE
  8
1
 62
7
  6
CONTINUOUS
 10
132.645651
 20
412.246823
 11
129.639306
 21
414.097286
  0
LINE
  8
1
 62
7
  6
CONTINUOUS
 10
129.639306
 20
414.097286
 11
133.022148
 21
413.087976
  0
LINE
  8
1
 62
7
  6
CONTINUOUS
 10
200.053573
 20
487.835261
 11
177.805579
 21
471.706968
  0
CIRCLE
  8
1
 62
7
  6
CONTINUOUS
 10
177.805579
 20
471.706968
 40
0.875000
  0
LINE
  8
1
 62
7
  6
CONTINUOUS
 10
292.613816
 20
413.853079
 11
273.685614
 21
413.853079
  0
LINE
  8
1
 62
7
  6
CONTINUOUS
 10
277.185614
 20
414.313862
 11
277.185614
 21
413.392295
  0
LINE
  8
1
 62
7
  6
CONTINUOUS
 10
277.185614
 20
413.392295
 11
273.685614
 21
413.853079
  0
LINE
  8
1
 62
7
  6
CONTINUOUS
 10
273.685614
 20
413.853079
 11
277.185614
 21
414.313862
  0
TEXT
  8
1
 62
7
  6
CONTINUOUS
 10
202.052559
 20
424.867593
 40
3.500000
 41
0.900000
  1
4-âË4.5ü}0.3
  7
KANJI
 50
0.000000
 51
0.000000
  0
TEXT
  8
1
 62
7
  6
CONTINUOUS
 10
136.865852
 20
415.063017
 40
3.500000
 41
0.900000
  1
ë±ô]ò¹î³
  7
KANJI
 50
0.000000
 51
0.000000
  0
TEXT
  8
1
 62
7
  6
CONTINUOUS
 10
201.311223
 20
488.815079
 40
3.000000
 41
0.900000
  1
7-BLADES
  7
KANJI
 50
0.000000
 51
0.000000
  0
TEXT
  8
1
 62
7
  6
CONTINUOUS
 10
126.491634
 20
484.140569
 40
2.000000
 41
0.720000
  1
S
  7
KANJI
 50
0.000000
 51
30.000000
  0
TEXT
  8
1
 62
7
  6
CONTINUOUS
 10
128.038786
 20
484.140569
 40
1.000000
 41
0.585000
  1
ERVO
  7
KANJI
 50
0.000000
 51
30.000000
  0
TEXT
  8
1
 62
7
  6
CONTINUOUS
 10
132.824894
 20
483.846451
 40
3.000000
 41
0.810000
  1
DC Koala
  7
KANJI
 50
0.000000
 51
30.000000
  0
TEXT
  8
1
 62
7
  6
CONTINUOUS
 10
278.597363
 20
415.968549
 40
3.500000
 41
0.900000
  1
òù î³
  7
KANJI
 50
0.000000
 51
0.000000
  0
LINE
  8
1
 62
7
  6
CONTINUOUS
 10
235.830971
 20
527.063489
 11
245.830971
 21
527.063489
  0
LINE
  8
1
 62
7
  6
CONTINUOUS
 10
245.830971
 20
510.667465
 11
245.830971
 21
528.063489
  0
LINE
  8
1
 62
7
  6
CONTINUOUS
 10
235.830971
 20
511.717465
 11
235.830971
 21
528.063489
  0
LINE
  8
1
 62
7
  6
CONTINUOUS
 10
235.830971
 20
527.063489
 11
239.330971
 21
527.518489
  0
LINE
  8
1
 62
7
  6
CONTINUOUS
 10
239.330971
 20
527.518489
 11
239.330971
 21
526.608489
  0
LINE
  8
1
 62
7
  6
CONTINUOUS
 10
239.330971
 20
526.608489
 11
235.830971
 21
527.063489
  0
LINE
  8
1
 62
7
  6
CONTINUOUS
 10
245.830971
 20
527.063489
 11
242.330971
 21
526.608489
  0
LINE
  8
1
 62
7
  6
CONTINUOUS
 10
242.330971
 20
526.608489
 11
242.330971
 21
527.518489
  0
LINE
  8
1
 62
7
  6
CONTINUOUS
 10
242.330971
 20
527.518489
 11
245.830971
 21
527.063489
  0
TEXT
  8
1
 62
7
  6
CONTINUOUS
 10
237.470971
 20
528.063489
 40
3.200000
 41
0.900000
  1
(10)
  7
KANJI
 50
0.000000
 51
0.000000
  0
LINE
  8
1
 62
7
  6
CONTINUOUS
 10
102.053352
 20
539.592949
 11
184.278352
 21
539.592949
  0
LINE
  8
1
 62
7
  6
CONTINUOUS
 10
102.053352
 20
524.111189
 11
102.053352
 21
541.592949
  0
LINE
  8
1
 62
7
  6
CONTINUOUS
 10
184.278352
 20
524.111189
 11
184.278352
 21
541.592949
  0
LINE
  8
1
 62
7
  6
CONTINUOUS
 10
102.053352
 20
539.592949
 11
105.553352
 21
540.047949
  0
LINE
  8
1
 62
7
  6
CONTINUOUS
 10
105.553352
 20
540.047949
 11
105.553352
 21
539.137949
  0
LINE
  8
1
 62
7
  6
CONTINUOUS
 10
105.553352
 20
539.137949
 11
102.053352
 21
539.592949
  0
LINE
  8
1
 62
7
  6
CONTINUOUS
 10
184.278352
 20
539.592949
 11
180.778352
 21
539.137949
  0
LINE
  8
1
 62
7
  6
CONTINUOUS
 10
180.778352
 20
539.137949
 11
180.778352
 21
540.047949
  0
LINE
  8
1
 62
7
  6
CONTINUOUS
 10
180.778352
 20
540.047949
 11
184.278352
 21
539.592949
  0
TEXT
  8
1
 62
7
  6
CONTINUOUS
 10
129.160705
 20
540.592949
 40
3.500000
 41
0.900000
  1
üá 82.5ü}0.3
  7
KANJI
 50
0.000000
 51
0.000000
  0
LINE
  8
1
 62
7
  6
CONTINUOUS
 10
97.165852
 20
553.845270
 11
189.165852
 21
553.845270
  0
LINE
  8
1
 62
7
  6
CONTINUOUS
 10
97.165852
 20
520.246451
 11
97.165852
 21
555.845270
  0
LINE
  8
1
 62
7
  6
CONTINUOUS
 10
189.165852
 20
520.246451
 11
189.165852
 21
555.845270
  0
LINE
  8
1
 62
7
  6
CONTINUOUS
 10
97.165852
 20
553.845270
 11
100.665852
 21
554.300270
  0
LINE
  8
1
 62
7
  6
CONTINUOUS
 10
100.665852
 20
554.300270
 11
100.665852
 21
553.390270
  0
LINE
  8
1
 62
7
  6
CONTINUOUS
 10
100.665852
 20
553.390270
 11
97.165852
 21
553.845270
  0
LINE
  8
1
 62
7
  6
CONTINUOUS
 10
189.165852
 20
553.845270
 11
185.665852
 21
553.390270
  0
LINE
  8
1
 62
7
  6
CONTINUOUS
 10
185.665852
 20
553.390270
 11
185.665852
 21
554.300270
  0
LINE
  8
1
 62
7
  6
CONTINUOUS
 10
185.665852
 20
554.300270
 11
189.165852
 21
553.845270
  0
TEXT
  8
1
 62
7
  6
CONTINUOUS
 10
133.973205
 20
554.845270
 40
3.500000
 41
0.900000
  1
üá 92ü}1
  7
KANJI
 50
0.000000
 51
0.000000
  0
LINE
  8
1
 62
7
  6
CONTINUOUS
 10
189.165852
 20
553.845270
 11
245.830971
 21
553.845270
  0
LINE
  8
1
 62
7
  6
CONTINUOUS
 10
245.830971
 20
511.267465
 11
245.830971
 21
554.845270
  0
LINE
  8
1
 62
7
  6
CONTINUOUS
 10
189.165852
 20
511.717465
 11
189.165852
 21
554.845270
  0
LINE
  8
1
 62
7
  6
CONTINUOUS
 10
189.165852
 20
553.845270
 11
192.665852
 21
554.300270
  0
LINE
  8
1
 62
7
  6
CONTINUOUS
 10
192.665852
 20
554.300270
 11
192.665852
 21
553.390270
  0
LINE
  8
1
 62
7
  6
CONTINUOUS
 10
192.665852
 20
553.390270
 11
189.165852
 21
553.845270
  0
LINE
  8
1
 62
7
  6
CONTINUOUS
 10
245.830971
 20
553.845270
 11
242.330971
 21
553.390270
  0
LINE
  8
1
 62
7
  6
CONTINUOUS
 10
242.330971
 20
553.390270
 11
242.330971
 21
554.300270
  0
LINE
  8
1
 62
7
  6
CONTINUOUS
 10
242.330971
 20
554.300270
 11
245.830971
 21
553.845270
  0
TEXT
  8
1
 62
7
  6
CONTINUOUS
 10
208.896058
 20
554.845270
 40
3.200000
 41
0.900000
  1
300ü}30
  7
KANJI
 50
0.000000
 51
0.000000
  0
LINE
  8
1
 62
7
  6
CONTINUOUS
 10
266.161597
 20
539.592949
 11
298.161597
 21
539.592949
  0
LINE
  8
1
 62
7
  6
CONTINUOUS
 10
266.161597
 20
524.846451
 11
266.161597
 21
541.592949
  0
LINE
  8
1
 62
7
  6
CONTINUOUS
 10
298.161597
 20
524.846451
 11
298.161597
 21
541.592949
  0
LINE
  8
1
 62
7
  6
CONTINUOUS
 10
266.161597
 20
539.592949
 11
269.661597
 21
540.047949
  0
LINE
  8
1
 62
7
  6
CONTINUOUS
 10
269.661597
 20
540.047949
 11
269.661597
 21
539.137949
  0
LINE
  8
1
 62
7
  6
CONTINUOUS
 10
269.661597
 20
539.137949
 11
266.161597
 21
539.592949
  0
LINE
  8
1
 62
7
  6
CONTINUOUS
 10
298.161597
 20
539.592949
 11
294.661597
 21
539.137949
  0
LINE
  8
1
 62
7
  6
CONTINUOUS
 10
294.661597
 20
539.137949
 11
294.661597
 21
540.047949
  0
LINE
  8
1
 62
7
  6
CONTINUOUS
 10
294.661597
 20
540.047949
 11
298.161597
 21
539.592949
  0
TEXT
  8
1
 62
7
  6
CONTINUOUS
 10
273.759023
 20
541.592949
 40
3.500000
 41
0.900000
  1
32ü}0.5
  7
KANJI
 50
0.000000
 51
0.000000
  0
ENDSEC
  0
EOF
