  0
SECTION
  2
HEADER
  9
$ACADVER
  1
AC1003
  9
$INSBASE
 10
0.000000
 20
0.000000
  9
$EXTMIN
 10
0.000000
 20
0.000000
  9
$EXTMAX
 10
420.000000
 20
297.000000
  9
$LIMMIN
 10
0.000000
 20
0.000000
  9
$LIMMAX
 10
420.000000
 20
297.000000
  9
$VIEWCTR
 10
210.000000
 20
148.500000
  9
$VIEWSIZE
 40
297.000000
  9
$PEXTMIN
 10
0.000000
 20
0.000000
 30
0.000000
  9
$PEXTMAX
 10
420.000000
 20
297.000000
 30
0.000000
  9
$SNAPMODE
 70
     0
  9
$SNAPUNIT
 10
1.000000
 20
1.000000
  9
$SNAPBASE
 10
0.000000
 20
0.000000
  9
$SNAPANG
 50
0.000000
  9
$SNAPISOPAIR
 70
     0
  9
$SNAPSTYLE
 70
     0
  9
$GRIDMODE
 70
     0
  9
$GRIDUNIT
 10
0.000000
 20
0.000000
  9
$ORTHOMODE
 70
     0
  9
$REGENMODE
 70
     1
  9
$FILLMODE
 70
     1
  9
$QTEXTMODE
 70
     0
  9
$DRAGMODE
 70
     2
  9
$LTSCALE
 40
0.250000
  9
$OSMODE
 70
     0
  9
$ATTMODE
 70
     1
  9
$TEXTSIZE
 40
0.200000
  9
$TRACEWID
 40
0.050000
  9
$TEXTSTYLE
  7
STANDARD
  9
$CLAYER
  8
0
  9
$CELTYPE
  6
BYLAYER
  9
$CECOLOR
 62
   256
  9
$DIMSCALE
 40
1.000000
  9
$DIMASZ
 40
1.000000
  9
$DIMEXO
 40
0.000000
  9
$DIMDLI
 40
0.500000
  9
$DIMRND
 40
0.000000
  9
$DIMDLE
 40
0.000000
  9
$DIMEXE
 40
0.000000
  9
$DIMTP
 40
0.000000
  9
$DIMTM
 40
0.000000
  9
$DIMTXT
 40
0.180000
  9
$DIMCEN
 40
0.000000
  9
$DIMTSZ
 40
0.000000
  9
$DIMTOL
 70
     0
  9
$DIMLIM
 70
     0
  9
$DIMTIH
 70
     1
  9
$DIMTOH
 70
     1
  9
$DIMSE1
 70
     0
  9
$DIMSE2
 70
     0
  9
$DIMTAD
 70
     0
  9
$DIMZIN
 70
     0
  9
$DIMBLK
  1

  9
$DIMASO
 70
     0
  9
$DIMSHO
 70
     0
  9
$DIMPOST
  1

  9
$DIMAPOST
  1

  9
$DIMALT
 70
     0
  9
$DIMALTD
 70
     0
  9
$DIMALTF
 40
25.400000
  9
$DIMLFAC
 40
1.000000
  9
$DIMTOFL
 70
     0
  9
$DIMTVP
 40
0.000000
  9
$DIMTIX
 70
     0
  9
$DIMSOXD
 70
     0
  9
$DIMSAH
 70
     0
  9
$DIMBLKL
  1

  9
$DIMBLKR
  1

  9
$LUNITS
 70
     2
  9
$LUPREC
 70
     2
  9
$AXISMODE
 70
     0
  9
$AXISUNIT
 10
1.000000
 20
1.000000
  9
$SKETCHINC
 40
0.000000
  9
$FILLETRAD
 40
0.000000
  9
$AUNITS
 70
     1
  9
$AUPREC
 70
     2
  9
$MENU
  1
ACAD
  9
$ELEVATION
 40
0.000000
  9
$THICKNESS
 40
0.000000
  9
$VIEWDIR
 10
0.000000
 20
0.000000
 30
1.000000
  9
$LIMCHECK
 70
     1
  9
$BLIPMODE
 70
     1
  9
$CHAMFERA
 40
0.000000
  9
$CHAMFERB
 40
0.000000
  9
$FASTZOOM
 70
     1
  9
$SKPOLY
 70
     0
  9
$TDCREATE
 40
0.000000
  9
$TDUPDATE
 40
0.000000
  9
$TDINDWG
 40
0.000000
  9
$TDUSRTIMER
 40
0.000000
  9
$USRTIMER
 70
     1
  9
$ANGBASE
 50
0.000000
  9
$ANGDIR
 70
     0
  9
$PDMODE
 70
     0
  9
$PDSIZE
 40
0.000000
  9
$PLINEWID
 40
0.000000
  9
$COORDS
 70
     2
  9
$USERI1
 70
     0
  9
$USERI2
 70
     0
  9
$USERI3
 70
     0
  9
$USERI4
 70
     0
  9
$USERI5
 70
     0
  9
$USERR1
 40
0.000000
  9
$USERR2
 40
0.000000
  9
$USERR3
 40
0.000000
  9
$USERR4
 40
0.000000
  9
$USERR5
 40
0.000000
  0
ENDSEC
  0
SECTION
  2
TABLES
  0
TABLE
  2
LTYPE
 70
     5
  0
LTYPE
  2
CONTINUOUS
 70
    64
  3
Solid line
 72
    65
 73
     0
 40
0.0
  0
LTYPE
  2
HIDDEN
 70
    64
  3
------------------------
 72
    65
 73
     2
 40
12.6
 49
8.4
 49
-4.2
  0
LTYPE
  2
DOT
 70
    64
  3
ÑÑÑÑÑÑÑÑÑÑÑÑÑÑÑÑÑÑÑÑÑÑÑÑ
 72
    65
 73
     2
 40
8.0
 49
6.0
 49
-2.0
  0
LTYPE
  2
DASHDOT
 70
    64
  3
--Ñ--Ñ--Ñ--Ñ--Ñ--Ñ--Ñ--
 72
    65
 73
     4
 40
50.5
 49
30.0
 49
-9.0
 49
2.5
 49
-9.0
  0
LTYPE
  2
DIVIDE
 70
    64
  3
--ÑÑ--ÑÑ--ÑÑ--ÑÑ--ÑÑ--
 72
    65
 73
     6
 40
58.0
 49
30.0
 49
-9.0
 49
2.5
 49
-5.0
 49
2.5
 49
-9.0
  0
ENDTAB
  0
TABLE
  2
LAYER
 70
3
  0
LAYER
  2
1
 70
64
 62
7
  6
CONTINUOUS
  0
LAYER
  2
2
 70
64
 62
134
  6
CONTINUOUS
  0
LAYER
  2
128
 70
64
 62
7
  6
CONTINUOUS
  0
ENDTAB
  0
TABLE
  2
STYLE
 70
     2
  0
STYLE
  2
STANDARD
 70
    64
 40
0.0
 41
1.0
 50
0.0
 71
     0
 42
0.2
  3
TXT
  4

  0
STYLE
  2
KANJI
 70
    64
 40
0.0
 41
1.0
 50
0.0
 71
     0
 42
0.2
  3
TXT
  4
BIGFONT
  0
ENDTAB
  0
TABLE
  2
VIEW
 70
     0
  0
ENDTAB
  0
ENDSEC
  0
SECTION
  2
BLOCKS
  0
ENDSEC
  0
SECTION
  2
ENTITIES
  0
LINE
  8
1
 62
7
  6
CONTINUOUS
 10
336.686114
 20
64.696317
 11
336.909523
 21
64.919725
  0
LINE
  8
1
 62
7
  6
CONTINUOUS
 10
336.686114
 20
64.413474
 11
337.192365
 21
64.919725
  0
LINE
  8
1
 62
7
  6
CONTINUOUS
 10
336.686114
 20
64.130632
 11
337.475208
 21
64.919725
  0
LINE
  8
1
 62
7
  6
CONTINUOUS
 10
336.686114
 20
63.847789
 11
337.758051
 21
64.919725
  0
LINE
  8
1
 62
7
  6
CONTINUOUS
 10
336.686114
 20
63.564946
 11
338.040893
 21
64.919725
  0
LINE
  8
1
 62
7
  6
CONTINUOUS
 10
336.686114
 20
63.282103
 11
338.323736
 21
64.919725
  0
LINE
  8
1
 62
7
  6
CONTINUOUS
 10
336.686114
 20
62.999261
 11
338.606579
 21
64.919725
  0
LINE
  8
1
 62
7
  6
CONTINUOUS
 10
336.889422
 20
62.919725
 11
338.889422
 21
64.919725
  0
LINE
  8
1
 62
7
  6
CONTINUOUS
 10
337.172264
 20
62.919725
 11
339.172264
 21
64.919725
  0
LINE
  8
1
 62
7
  6
CONTINUOUS
 10
337.455107
 20
62.919725
 11
339.455107
 21
64.919725
  0
LINE
  8
1
 62
7
  6
CONTINUOUS
 10
337.737950
 20
62.919725
 11
339.737950
 21
64.919725
  0
LINE
  8
1
 62
7
  6
CONTINUOUS
 10
338.020792
 20
62.919725
 11
340.020792
 21
64.919725
  0
LINE
  8
1
 62
7
  6
CONTINUOUS
 10
341.138911
 20
65.755001
 11
341.303635
 21
65.919725
  0
LINE
  8
1
 62
7
  6
CONTINUOUS
 10
338.303635
 20
62.919725
 11
340.303635
 21
64.919725
  0
LINE
  8
1
 62
7
  6
CONTINUOUS
 10
341.138911
 20
65.472158
 11
341.586478
 21
65.919725
  0
LINE
  8
1
 62
7
  6
CONTINUOUS
 10
338.586478
 20
62.919725
 11
340.586478
 21
64.919725
  0
LINE
  8
1
 62
7
  6
CONTINUOUS
 10
341.138911
 20
65.189316
 11
341.869321
 21
65.919725
  0
LINE
  8
1
 62
7
  6
CONTINUOUS
 10
338.869321
 20
62.919725
 11
340.869321
 21
64.919725
  0
LINE
  8
1
 62
7
  6
CONTINUOUS
 10
339.152163
 20
62.919725
 11
342.138911
 21
65.906473
  0
LINE
  8
1
 62
7
  6
CONTINUOUS
 10
339.435006
 20
62.919725
 11
342.138911
 21
65.623630
  0
LINE
  8
1
 62
7
  6
CONTINUOUS
 10
339.717849
 20
62.919725
 11
342.138911
 21
65.340788
  0
LINE
  8
1
 62
7
  6
CONTINUOUS
 10
340.000691
 20
62.919725
 11
342.138911
 21
65.057945
  0
LINE
  8
1
 62
7
  6
CONTINUOUS
 10
340.283534
 20
62.919725
 11
342.138911
 21
64.775102
  0
LINE
  8
1
 62
7
  6
CONTINUOUS
 10
340.566377
 20
62.919725
 11
342.138911
 21
64.492259
  0
LINE
  8
1
 62
7
  6
CONTINUOUS
 10
340.849220
 20
62.919725
 11
342.138911
 21
64.209417
  0
LINE
  8
1
 62
7
  6
CONTINUOUS
 10
341.132062
 20
62.919725
 11
342.138911
 21
63.926574
  0
LINE
  8
1
 62
7
  6
CONTINUOUS
 10
341.138911
 20
62.643731
 11
342.138911
 21
63.643731
  0
LINE
  8
1
 62
7
  6
CONTINUOUS
 10
341.138911
 20
62.360889
 11
342.138911
 21
63.360889
  0
LINE
  8
1
 62
7
  6
CONTINUOUS
 10
341.138911
 20
62.078046
 11
342.138911
 21
63.078046
  0
LINE
  8
1
 62
7
  6
CONTINUOUS
 10
341.263433
 20
61.919725
 11
342.138911
 21
62.795203
  0
LINE
  8
1
 62
7
  6
CONTINUOUS
 10
341.546276
 20
61.919725
 11
342.138911
 21
62.512360
  0
LINE
  8
1
 62
7
  6
CONTINUOUS
 10
341.829119
 20
61.919725
 11
342.138911
 21
62.229518
  0
LINE
  8
1
 62
7
  6
CONTINUOUS
 10
342.111961
 20
61.919725
 11
342.138911
 21
61.946675
  0
CIRCLE
  8
1
 62
7
  6
DIVIDE
 10
68.873725
 20
143.193623
 40
0.500000
  0
CIRCLE
  8
1
 62
7
  6
DIVIDE
 10
68.873725
 20
143.193623
 40
0.250000
  0
CIRCLE
  8
1
 62
7
  6
DIVIDE
 10
68.873725
 20
128.193623
 40
0.500000
  0
CIRCLE
  8
1
 62
7
  6
DIVIDE
 10
68.873725
 20
128.193623
 40
0.250000
  0
LINE
  8
1
 62
7
  6
CONTINUOUS
 10
293.388911
 20
108.193623
 11
293.388911
 21
128.193623
  0
LINE
  8
1
 62
7
  6
CONTINUOUS
 10
293.388911
 20
108.193623
 11
299.588911
 21
108.193623
  0
LINE
  8
1
 62
7
  6
CONTINUOUS
 10
293.388911
 20
88.193623
 11
293.388911
 21
108.193623
  0
LINE
  8
1
 62
7
  6
CONTINUOUS
 10
285.388911
 20
101.193623
 11
285.388911
 21
128.193623
  0
LINE
  8
1
 62
7
  6
CONTINUOUS
 10
299.588911
 20
98.193623
 11
299.588911
 21
88.193623
  0
LINE
  8
1
 62
7
  6
CONTINUOUS
 10
285.388911
 20
88.193623
 11
299.588911
 21
88.193623
  0
LINE
  8
1
 62
7
  6
CONTINUOUS
 10
285.388911
 20
101.193623
 11
285.388911
 21
88.193623
  0
LINE
  8
1
 62
7
  6
CONTINUOUS
 10
293.388911
 20
128.193623
 11
293.388911
 21
148.193623
  0
LINE
  8
1
 62
7
  6
CONTINUOUS
 10
299.588911
 20
148.193623
 11
293.388911
 21
148.193623
  0
LINE
  8
1
 62
7
  6
CONTINUOUS
 10
293.388911
 20
148.193623
 11
293.388911
 21
168.193623
  0
LINE
  8
1
 62
7
  6
CONTINUOUS
 10
285.388911
 20
128.193623
 11
285.388911
 21
168.193623
  0
LINE
  8
1
 62
7
  6
CONTINUOUS
 10
299.588911
 20
168.193623
 11
285.388911
 21
168.193623
  0
LINE
  8
1
 62
7
  6
CONTINUOUS
 10
299.588911
 20
158.193623
 11
299.588911
 21
168.193623
  0
LINE
  8
2
 62
134
  6
CONTINUOUS
 10
285.388911
 20
128.193623
 11
285.388911
 21
164.693623
  0
LINE
  8
2
 62
134
  6
CONTINUOUS
 10
285.388911
 20
89.193623
 11
285.388911
 21
91.693623
  0
LINE
  8
2
 62
134
  6
CONTINUOUS
 10
285.388911
 20
164.693623
 11
285.388911
 21
167.193623
  0
LINE
  8
2
 62
134
  6
CONTINUOUS
 10
285.388911
 20
91.693623
 11
285.388911
 21
128.193623
  0
LINE
  8
1
 62
7
  6
CONTINUOUS
 10
285.388911
 20
168.193623
 11
285.388911
 21
164.693623
  0
LINE
  8
1
 62
7
  6
CONTINUOUS
 10
285.388911
 20
128.193623
 11
285.388911
 21
164.693623
  0
LINE
  8
1
 62
7
  6
CONTINUOUS
 10
285.388911
 20
91.693623
 11
285.388911
 21
88.193623
  0
LINE
  8
1
 62
7
  6
CONTINUOUS
 10
285.388911
 20
91.693623
 11
285.388911
 21
128.193623
  0
LINE
  8
1
 62
7
  6
CONTINUOUS
 10
345.388911
 20
97.693623
 11
345.388911
 21
94.193623
  0
LINE
  8
1
 62
7
  6
CONTINUOUS
 10
344.388911
 20
97.693623
 11
344.388911
 21
94.193623
  0
LINE
  8
1
 62
7
  6
CONTINUOUS
 10
325.788911
 20
94.193623
 11
345.388911
 21
94.193623
  0
LINE
  8
1
 62
7
  6
CONTINUOUS
 10
325.788911
 20
97.693623
 11
325.788911
 21
94.193623
  0
LINE
  8
1
 62
7
  6
CONTINUOUS
 10
344.388911
 20
158.693623
 11
344.388911
 21
97.693623
  0
LINE
  8
1
 62
7
  6
CONTINUOUS
 10
299.588911
 20
158.193623
 11
299.588911
 21
158.693623
  0
LINE
  8
1
 62
7
  6
CONTINUOUS
 10
300.688911
 20
128.193623
 11
300.688911
 21
111.869532
  0
LINE
  8
1
 62
7
  6
CONTINUOUS
 10
301.688911
 20
128.193623
 11
301.688911
 21
111.869532
  0
LINE
  8
1
 62
7
  6
CONTINUOUS
 10
302.688911
 20
128.193623
 11
302.688911
 21
111.869532
  0
LINE
  8
1
 62
7
  6
CONTINUOUS
 10
303.688911
 20
128.193623
 11
303.688911
 21
111.869532
  0
LINE
  8
1
 62
7
  6
CONTINUOUS
 10
304.688911
 20
128.193623
 11
304.688911
 21
111.869532
  0
LINE
  8
1
 62
7
  6
CONTINUOUS
 10
319.688911
 20
128.193623
 11
319.688911
 21
111.869532
  0
LINE
  8
1
 62
7
  6
CONTINUOUS
 10
320.688911
 20
128.193623
 11
320.688911
 21
111.869532
  0
LINE
  8
1
 62
7
  6
CONTINUOUS
 10
321.688911
 20
128.193623
 11
321.688911
 21
111.869532
  0
LINE
  8
1
 62
7
  6
CONTINUOUS
 10
322.688911
 20
128.193623
 11
322.688911
 21
111.869532
  0
LINE
  8
1
 62
7
  6
CONTINUOUS
 10
323.688911
 20
128.193623
 11
323.688911
 21
111.869532
  0
LINE
  8
1
 62
7
  6
CONTINUOUS
 10
323.688911
 20
103.771462
 11
323.688911
 21
98.193623
  0
LINE
  8
1
 62
7
  6
CONTINUOUS
 10
300.688911
 20
105.122166
 11
300.688911
 21
108.193623
  0
LINE
  8
1
 62
7
  6
CONTINUOUS
 10
323.688911
 20
108.193623
 11
323.688911
 21
105.122166
  0
LINE
  8
1
 62
7
  6
CONTINUOUS
 10
300.688911
 20
98.193623
 11
300.688911
 21
103.771462
  0
LINE
  8
1
 62
7
  6
CONTINUOUS
 10
322.688911
 20
104.760464
 11
322.688911
 21
108.193623
  0
LINE
  8
1
 62
7
  6
CONTINUOUS
 10
322.688911
 20
103.409760
 11
322.688911
 21
98.193623
  0
LINE
  8
1
 62
7
  6
CONTINUOUS
 10
321.688911
 20
98.193623
 11
321.688911
 21
103.048057
  0
LINE
  8
1
 62
7
  6
CONTINUOUS
 10
320.688911
 20
102.686355
 11
320.688911
 21
98.193623
  0
LINE
  8
1
 62
7
  6
CONTINUOUS
 10
303.688911
 20
98.193623
 11
303.688911
 21
102.686355
  0
LINE
  8
1
 62
7
  6
CONTINUOUS
 10
302.688911
 20
103.048057
 11
302.688911
 21
98.193623
  0
LINE
  8
1
 62
7
  6
CONTINUOUS
 10
301.688911
 20
98.193623
 11
301.688911
 21
103.409760
  0
LINE
  8
1
 62
7
  6
CONTINUOUS
 10
301.688911
 20
104.760464
 11
301.688911
 21
108.193623
  0
LINE
  8
1
 62
7
  6
CONTINUOUS
 10
323.688911
 20
103.771462
 11
323.688911
 21
98.193623
  0
LINE
  8
1
 62
7
  6
CONTINUOUS
 10
300.688911
 20
105.122166
 11
300.688911
 21
108.193623
  0
LINE
  8
1
 62
7
  6
CONTINUOUS
 10
323.688911
 20
108.193623
 11
323.688911
 21
105.122166
  0
LINE
  8
1
 62
7
  6
CONTINUOUS
 10
300.688911
 20
98.193623
 11
300.688911
 21
103.771462
  0
LINE
  8
1
 62
7
  6
CONTINUOUS
 10
322.688911
 20
104.760464
 11
322.688911
 21
108.193623
  0
LINE
  8
1
 62
7
  6
CONTINUOUS
 10
322.688911
 20
103.409760
 11
322.688911
 21
98.193623
  0
LINE
  8
1
 62
7
  6
CONTINUOUS
 10
321.688911
 20
98.193623
 11
321.688911
 21
103.048057
  0
LINE
  8
1
 62
7
  6
CONTINUOUS
 10
320.688911
 20
102.686355
 11
320.688911
 21
98.193623
  0
LINE
  8
1
 62
7
  6
CONTINUOUS
 10
303.688911
 20
98.193623
 11
303.688911
 21
102.686355
  0
LINE
  8
1
 62
7
  6
CONTINUOUS
 10
302.688911
 20
103.048057
 11
302.688911
 21
98.193623
  0
LINE
  8
1
 62
7
  6
CONTINUOUS
 10
301.688911
 20
98.193623
 11
301.688911
 21
103.409760
  0
LINE
  8
1
 62
7
  6
CONTINUOUS
 10
301.688911
 20
104.760464
 11
301.688911
 21
108.193623
  0
LINE
  8
1
 62
7
  6
CONTINUOUS
 10
300.688911
 20
144.517713
 11
300.688911
 21
128.193623
  0
LINE
  8
1
 62
7
  6
CONTINUOUS
 10
301.688911
 20
144.517713
 11
301.688911
 21
128.193623
  0
LINE
  8
1
 62
7
  6
CONTINUOUS
 10
302.688911
 20
144.517713
 11
302.688911
 21
128.193623
  0
LINE
  8
1
 62
7
  6
CONTINUOUS
 10
303.688911
 20
144.517713
 11
303.688911
 21
128.193623
  0
LINE
  8
1
 62
7
  6
CONTINUOUS
 10
304.688911
 20
144.517713
 11
304.688911
 21
128.193623
  0
LINE
  8
1
 62
7
  6
CONTINUOUS
 10
319.688911
 20
144.517713
 11
319.688911
 21
128.193623
  0
LINE
  8
1
 62
7
  6
CONTINUOUS
 10
320.688911
 20
144.517713
 11
320.688911
 21
128.193623
  0
LINE
  8
1
 62
7
  6
CONTINUOUS
 10
321.688911
 20
144.517713
 11
321.688911
 21
128.193623
  0
LINE
  8
1
 62
7
  6
CONTINUOUS
 10
322.688911
 20
144.517713
 11
322.688911
 21
128.193623
  0
LINE
  8
1
 62
7
  6
CONTINUOUS
 10
323.688911
 20
144.517713
 11
323.688911
 21
128.193623
  0
LINE
  8
1
 62
7
  6
CONTINUOUS
 10
323.688911
 20
158.193623
 11
323.688911
 21
152.615783
  0
LINE
  8
1
 62
7
  6
CONTINUOUS
 10
300.688911
 20
148.193623
 11
300.688911
 21
151.265079
  0
LINE
  8
1
 62
7
  6
CONTINUOUS
 10
323.688911
 20
151.265079
 11
323.688911
 21
148.193623
  0
LINE
  8
1
 62
7
  6
CONTINUOUS
 10
300.688911
 20
152.615783
 11
300.688911
 21
158.193623
  0
LINE
  8
1
 62
7
  6
CONTINUOUS
 10
322.688911
 20
148.193623
 11
322.688911
 21
151.626782
  0
LINE
  8
1
 62
7
  6
CONTINUOUS
 10
322.688911
 20
158.193623
 11
322.688911
 21
152.977486
  0
LINE
  8
1
 62
7
  6
CONTINUOUS
 10
321.688911
 20
153.339188
 11
321.688911
 21
158.193623
  0
LINE
  8
1
 62
7
  6
CONTINUOUS
 10
320.688911
 20
158.193623
 11
320.688911
 21
153.700890
  0
LINE
  8
1
 62
7
  6
CONTINUOUS
 10
303.688911
 20
153.700890
 11
303.688911
 21
158.193623
  0
LINE
  8
1
 62
7
  6
CONTINUOUS
 10
302.688911
 20
158.193623
 11
302.688911
 21
153.339188
  0
LINE
  8
1
 62
7
  6
CONTINUOUS
 10
301.688911
 20
152.977486
 11
301.688911
 21
158.193623
  0
LINE
  8
1
 62
7
  6
CONTINUOUS
 10
301.688911
 20
148.193623
 11
301.688911
 21
151.626782
  0
LINE
  8
1
 62
7
  6
CONTINUOUS
 10
323.688911
 20
158.193623
 11
323.688911
 21
152.615783
  0
LINE
  8
1
 62
7
  6
CONTINUOUS
 10
300.688911
 20
148.193623
 11
300.688911
 21
151.265079
  0
LINE
  8
1
 62
7
  6
CONTINUOUS
 10
323.688911
 20
151.265079
 11
323.688911
 21
148.193623
  0
LINE
  8
1
 62
7
  6
CONTINUOUS
 10
300.688911
 20
152.615783
 11
300.688911
 21
158.193623
  0
LINE
  8
1
 62
7
  6
CONTINUOUS
 10
322.688911
 20
148.193623
 11
322.688911
 21
151.626782
  0
LINE
  8
1
 62
7
  6
CONTINUOUS
 10
322.688911
 20
158.193623
 11
322.688911
 21
152.977486
  0
LINE
  8
1
 62
7
  6
CONTINUOUS
 10
321.688911
 20
153.339188
 11
321.688911
 21
158.193623
  0
LINE
  8
1
 62
7
  6
CONTINUOUS
 10
320.688911
 20
158.193623
 11
320.688911
 21
153.700890
  0
LINE
  8
1
 62
7
  6
CONTINUOUS
 10
303.688911
 20
153.700890
 11
303.688911
 21
158.193623
  0
LINE
  8
1
 62
7
  6
CONTINUOUS
 10
302.688911
 20
158.193623
 11
302.688911
 21
153.339188
  0
LINE
  8
1
 62
7
  6
CONTINUOUS
 10
301.688911
 20
152.977486
 11
301.688911
 21
158.193623
  0
LINE
  8
1
 62
7
  6
CONTINUOUS
 10
301.688911
 20
148.193623
 11
301.688911
 21
151.626782
  0
LINE
  8
1
 62
7
  6
CONTINUOUS
 10
324.788911
 20
128.193623
 11
324.788911
 21
158.693623
  0
LINE
  8
1
 62
7
  6
CONTINUOUS
 10
299.588911
 20
158.193623
 11
324.788911
 21
158.193623
  0
LINE
  8
1
 62
7
  6
CONTINUOUS
 10
324.788911
 20
158.193623
 11
324.788911
 21
128.193623
  0
LINE
  8
1
 62
7
  6
CONTINUOUS
 10
299.588911
 20
128.193623
 11
299.588911
 21
158.193623
  0
LINE
  8
1
 62
7
  6
CONTINUOUS
 10
256.166954
 20
128.193623
 11
346.382129
 21
128.193623
  0
LINE
  8
1
 62
7
  6
CONTINUOUS
 10
299.588911
 20
128.193623
 11
299.588911
 21
158.193623
  0
LINE
  8
1
 62
7
  6
CONTINUOUS
 10
345.388911
 20
128.193623
 11
345.388911
 21
158.693623
  0
LINE
  8
1
 62
7
  6
CONTINUOUS
 10
345.388911
 20
158.693623
 11
324.788911
 21
158.693623
  0
LINE
  8
1
 62
7
  6
CONTINUOUS
 10
324.788911
 20
148.193623
 11
345.388911
 21
148.193623
  0
LINE
  8
1
 62
7
  6
CONTINUOUS
 10
299.588911
 20
148.193623
 11
324.788911
 21
148.193623
  0
LINE
  8
1
 62
7
  6
CONTINUOUS
 10
293.388911
 20
148.193623
 11
293.388911
 21
158.693623
  0
LINE
  8
1
 62
7
  6
CONTINUOUS
 10
299.588911
 20
148.193623
 11
293.388911
 21
148.193623
  0
LINE
  8
1
 62
7
  6
CONTINUOUS
 10
324.788911
 20
97.693623
 11
324.788911
 21
128.193623
  0
LINE
  8
1
 62
7
  6
CONTINUOUS
 10
324.788911
 20
98.193623
 11
299.588911
 21
98.193623
  0
LINE
  8
1
 62
7
  6
CONTINUOUS
 10
324.788911
 20
128.193623
 11
324.788911
 21
98.193623
  0
LINE
  8
1
 62
7
  6
CONTINUOUS
 10
299.588911
 20
98.193623
 11
299.588911
 21
128.193623
  0
LINE
  8
1
 62
7
  6
CONTINUOUS
 10
285.388911
 20
101.193623
 11
285.388911
 21
97.693623
  0
LINE
  8
1
 62
7
  6
CONTINUOUS
 10
299.588911
 20
98.193623
 11
299.588911
 21
128.193623
  0
LINE
  8
1
 62
7
  6
CONTINUOUS
 10
299.588911
 20
98.193623
 11
299.588911
 21
97.693623
  0
LINE
  8
1
 62
7
  6
CONTINUOUS
 10
345.388911
 20
97.693623
 11
345.388911
 21
128.193623
  0
LINE
  8
1
 62
7
  6
CONTINUOUS
 10
324.788911
 20
97.693623
 11
345.388911
 21
97.693623
  0
LINE
  8
1
 62
7
  6
CONTINUOUS
 10
345.388911
 20
108.193623
 11
324.788911
 21
108.193623
  0
LINE
  8
1
 62
7
  6
CONTINUOUS
 10
324.788911
 20
108.193623
 11
299.588911
 21
108.193623
  0
LINE
  8
1
 62
7
  6
CONTINUOUS
 10
293.388911
 20
97.693623
 11
293.388911
 21
108.193623
  0
LINE
  8
1
 62
7
  6
CONTINUOUS
 10
293.388911
 20
108.193623
 11
299.588911
 21
108.193623
  0
LINE
  8
1
 62
7
  6
CONTINUOUS
 10
347.800897
 20
118.033827
 11
347.800897
 21
138.206983
  0
LINE
  8
1
 62
7
  6
CONTINUOUS
 10
232.466950
 20
95.015403
 11
240.953647
 21
95.015403
  0
LINE
  8
1
 62
7
  6
CONTINUOUS
 10
232.466950
 20
161.515403
 11
240.953647
 21
161.515403
  0
LINE
  8
1
 62
7
  6
CONTINUOUS
 10
236.388911
 20
156.589397
 11
236.388911
 21
99.261886
  0
LINE
  8
1
 62
7
  6
CONTINUOUS
 10
235.388911
 20
154.765403
 11
236.388911
 21
154.765403
  0
LINE
  8
1
 62
7
  6
CONTINUOUS
 10
235.388911
 20
167.031469
 11
235.388911
 21
154.765403
  0
LINE
  8
1
 62
7
  6
CONTINUOUS
 10
228.388911
 20
150.765403
 11
228.388911
 21
135.765403
  0
LINE
  8
1
 62
7
  6
CONTINUOUS
 10
284.388911
 20
167.265403
 11
284.388911
 21
89.121842
  0
LINE
  8
1
 62
7
  6
CONTINUOUS
 10
52.968146
 20
168.193623
 11
119.968146
 21
168.193623
  0
LINE
  8
1
 62
7
  6
CONTINUOUS
 10
126.468146
 20
94.693623
 11
126.468146
 21
161.693623
  0
LINE
  8
1
 62
7
  6
CONTINUOUS
 10
52.968146
 20
88.193623
 11
119.968146
 21
88.193623
  0
LINE
  8
1
 62
7
  6
CONTINUOUS
 10
46.468146
 20
161.693623
 11
46.468146
 21
94.693623
  0
LINE
  8
1
 62
7
  6
CONTINUOUS
 10
66.468146
 20
143.193623
 11
106.468146
 21
143.193623
  0
LINE
  8
1
 62
7
  6
CONTINUOUS
 10
83.968146
 20
150.264690
 11
83.968146
 21
147.693623
  0
LINE
  8
1
 62
7
  6
CONTINUOUS
 10
83.968146
 20
147.693623
 11
88.968146
 21
147.693623
  0
LINE
  8
1
 62
7
  6
CONTINUOUS
 10
88.968146
 20
147.693623
 11
88.968146
 21
150.264690
  0
LINE
  8
1
 62
7
  6
CONTINUOUS
 10
119.718146
 20
170.953107
 11
119.718146
 21
151.934138
  0
LINE
  8
1
 62
7
  6
CONTINUOUS
 10
110.208662
 20
161.443623
 11
129.227630
 21
161.443623
  0
LINE
  8
1
 62
7
  6
CONTINUOUS
 10
129.227630
 20
94.943623
 11
110.208662
 21
94.943623
  0
LINE
  8
1
 62
7
  6
CONTINUOUS
 10
119.718146
 20
104.453107
 11
119.718146
 21
85.434138
  0
LINE
  8
1
 62
7
  6
CONTINUOUS
 10
53.218146
 20
85.434138
 11
53.218146
 21
104.453107
  0
LINE
  8
1
 62
7
  6
CONTINUOUS
 10
62.727630
 20
94.943623
 11
43.708662
 21
94.943623
  0
LINE
  8
1
 62
7
  6
CONTINUOUS
 10
53.218146
 20
151.934138
 11
53.218146
 21
170.953107
  0
LINE
  8
1
 62
7
  6
CONTINUOUS
 10
43.708662
 20
161.443623
 11
62.727630
 21
161.443623
  0
LINE
  8
1
 62
7
  6
CONTINUOUS
 10
43.468146
 20
128.193623
 11
129.468146
 21
128.193623
  0
LINE
  8
1
 62
7
  6
CONTINUOUS
 10
86.468146
 20
171.193623
 11
86.468146
 21
85.193623
  0
LINE
  8
1
 62
7
  6
HIDDEN
 10
200.388911
 20
147.765403
 11
225.388911
 21
147.765403
  0
LINE
  8
1
 62
7
  6
CONTINUOUS
 10
285.388911
 20
91.621842
 11
285.388911
 21
90.121842
  0
LINE
  8
1
 62
7
  6
CONTINUOUS
 10
285.388911
 20
167.265403
 11
285.388911
 21
91.621842
  0
LINE
  8
1
 62
7
  6
CONTINUOUS
 10
285.388911
 20
89.121842
 11
284.388911
 21
89.121842
  0
LINE
  8
1
 62
7
  6
CONTINUOUS
 10
285.388911
 20
90.121842
 11
285.388911
 21
89.121842
  0
LINE
  8
1
 62
7
  6
CONTINUOUS
 10
238.375450
 20
88.358471
 11
284.388911
 21
88.021842
  0
LINE
  8
1
 62
7
  6
CONTINUOUS
 10
284.388911
 20
168.365403
 11
237.382041
 21
168.042467
  0
LINE
  8
1
 62
7
  6
CONTINUOUS
 10
197.198483
 20
143.265403
 11
231.666145
 21
143.265403
  0
LINE
  8
1
 62
7
  6
CONTINUOUS
 10
236.388911
 20
124.765403
 11
236.388911
 21
101.257868
  0
LINE
  8
1
 62
7
  6
CONTINUOUS
 10
233.388911
 20
126.265403
 11
234.888911
 21
126.265403
  0
LINE
  8
1
 62
7
  6
CONTINUOUS
 10
284.388911
 20
89.121842
 11
284.388911
 21
88.021842
  0
LINE
  8
1
 62
7
  6
CONTINUOUS
 10
284.388911
 20
167.265403
 11
285.388911
 21
167.265403
  0
LINE
  8
1
 62
7
  6
CONTINUOUS
 10
284.388911
 20
168.365403
 11
284.388911
 21
167.265403
  0
LINE
  8
1
 62
7
  6
CONTINUOUS
 10
236.888911
 20
88.391842
 11
238.026870
 21
88.391842
  0
LINE
  8
1
 62
7
  6
CONTINUOUS
 10
235.388911
 20
89.391842
 11
235.388911
 21
100.391842
  0
LINE
  8
1
 62
7
  6
CONTINUOUS
 10
200.388911
 20
150.765403
 11
228.388911
 21
150.765403
  0
LINE
  8
1
 62
7
  6
CONTINUOUS
 10
200.388911
 20
135.765403
 11
228.388911
 21
135.765403
  0
LINE
  8
1
 62
7
  6
CONTINUOUS
 10
200.388911
 20
150.765403
 11
200.388911
 21
135.765403
  0
LINE
  8
1
 62
7
  6
CONTINUOUS
 10
235.388911
 20
167.031469
 11
235.388911
 21
160.351190
  0
LINE
  8
1
 62
7
  6
CONTINUOUS
 10
228.388911
 20
159.015403
 11
228.388911
 21
158.265403
  0
LINE
  8
1
 62
7
  6
CONTINUOUS
 10
228.388911
 20
135.765403
 11
228.388911
 21
128.265403
  0
LINE
  8
1
 62
7
  6
CONTINUOUS
 10
229.388911
 20
126.265403
 11
234.388911
 21
126.265403
  0
LINE
  8
1
 62
7
  6
HIDDEN
 10
225.388911
 20
147.765403
 11
225.388911
 21
150.765403
  0
LINE
  8
1
 62
7
  6
CONTINUOUS
 10
237.934514
 20
168.035644
 11
236.386212
 21
168.031466
  0
LINE
  8
1
 62
7
  6
CONTINUOUS
 10
228.388911
 20
158.265403
 11
228.388911
 21
150.765403
  0
LINE
  8
1
 62
7
  6
CONTINUOUS
 10
228.388911
 20
128.265403
 11
228.388911
 21
127.265403
  0
LINE
  8
1
 62
7
  6
CONTINUOUS
 10
245.913251
 20
169.101100
 11
272.874944
 21
169.101100
  0
LINE
  8
1
 62
7
  6
CONTINUOUS
 10
341.138911
 20
93.193623
 11
341.138911
 21
71.256803
  0
LINE
  8
1
 62
7
  6
CONTINUOUS
 10
340.138911
 20
71.267383
 11
340.138911
 21
93.193623
  0
LINE
  8
1
 62
7
  6
CONTINUOUS
 10
339.138911
 20
93.193623
 11
339.138911
 21
71.063902
  0
LINE
  8
1
 62
7
  6
CONTINUOUS
 10
338.090156
 20
70.731697
 11
338.090156
 21
93.193623
  0
LINE
  8
1
 62
7
  6
CONTINUOUS
 10
337.138911
 20
93.193623
 11
337.138911
 21
70.461192
  0
LINE
  8
1
 62
7
  6
CONTINUOUS
 10
332.888911
 20
94.193623
 11
332.888911
 21
93.193623
  0
LINE
  8
1
 62
7
  6
CONTINUOUS
 10
332.888911
 20
93.193623
 11
345.388911
 21
93.193623
  0
LINE
  8
1
 62
7
  6
CONTINUOUS
 10
345.388911
 20
93.193623
 11
345.388911
 21
94.193623
  0
LINE
  8
1
 62
7
  6
CONTINUOUS
 10
336.686114
 20
64.919725
 11
341.138911
 21
64.919725
  0
LINE
  8
1
 62
7
  6
CONTINUOUS
 10
341.138911
 20
64.919725
 11
341.138911
 21
65.919725
  0
LINE
  8
1
 62
7
  6
CONTINUOUS
 10
341.138911
 20
65.919725
 11
342.138911
 21
65.919725
  0
LINE
  8
1
 62
7
  6
CONTINUOUS
 10
342.138911
 20
65.919725
 11
342.138911
 21
61.919725
  0
LINE
  8
1
 62
7
  6
CONTINUOUS
 10
342.138911
 20
61.919725
 11
341.138911
 21
61.919725
  0
LINE
  8
1
 62
7
  6
CONTINUOUS
 10
341.138911
 20
61.919725
 11
341.138911
 21
62.919725
  0
LINE
  8
1
 62
7
  6
CONTINUOUS
 10
341.138911
 20
62.919725
 11
336.686114
 21
62.919725
  0
LINE
  8
1
 62
7
  6
CONTINUOUS
 10
336.686114
 20
62.919725
 11
336.686114
 21
64.919725
  0
LINE
  8
1
 62
7
  6
CONTINUOUS
 10
338.083974
 20
64.919725
 11
338.092048
 21
69.457663
  0
LINE
  8
1
 62
7
  6
CONTINUOUS
 10
339.138911
 20
64.919725
 11
339.138911
 21
69.789255
  0
LINE
  8
1
 62
7
  6
CONTINUOUS
 10
340.138911
 20
64.919725
 11
340.138911
 21
69.992736
  0
LINE
  8
1
 62
7
  6
CONTINUOUS
 10
341.138911
 20
64.919725
 11
341.138911
 21
69.982156
  0
LINE
  8
1
 62
7
  6
CONTINUOUS
 10
337.138911
 20
64.919725
 11
337.138911
 21
69.186545
  0
LINE
  8
1
 62
7
  6
CONTINUOUS
 10
336.343433
 20
63.919725
 11
342.769441
 21
63.919725
  0
LINE
  8
1
 62
7
  6
CONTINUOUS
 10
296.058252
 20
42.308341
 11
296.058252
 21
40.408341
  0
LINE
  8
1
 62
7
  6
CONTINUOUS
 10
296.058252
 20
40.408341
 11
294.158252
 21
40.408341
  0
LINE
  8
1
 62
7
  6
CONTINUOUS
 10
294.158252
 20
42.308341
 11
296.058252
 21
42.308341
  0
LINE
  8
1
 62
7
  6
CONTINUOUS
 10
294.158252
 20
40.408341
 11
294.158252
 21
42.308341
  0
LINE
  8
1
 62
7
  6
CONTINUOUS
 10
296.858252
 20
43.108341
 11
293.358252
 21
43.108341
  0
LINE
  8
1
 62
7
  6
CONTINUOUS
 10
293.358252
 20
43.108341
 11
293.358252
 21
39.608341
  0
LINE
  8
1
 62
7
  6
CONTINUOUS
 10
296.858252
 20
39.608341
 11
293.358252
 21
39.608341
  0
LINE
  8
1
 62
7
  6
CONTINUOUS
 10
296.858252
 20
43.108341
 11
296.858252
 21
39.608341
  0
LINE
  8
1
 62
7
  6
CONTINUOUS
 10
300.258252
 20
42.308341
 11
300.258252
 21
40.408341
  0
LINE
  8
1
 62
7
  6
CONTINUOUS
 10
298.358252
 20
42.308341
 11
300.258252
 21
42.308341
  0
LINE
  8
1
 62
7
  6
CONTINUOUS
 10
298.358252
 20
40.408341
 11
298.358252
 21
42.308341
  0
LINE
  8
1
 62
7
  6
CONTINUOUS
 10
300.258252
 20
40.408341
 11
298.358252
 21
40.408341
  0
LINE
  8
1
 62
7
  6
CONTINUOUS
 10
301.058252
 20
39.608341
 11
297.558252
 21
39.608341
  0
LINE
  8
1
 62
7
  6
CONTINUOUS
 10
301.058252
 20
43.108341
 11
297.558252
 21
43.108341
  0
LINE
  8
1
 62
7
  6
CONTINUOUS
 10
297.558252
 20
43.108341
 11
297.558252
 21
39.608341
  0
LINE
  8
1
 62
7
  6
CONTINUOUS
 10
301.058252
 20
43.108341
 11
301.058252
 21
39.608341
  0
LINE
  8
1
 62
7
  6
CONTINUOUS
 10
289.958252
 20
38.108341
 11
291.858252
 21
38.108341
  0
LINE
  8
1
 62
7
  6
CONTINUOUS
 10
291.858252
 20
38.108341
 11
291.858252
 21
36.208341
  0
LINE
  8
1
 62
7
  6
CONTINUOUS
 10
291.858252
 20
36.208341
 11
289.958252
 21
36.208341
  0
LINE
  8
1
 62
7
  6
CONTINUOUS
 10
289.958252
 20
36.208341
 11
289.958252
 21
38.108341
  0
LINE
  8
1
 62
7
  6
CONTINUOUS
 10
292.658252
 20
35.408341
 11
289.158252
 21
35.408341
  0
LINE
  8
1
 62
7
  6
CONTINUOUS
 10
292.658252
 20
38.908341
 11
289.158252
 21
38.908341
  0
LINE
  8
1
 62
7
  6
CONTINUOUS
 10
289.158252
 20
38.908341
 11
289.158252
 21
35.408341
  0
LINE
  8
1
 62
7
  6
CONTINUOUS
 10
292.658252
 20
38.908341
 11
292.658252
 21
35.408341
  0
LINE
  8
1
 62
7
  6
CONTINUOUS
 10
302.558252
 20
38.108341
 11
304.458252
 21
38.108341
  0
LINE
  8
1
 62
7
  6
CONTINUOUS
 10
304.458252
 20
38.108341
 11
304.458252
 21
36.208341
  0
LINE
  8
1
 62
7
  6
CONTINUOUS
 10
304.458252
 20
36.208341
 11
302.558252
 21
36.208341
  0
LINE
  8
1
 62
7
  6
CONTINUOUS
 10
302.558252
 20
36.208341
 11
302.558252
 21
38.108341
  0
LINE
  8
1
 62
7
  6
CONTINUOUS
 10
305.258252
 20
35.408341
 11
301.758252
 21
35.408341
  0
LINE
  8
1
 62
7
  6
CONTINUOUS
 10
305.258252
 20
38.908341
 11
301.758252
 21
38.908341
  0
LINE
  8
1
 62
7
  6
CONTINUOUS
 10
301.758252
 20
38.908341
 11
301.758252
 21
35.408341
  0
LINE
  8
1
 62
7
  6
CONTINUOUS
 10
305.258252
 20
38.908341
 11
305.258252
 21
35.408341
  0
LINE
  8
1
 62
7
  6
CONTINUOUS
 10
290.944778
 20
18.307930
 11
305.102264
 21
18.307930
  0
LINE
  8
1
 62
7
  6
CONTINUOUS
 10
347.138911
 20
23.666791
 11
347.138911
 21
32.266791
  0
LINE
  8
1
 62
7
  6
CONTINUOUS
 10
342.938911
 20
23.666791
 11
342.938911
 21
32.266791
  0
LINE
  8
1
 62
7
  6
CONTINUOUS
 10
334.538911
 20
23.666791
 11
334.538911
 21
32.266791
  0
LINE
  8
1
 62
7
  6
CONTINUOUS
 10
343.738911
 20
32.266791
 11
343.738911
 21
23.666791
  0
LINE
  8
1
 62
7
  6
CONTINUOUS
 10
339.538911
 20
26.988026
 11
339.538911
 21
23.666791
  0
LINE
  8
1
 62
7
  6
CONTINUOUS
 10
335.338911
 20
32.266791
 11
335.338911
 21
23.666791
  0
LINE
  8
1
 62
7
  6
CONTINUOUS
 10
331.138911
 20
32.266791
 11
331.138911
 21
23.666791
  0
LINE
  8
1
 62
7
  6
CONTINUOUS
 10
348.138911
 20
42.131374
 11
348.138911
 21
32.266791
  0
LINE
  8
1
 62
7
  6
CONTINUOUS
 10
343.138911
 20
42.131374
 11
348.138911
 21
42.131374
  0
LINE
  8
1
 62
7
  6
CONTINUOUS
 10
343.138911
 20
43.266791
 11
348.138911
 21
43.266791
  0
LINE
  8
1
 62
7
  6
CONTINUOUS
 10
343.138911
 20
43.266791
 11
343.138911
 21
42.131374
  0
LINE
  8
1
 62
7
  6
CONTINUOUS
 10
335.138911
 20
43.266791
 11
343.138911
 21
43.266791
  0
LINE
  8
1
 62
7
  6
CONTINUOUS
 10
335.138911
 20
42.131374
 11
335.138911
 21
43.266791
  0
LINE
  8
1
 62
7
  6
CONTINUOUS
 10
335.138911
 20
42.131374
 11
330.138911
 21
42.131374
  0
LINE
  8
1
 62
7
  6
CONTINUOUS
 10
331.361112
 20
43.266791
 11
330.138911
 21
43.266791
  0
LINE
  8
1
 62
7
  6
CONTINUOUS
 10
330.138911
 20
42.131374
 11
330.138911
 21
43.266791
  0
LINE
  8
1
 62
7
  6
CONTINUOUS
 10
348.138911
 20
43.266791
 11
348.138911
 21
42.131374
  0
LINE
  8
1
 62
7
  6
CONTINUOUS
 10
330.138911
 20
32.266791
 11
330.138911
 21
42.131374
  0
LINE
  8
1
 62
7
  6
CONTINUOUS
 10
341.838911
 20
38.314758
 11
341.838911
 21
33.574767
  0
LINE
  8
1
 62
7
  6
CONTINUOUS
 10
340.638911
 20
38.314758
 11
340.638911
 21
33.574767
  0
LINE
  8
1
 62
7
  6
CONTINUOUS
 10
340.638911
 20
38.314758
 11
341.838911
 21
38.314758
  0
LINE
  8
1
 62
7
  6
CONTINUOUS
 10
337.638911
 20
38.314758
 11
337.638911
 21
39.422808
  0
LINE
  8
1
 62
7
  6
CONTINUOUS
 10
336.438911
 20
38.314758
 11
336.438911
 21
39.422808
  0
LINE
  8
1
 62
7
  6
CONTINUOUS
 10
336.438911
 20
38.314758
 11
337.638911
 21
38.314758
  0
LINE
  8
1
 62
7
  6
CONTINUOUS
 10
341.838911
 20
39.422808
 11
341.838911
 21
38.314758
  0
LINE
  8
1
 62
7
  6
CONTINUOUS
 10
340.638911
 20
39.422808
 11
341.838911
 21
39.422808
  0
LINE
  8
1
 62
7
  6
CONTINUOUS
 10
336.438911
 20
39.422808
 11
336.438911
 21
40.766791
  0
LINE
  8
1
 62
7
  6
CONTINUOUS
 10
336.438911
 20
39.422808
 11
337.638911
 21
39.422808
  0
LINE
  8
1
 62
7
  6
CONTINUOUS
 10
340.638911
 20
32.266791
 11
340.638911
 21
33.574767
  0
LINE
  8
1
 62
7
  6
CONTINUOUS
 10
340.638911
 20
33.574767
 11
341.838911
 21
33.574767
  0
LINE
  8
1
 62
7
  6
CONTINUOUS
 10
337.638911
 20
33.574767
 11
337.638911
 21
38.314758
  0
LINE
  8
1
 62
7
  6
CONTINUOUS
 10
336.438911
 20
33.574767
 11
336.438911
 21
38.314758
  0
LINE
  8
1
 62
7
  6
CONTINUOUS
 10
336.438911
 20
33.574767
 11
337.638911
 21
33.574767
  0
LINE
  8
1
 62
7
  6
CONTINUOUS
 10
340.638911
 20
26.988026
 11
337.638911
 21
26.988026
  0
LINE
  8
1
 62
7
  6
CONTINUOUS
 10
340.638911
 20
39.422808
 11
340.638911
 21
38.314758
  0
LINE
  8
1
 62
7
  6
CONTINUOUS
 10
337.638911
 20
39.422808
 11
340.638911
 21
39.422808
  0
LINE
  8
1
 62
7
  6
CONTINUOUS
 10
337.638911
 20
32.266791
 11
337.638911
 21
26.988026
  0
LINE
  8
1
 62
7
  6
CONTINUOUS
 10
341.838911
 20
40.766791
 11
341.838911
 21
39.422808
  0
LINE
  8
1
 62
7
  6
CONTINUOUS
 10
336.438911
 20
40.766791
 11
341.838911
 21
40.766791
  0
LINE
  8
1
 62
7
  6
CONTINUOUS
 10
334.538911
 20
23.666791
 11
331.138911
 21
23.666791
  0
LINE
  8
1
 62
7
  6
CONTINUOUS
 10
338.738911
 20
23.666791
 11
335.338911
 21
23.666791
  0
LINE
  8
1
 62
7
  6
CONTINUOUS
 10
342.938911
 20
23.666791
 11
339.538911
 21
23.666791
  0
LINE
  8
1
 62
7
  6
CONTINUOUS
 10
347.138911
 20
23.666791
 11
343.738911
 21
23.666791
  0
LINE
  8
1
 62
7
  6
CONTINUOUS
 10
337.638911
 20
32.266791
 11
330.138911
 21
32.266791
  0
LINE
  8
1
 62
7
  6
CONTINUOUS
 10
337.638911
 20
33.574767
 11
337.638911
 21
32.266791
  0
LINE
  8
1
 62
7
  6
CONTINUOUS
 10
340.638911
 20
32.266791
 11
348.138911
 21
32.266791
  0
LINE
  8
1
 62
7
  6
CONTINUOUS
 10
340.638911
 20
26.988026
 11
340.638911
 21
32.266791
  0
LINE
  8
1
 62
7
  6
CONTINUOUS
 10
338.738911
 20
23.666791
 11
338.738911
 21
26.988026
  0
LINE
  8
1
 62
7
  6
CONTINUOUS
 10
335.138911
 20
43.266791
 11
330.018329
 21
43.266791
  0
LINE
  8
1
 62
7
  6
CONTINUOUS
 10
305.708252
 20
33.258341
 11
288.708252
 21
33.258341
  0
LINE
  8
1
 62
7
  6
CONTINUOUS
 10
288.208252
 20
34.258341
 11
288.208252
 21
33.758341
  0
LINE
  8
1
 62
7
  6
CONTINUOUS
 10
306.208252
 20
34.258341
 11
306.208252
 21
33.758341
  0
LINE
  8
1
 62
7
  6
CONTINUOUS
 10
294.508252
 20
43.858341
 11
293.208252
 21
43.858341
  0
LINE
  8
1
 62
7
  6
CONTINUOUS
 10
293.208252
 20
44.358341
 11
293.208252
 21
43.858341
  0
LINE
  8
1
 62
7
  6
CONTINUOUS
 10
288.208252
 20
44.358341
 11
288.208252
 21
43.858341
  0
LINE
  8
1
 62
7
  6
CONTINUOUS
 10
288.708252
 20
44.858341
 11
292.708252
 21
44.858341
  0
LINE
  8
1
 62
7
  6
CONTINUOUS
 10
305.708252
 20
44.858341
 11
301.708252
 21
44.858341
  0
LINE
  8
1
 62
7
  6
CONTINUOUS
 10
306.208252
 20
43.858341
 11
301.208252
 21
43.858341
  0
LINE
  8
1
 62
7
  6
CONTINUOUS
 10
301.208252
 20
44.358341
 11
301.208252
 21
43.858341
  0
LINE
  8
1
 62
7
  6
CONTINUOUS
 10
306.208252
 20
44.358341
 11
306.208252
 21
43.858341
  0
LINE
  8
1
 62
7
  6
CONTINUOUS
 10
304.458252
 20
42.308341
 11
304.458252
 21
40.408341
  0
LINE
  8
1
 62
7
  6
CONTINUOUS
 10
302.558252
 20
42.308341
 11
304.458252
 21
42.308341
  0
LINE
  8
1
 62
7
  6
CONTINUOUS
 10
302.558252
 20
40.408341
 11
302.558252
 21
42.308341
  0
LINE
  8
1
 62
7
  6
CONTINUOUS
 10
304.458252
 20
40.408341
 11
302.558252
 21
40.408341
  0
LINE
  8
1
 62
7
  6
CONTINUOUS
 10
298.358252
 20
38.108341
 11
300.258252
 21
38.108341
  0
LINE
  8
1
 62
7
  6
CONTINUOUS
 10
300.258252
 20
38.108341
 11
300.258252
 21
36.208341
  0
LINE
  8
1
 62
7
  6
CONTINUOUS
 10
300.258252
 20
36.208341
 11
298.358252
 21
36.208341
  0
LINE
  8
1
 62
7
  6
CONTINUOUS
 10
298.358252
 20
36.208341
 11
298.358252
 21
38.108341
  0
LINE
  8
1
 62
7
  6
CONTINUOUS
 10
294.158252
 20
38.108341
 11
296.058252
 21
38.108341
  0
LINE
  8
1
 62
7
  6
CONTINUOUS
 10
296.058252
 20
38.108341
 11
296.058252
 21
36.208341
  0
LINE
  8
1
 62
7
  6
CONTINUOUS
 10
296.058252
 20
36.208341
 11
294.158252
 21
36.208341
  0
LINE
  8
1
 62
7
  6
CONTINUOUS
 10
294.158252
 20
36.208341
 11
294.158252
 21
38.108341
  0
LINE
  8
1
 62
7
  6
CONTINUOUS
 10
289.958252
 20
40.408341
 11
289.958252
 21
42.308341
  0
LINE
  8
1
 62
7
  6
CONTINUOUS
 10
289.958252
 20
42.308341
 11
291.858252
 21
42.308341
  0
LINE
  8
1
 62
7
  6
CONTINUOUS
 10
291.858252
 20
42.308341
 11
291.858252
 21
40.408341
  0
LINE
  8
1
 62
7
  6
CONTINUOUS
 10
291.858252
 20
40.408341
 11
289.958252
 21
40.408341
  0
LINE
  8
1
 62
7
  6
CONTINUOUS
 10
298.708252
 20
47.358341
 11
298.708252
 21
45.112794
  0
LINE
  8
1
 62
7
  6
CONTINUOUS
 10
295.708252
 20
47.358341
 11
295.708252
 21
45.112794
  0
LINE
  8
1
 62
7
  6
CONTINUOUS
 10
298.708252
 20
45.112794
 11
295.708252
 21
45.112794
  0
LINE
  8
1
 62
7
  6
CONTINUOUS
 10
299.908252
 20
47.358341
 11
299.908252
 21
47.217707
  0
LINE
  8
1
 62
7
  6
CONTINUOUS
 10
294.508252
 20
47.358341
 11
294.508252
 21
47.217707
  0
LINE
  8
1
 62
7
  6
CONTINUOUS
 10
299.908252
 20
47.217707
 11
294.508252
 21
47.217707
  0
LINE
  8
1
 62
7
  6
CONTINUOUS
 10
299.908252
 20
47.217707
 11
299.908252
 21
46.358341
  0
LINE
  8
1
 62
7
  6
CONTINUOUS
 10
294.508252
 20
47.217707
 11
294.508252
 21
46.358341
  0
LINE
  8
1
 62
7
  6
CONTINUOUS
 10
299.908252
 20
46.358341
 11
294.508252
 21
46.358341
  0
LINE
  8
1
 62
7
  6
CONTINUOUS
 10
299.908252
 20
47.358341
 11
294.508252
 21
47.358341
  0
LINE
  8
1
 62
7
  6
CONTINUOUS
 10
295.708252
 20
43.858341
 11
294.508252
 21
43.858341
  0
LINE
  8
1
 62
7
  6
CONTINUOUS
 10
294.508252
 20
46.358341
 11
294.508252
 21
43.858341
  0
LINE
  8
1
 62
7
  6
CONTINUOUS
 10
298.708252
 20
43.858341
 11
295.708252
 21
43.858341
  0
LINE
  8
1
 62
7
  6
CONTINUOUS
 10
295.708252
 20
45.112794
 11
295.708252
 21
43.858341
  0
LINE
  8
1
 62
7
  6
CONTINUOUS
 10
299.908252
 20
43.858341
 11
298.708252
 21
43.858341
  0
LINE
  8
1
 62
7
  6
CONTINUOUS
 10
298.708252
 20
45.112794
 11
298.708252
 21
43.858341
  0
LINE
  8
1
 62
7
  6
CONTINUOUS
 10
301.208252
 20
43.858341
 11
299.908252
 21
43.858341
  0
LINE
  8
1
 62
7
  6
CONTINUOUS
 10
299.908252
 20
46.358341
 11
299.908252
 21
43.858341
  0
LINE
  8
1
 62
7
  6
CONTINUOUS
 10
301.058252
 20
35.408341
 11
297.558252
 21
35.408341
  0
LINE
  8
1
 62
7
  6
CONTINUOUS
 10
301.058252
 20
38.908341
 11
297.558252
 21
38.908341
  0
LINE
  8
1
 62
7
  6
CONTINUOUS
 10
297.558252
 20
38.908341
 11
297.558252
 21
35.408341
  0
LINE
  8
1
 62
7
  6
CONTINUOUS
 10
301.058252
 20
38.908341
 11
301.058252
 21
35.408341
  0
LINE
  8
1
 62
7
  6
CONTINUOUS
 10
296.858252
 20
35.408341
 11
293.358252
 21
35.408341
  0
LINE
  8
1
 62
7
  6
CONTINUOUS
 10
296.858252
 20
38.908341
 11
293.358252
 21
38.908341
  0
LINE
  8
1
 62
7
  6
CONTINUOUS
 10
293.358252
 20
38.908341
 11
293.358252
 21
35.408341
  0
LINE
  8
1
 62
7
  6
CONTINUOUS
 10
296.858252
 20
38.908341
 11
296.858252
 21
35.408341
  0
LINE
  8
1
 62
7
  6
CONTINUOUS
 10
305.258252
 20
39.608341
 11
301.758252
 21
39.608341
  0
LINE
  8
1
 62
7
  6
CONTINUOUS
 10
305.258252
 20
43.108341
 11
301.758252
 21
43.108341
  0
LINE
  8
1
 62
7
  6
CONTINUOUS
 10
301.758252
 20
43.108341
 11
301.758252
 21
39.608341
  0
LINE
  8
1
 62
7
  6
CONTINUOUS
 10
305.258252
 20
43.108341
 11
305.258252
 21
39.608341
  0
LINE
  8
1
 62
7
  6
CONTINUOUS
 10
292.658252
 20
39.608341
 11
289.158252
 21
39.608341
  0
LINE
  8
1
 62
7
  6
CONTINUOUS
 10
292.658252
 20
43.108341
 11
289.158252
 21
43.108341
  0
LINE
  8
1
 62
7
  6
CONTINUOUS
 10
289.158252
 20
43.108341
 11
289.158252
 21
39.608341
  0
LINE
  8
1
 62
7
  6
CONTINUOUS
 10
292.658252
 20
43.108341
 11
292.658252
 21
39.608341
  0
LINE
  8
1
 62
7
  6
CONTINUOUS
 10
306.208252
 20
34.258341
 11
288.208252
 21
34.258341
  0
LINE
  8
1
 62
7
  6
CONTINUOUS
 10
293.208252
 20
43.858341
 11
288.208252
 21
43.858341
  0
LINE
  8
1
 62
7
  6
CONTINUOUS
 10
288.208252
 20
43.858341
 11
288.208252
 21
34.258341
  0
LINE
  8
1
 62
7
  6
CONTINUOUS
 10
306.208252
 20
43.858341
 11
306.208252
 21
34.258341
  0
LINE
  8
1
 62
7
  6
CONTINUOUS
 10
337.138911
 20
62.919725
 11
337.138911
 21
53.243967
  0
LINE
  8
1
 62
7
  6
CONTINUOUS
 10
338.083974
 20
62.919725
 11
338.083974
 21
53.243967
  0
LINE
  8
1
 62
7
  6
CONTINUOUS
 10
339.138911
 20
62.919725
 11
339.138911
 21
53.243967
  0
LINE
  8
1
 62
7
  6
CONTINUOUS
 10
340.138911
 20
62.919725
 11
340.138911
 21
53.243967
  0
LINE
  8
1
 62
7
  6
CONTINUOUS
 10
341.138911
 20
62.919725
 11
341.138911
 21
53.243967
  0
LINE
  8
1
 62
7
  6
CONTINUOUS
 10
332.338911
 20
43.266791
 11
337.138911
 21
53.243967
  0
LINE
  8
1
 62
7
  6
CONTINUOUS
 10
333.338911
 20
43.266791
 11
338.083974
 21
53.243967
  0
LINE
  8
1
 62
7
  6
CONTINUOUS
 10
338.083974
 20
53.243967
 11
336.538911
 21
43.266791
  0
LINE
  8
1
 62
7
  6
CONTINUOUS
 10
337.538911
 20
43.266791
 11
339.138911
 21
53.243967
  0
LINE
  8
1
 62
7
  6
CONTINUOUS
 10
339.138911
 20
53.243967
 11
340.738911
 21
43.266791
  0
LINE
  8
1
 62
7
  6
CONTINUOUS
 10
341.738911
 20
43.266791
 11
340.138911
 21
53.243967
  0
LINE
  8
1
 62
7
  6
CONTINUOUS
 10
340.138911
 20
53.243967
 11
344.938911
 21
43.266791
  0
LINE
  8
1
 62
7
  6
CONTINUOUS
 10
345.938911
 20
43.266791
 11
341.138911
 21
53.243967
  0
ARC
  8
1
 62
7
  6
CONTINUOUS
 10
119.718146
 20
161.443623
 40
6.750000
 50
90.000000
 51
-0.000000
  0
ARC
  8
1
 62
7
  6
CONTINUOUS
 10
119.718146
 20
94.943623
 40
6.750000
 50
0.000000
 51
-90.000000
  0
ARC
  8
1
 62
7
  6
CONTINUOUS
 10
53.218146
 20
161.443623
 40
6.750000
 50
-180.000000
 51
90.000000
  0
ARC
  8
1
 62
7
  6
CONTINUOUS
 10
53.218146
 20
94.943623
 40
6.750000
 50
-90.000000
 51
180.000000
  0
ARC
  8
1
 62
7
  6
CONTINUOUS
 10
86.468146
 20
128.193623
 40
47.022601
 50
20.000000
 51
55.000000
  0
ARC
  8
1
 62
7
  6
CONTINUOUS
 10
86.468146
 20
128.193623
 40
47.022601
 50
-160.000000
 51
-125.000000
  0
CIRCLE
  8
1
 62
7
  6
CONTINUOUS
 10
86.468146
 20
143.193623
 40
17.000000
  0
CIRCLE
  8
1
 62
7
  6
CONTINUOUS
 10
86.468146
 20
143.193623
 40
7.500000
  0
CIRCLE
  8
1
 62
7
  6
DIVIDE
 10
86.468146
 20
128.193623
 40
47.000000
  0
ARC
  8
1
 62
7
  6
CONTINUOUS
 10
346.221086
 20
105.796246
 40
37.000213
 50
-109.059107
 51
-108.404750
  0
ARC
  8
1
 62
7
  6
CONTINUOUS
 10
338.364178
 20
82.184046
 40
12.115137
 50
-108.404750
 51
-106.421407
  0
ARC
  8
1
 62
7
  6
CONTINUOUS
 10
336.905522
 20
77.234788
 40
6.955405
 50
-106.421407
 51
-103.013702
  0
ARC
  8
1
 62
7
  6
CONTINUOUS
 10
336.403504
 20
75.062677
 40
4.726036
 50
-103.013702
 51
-98.080590
  0
ARC
  8
1
 62
7
  6
CONTINUOUS
 10
336.233000
 20
73.861740
 40
3.513056
 50
-98.080590
 51
-78.448410
  0
ARC
  8
1
 62
7
  6
CONTINUOUS
 10
335.067057
 20
79.566236
 40
9.335486
 50
-78.448410
 51
-73.399213
  0
ARC
  8
1
 62
7
  6
CONTINUOUS
 10
332.098696
 20
89.522907
 40
19.725215
 50
-73.399213
 51
-70.961403
  0
ARC
  8
1
 62
7
  6
CONTINUOUS
 10
342.815943
 20
58.051798
 40
13.521089
 50
104.921300
 51
108.466394
  0
ARC
  8
1
 62
7
  6
CONTINUOUS
 10
340.719519
 20
65.935202
 40
5.363699
 50
96.214319
 51
104.965958
  0
ARC
  8
1
 62
7
  6
CONTINUOUS
 10
340.573672
 20
66.834906
 40
4.453748
 50
87.910805
 51
95.601956
  0
ARC
  8
1
 62
7
  6
CONTINUOUS
 10
340.521935
 20
65.451070
 40
5.838551
 50
81.994334
 51
87.898492
  0
ARC
  8
1
 62
7
  6
CONTINUOUS
 10
340.149094
 20
62.794781
 40
8.520878
 50
77.897753
 51
81.999290
  0
ARC
  8
1
 62
7
  6
CONTINUOUS
 10
338.840031
 20
56.678543
 40
14.775637
 50
75.510262
 51
77.906838
  0
ARC
  8
1
 62
7
  6
CONTINUOUS
 10
331.191133
 20
27.061766
 40
45.364183
 50
74.729601
 51
75.516208
  0
ARC
  8
1
 62
7
  6
CONTINUOUS
 10
346.221086
 20
104.521599
 40
37.000213
 50
-109.059107
 51
-108.404750
  0
ARC
  8
1
 62
7
  6
CONTINUOUS
 10
338.364178
 20
80.909399
 40
12.115137
 50
-108.404750
 51
-106.421407
  0
ARC
  8
1
 62
7
  6
CONTINUOUS
 10
336.905522
 20
75.960141
 40
6.955405
 50
-106.421407
 51
-103.013702
  0
ARC
  8
1
 62
7
  6
CONTINUOUS
 10
336.403504
 20
73.788030
 40
4.726036
 50
-103.013702
 51
-98.080590
  0
ARC
  8
1
 62
7
  6
CONTINUOUS
 10
336.233000
 20
72.587093
 40
3.513056
 50
-98.080590
 51
-78.448410
  0
ARC
  8
1
 62
7
  6
CONTINUOUS
 10
335.067057
 20
78.291589
 40
9.335486
 50
-78.448410
 51
-73.399213
  0
ARC
  8
1
 62
7
  6
CONTINUOUS
 10
332.098696
 20
88.248259
 40
19.725215
 50
-73.399213
 51
-70.961403
  0
ARC
  8
1
 62
7
  6
CONTINUOUS
 10
342.815943
 20
56.777151
 40
13.521089
 50
104.921300
 51
108.466394
  0
ARC
  8
1
 62
7
  6
CONTINUOUS
 10
340.719519
 20
64.660555
 40
5.363699
 50
96.214319
 51
104.965958
  0
ARC
  8
1
 62
7
  6
CONTINUOUS
 10
340.573672
 20
65.560259
 40
4.453748
 50
87.910805
 51
95.601956
  0
ARC
  8
1
 62
7
  6
CONTINUOUS
 10
340.521935
 20
64.176423
 40
5.838551
 50
81.994334
 51
87.898492
  0
ARC
  8
1
 62
7
  6
CONTINUOUS
 10
340.149094
 20
61.520134
 40
8.520878
 50
77.897753
 51
81.999290
  0
ARC
  8
1
 62
7
  6
CONTINUOUS
 10
338.840031
 20
55.403896
 40
14.775637
 50
75.510262
 51
77.906838
  0
ARC
  8
1
 62
7
  6
CONTINUOUS
 10
331.191133
 20
25.787119
 40
45.364183
 50
74.729601
 51
75.516208
  0
ARC
  8
1
 62
7
  6
CONTINUOUS
 10
52.968146
 20
161.693623
 40
6.500000
 50
90.000000
 51
180.000000
  0
ARC
  8
1
 62
7
  6
CONTINUOUS
 10
52.968146
 20
94.693623
 40
6.500000
 50
180.000000
 51
-90.000000
  0
ARC
  8
1
 62
7
  6
CONTINUOUS
 10
119.968146
 20
94.693623
 40
6.500000
 50
-90.000000
 51
-0.000000
  0
ARC
  8
1
 62
7
  6
CONTINUOUS
 10
119.968146
 20
161.693623
 40
6.500000
 50
0.000000
 51
90.000000
  0
ARC
  8
1
 62
7
  6
CONTINUOUS
 10
236.638911
 20
89.641842
 40
1.274755
 50
-168.690068
 51
-78.690068
  0
ARC
  8
1
 62
7
  6
CONTINUOUS
 10
236.638911
 20
99.958829
 40
1.322876
 50
100.893395
 51
160.893395
  0
ARC
  8
1
 62
7
  6
CONTINUOUS
 10
234.888911
 20
124.765403
 40
1.500000
 50
0.000000
 51
90.000000
  0
ARC
  8
1
 62
7
  6
CONTINUOUS
 10
229.388911
 20
127.265403
 40
1.000000
 50
180.000000
 51
-90.000000
  0
ARC
  8
1
 62
7
  6
CONTINUOUS
 10
236.388911
 20
167.031469
 40
1.000000
 50
90.154627
 51
180.000000
  0
ARC
  8
1
 62
7
  6
CONTINUOUS
 10
288.708252
 20
44.358341
 40
0.500000
 50
90.000000
 51
180.000000
  0
ARC
  8
1
 62
7
  6
CONTINUOUS
 10
292.708252
 20
44.358341
 40
0.500000
 50
0.000000
 51
90.000000
  0
ARC
  8
1
 62
7
  6
CONTINUOUS
 10
301.708252
 20
44.358341
 40
0.500000
 50
90.000000
 51
180.000000
  0
ARC
  8
1
 62
7
  6
CONTINUOUS
 10
305.708252
 20
44.358341
 40
0.500000
 50
0.000000
 51
90.000000
  0
ARC
  8
1
 62
7
  6
CONTINUOUS
 10
305.708252
 20
33.758341
 40
0.500000
 50
-90.000000
 51
0.000000
  0
ARC
  8
1
 62
7
  6
CONTINUOUS
 10
288.708252
 20
33.758341
 40
0.500000
 50
180.000000
 51
-90.000000
  0
LINE
  8
1
 62
7
  6
CONTINUOUS
 10
386.064821
 20
137.035639
 11
358.733447
 21
137.035639
  0
LINE
  8
1
 62
7
  6
CONTINUOUS
 10
358.733447
 20
137.035639
 11
347.800897
 21
129.356824
  0
LINE
  8
1
 62
7
  6
CONTINUOUS
 10
350.177363
 20
131.540832
 11
350.661650
 21
130.851339
  0
LINE
  8
1
 62
7
  6
CONTINUOUS
 10
350.661650
 20
130.851339
 11
347.800897
 21
129.356824
  0
LINE
  8
1
 62
7
  6
CONTINUOUS
 10
347.800897
 20
129.356824
 11
350.177363
 21
131.540832
  0
LINE
  8
1
 62
7
  6
CONTINUOUS
 10
263.335035
 20
186.583869
 11
255.426953
 21
169.101100
  0
LINE
  8
1
 62
7
  6
CONTINUOUS
 10
256.361936
 20
172.190321
 11
257.129627
 21
171.843068
  0
LINE
  8
1
 62
7
  6
CONTINUOUS
 10
257.129627
 20
171.843068
 11
255.426953
 21
169.101100
  0
LINE
  8
1
 62
7
  6
CONTINUOUS
 10
255.426953
 20
169.101100
 11
256.361936
 21
172.190321
  0
LINE
  8
1
 62
7
  6
CONTINUOUS
 10
339.251289
 20
13.678425
 11
339.251289
 21
21.347572
  0
LINE
  8
1
 62
7
  6
CONTINUOUS
 10
339.712073
 20
17.847572
 11
338.790505
 21
17.847572
  0
LINE
  8
1
 62
7
  6
CONTINUOUS
 10
338.790505
 20
17.847572
 11
339.251289
 21
21.347572
  0
LINE
  8
1
 62
7
  6
CONTINUOUS
 10
339.251289
 20
21.347572
 11
339.712073
 21
17.847572
  0
TEXT
  8
1
 62
7
  6
CONTINUOUS
 10
293.170310
 20
183.437794
 40
4.000000
 41
0.900000
  1
üiâéü[â^Äµòtòöô¸î·üj
  7
KANJI
 50
0.000000
 51
0.000000
  0
TEXT
  8
1
 62
7
  6
CONTINUOUS
 10
358.307919
 20
140.052715
 40
4.000000
 41
0.900000
  1
âlü[âÇâvâîü[âg
  7
KANJI
 50
0.000000
 51
0.000000
  0
TEXT
  8
1
 62
7
  6
CONTINUOUS
 10
253.795127
 20
187.839120
 40
4.000000
 41
0.900000
  1
âlü[âÇâvâîü[âg
  7
KANJI
 50
0.000000
 51
0.000000
  0
TEXT
  8
1
 62
7
  6
CONTINUOUS
 10
332.609233
 20
14.549299
 40
3.200000
 41
0.900000
  1
A
  7
KANJI
 50
0.000000
 51
0.000000
  0
TEXT
  8
1
 62
7
  6
CONTINUOUS
 10
291.428189
 20
19.523067
 40
3.200000
 41
0.900000
  1
Aû¯ÄïÉ}
  7
KANJI
 50
0.000000
 51
0.000000
  0
TEXT
  8
1
 62
7
  6
CONTINUOUS
 10
305.888100
 20
28.438008
 40
3.200000
 41
0.900000
  1
4
  7
KANJI
 50
0.000000
 51
0.000000
  0
TEXT
  8
1
 62
7
  6
CONTINUOUS
 10
306.048329
 20
46.048362
 40
3.200000
 41
0.900000
  1
8
  7
KANJI
 50
0.000000
 51
0.000000
  0
TEXT
  8
1
 62
7
  6
CONTINUOUS
 10
286.493101
 20
27.634882
 40
3.200000
 41
0.900000
  1
1
  7
KANJI
 50
0.000000
 51
0.000000
  0
TEXT
  8
1
 62
7
  6
CONTINUOUS
 10
285.637833
 20
45.919902
 40
3.200000
 41
0.900000
  1
5
  7
KANJI
 50
0.000000
 51
0.000000
  0
LINE
  8
1
 62
7
  6
CONTINUOUS
 10
285.388911
 20
199.877013
 11
345.388911
 21
199.877013
  0
LINE
  8
1
 62
7
  6
CONTINUOUS
 10
345.388911
 20
159.693623
 11
345.388911
 21
201.377013
  0
LINE
  8
1
 62
7
  6
CONTINUOUS
 10
285.388911
 20
168.193623
 11
285.388911
 21
201.377013
  0
LINE
  8
1
 62
7
  6
CONTINUOUS
 10
285.388911
 20
199.877013
 11
288.588911
 21
200.293013
  0
LINE
  8
1
 62
7
  6
CONTINUOUS
 10
288.588911
 20
200.293013
 11
288.588911
 21
199.461013
  0
LINE
  8
1
 62
7
  6
CONTINUOUS
 10
288.588911
 20
199.461013
 11
285.388911
 21
199.877013
  0
LINE
  8
1
 62
7
  6
CONTINUOUS
 10
345.388911
 20
199.877013
 11
342.188911
 21
199.461013
  0
LINE
  8
1
 62
7
  6
CONTINUOUS
 10
342.188911
 20
199.461013
 11
342.188911
 21
200.293013
  0
LINE
  8
1
 62
7
  6
CONTINUOUS
 10
342.188911
 20
200.293013
 11
345.388911
 21
199.877013
  0
TEXT
  8
1
 62
7
  6
CONTINUOUS
 10
312.177957
 20
201.877013
 40
3.200000
 41
0.900000
  1
60
  7
KANJI
 50
0.000000
 51
0.000000
  0
TEXT
  8
1
 62
7
  6
CONTINUOUS
 10
318.577957
 20
202.517013
 40
1.920000
 41
0.900000
  1
ü}1
  7
KANJI
 50
0.000000
 51
0.000000
  0
LINE
  8
1
 62
7
  6
CONTINUOUS
 10
180.357613
 20
135.765403
 11
180.357613
 21
150.765403
  0
LINE
  8
1
 62
7
  6
CONTINUOUS
 10
199.388911
 20
150.765403
 11
178.857613
 21
150.765403
  0
LINE
  8
1
 62
7
  6
CONTINUOUS
 10
199.388911
 20
135.765403
 11
178.857613
 21
135.765403
  0
LINE
  8
1
 62
7
  6
CONTINUOUS
 10
180.357613
 20
150.765403
 11
180.773613
 21
147.565403
  0
LINE
  8
1
 62
7
  6
CONTINUOUS
 10
180.773613
 20
147.565403
 11
179.941613
 21
147.565403
  0
LINE
  8
1
 62
7
  6
CONTINUOUS
 10
179.941613
 20
147.565403
 11
180.357613
 21
150.765403
  0
LINE
  8
1
 62
7
  6
CONTINUOUS
 10
180.357613
 20
135.765403
 11
179.941613
 21
138.965403
  0
LINE
  8
1
 62
7
  6
CONTINUOUS
 10
179.941613
 20
138.965403
 11
180.773613
 21
138.965403
  0
LINE
  8
1
 62
7
  6
CONTINUOUS
 10
180.773613
 20
138.965403
 11
180.357613
 21
135.765403
  0
TEXT
  8
1
 62
7
  6
CONTINUOUS
 10
177.557613
 20
138.293532
 40
3.200000
 41
0.900000
  1
15
  7
KANJI
 50
90.000000
 51
0.000000
  0
TEXT
  8
1
 62
7
  6
CONTINUOUS
 10
175.477613
 20
143.733532
 40
1.920000
 41
0.900000
  1
 0
  7
KANJI
 50
90.000000
 51
0.000000
  0
TEXT
  8
1
 62
7
  6
CONTINUOUS
 10
178.357613
 20
143.733532
 40
1.920000
 41
0.900000
  1
-0.020
  7
KANJI
 50
90.000000
 51
0.000000
  0
TEXT
  8
1
 62
7
  6
CONTINUOUS
 10
177.557613
 20
134.649088
 40
3.200000
 41
0.900000
  1
âË
  7
KANJI
 50
90.000000
 51
0.000000
  0
LINE
  8
1
 62
7
  6
CONTINUOUS
 10
193.017523
 20
150.765403
 11
193.017523
 21
157.165403
  0
LINE
  8
1
 62
7
  6
CONTINUOUS
 10
193.017523
 20
147.765403
 11
193.017523
 21
141.365403
  0
LINE
  8
1
 62
7
  6
CONTINUOUS
 10
193.017523
 20
147.765403
 11
193.017523
 21
150.765403
  0
LINE
  8
1
 62
7
  6
CONTINUOUS
 10
199.388911
 20
150.765403
 11
191.517523
 21
150.765403
  0
LINE
  8
1
 62
7
  6
CONTINUOUS
 10
199.388911
 20
147.765403
 11
191.517523
 21
147.765403
  0
LINE
  8
1
 62
7
  6
CONTINUOUS
 10
193.017523
 20
150.765403
 11
192.601523
 21
153.965403
  0
LINE
  8
1
 62
7
  6
CONTINUOUS
 10
192.601523
 20
153.965403
 11
193.433523
 21
153.965403
  0
LINE
  8
1
 62
7
  6
CONTINUOUS
 10
193.433523
 20
153.965403
 11
193.017523
 21
150.765403
  0
LINE
  8
1
 62
7
  6
CONTINUOUS
 10
193.017523
 20
147.765403
 11
193.433523
 21
144.565403
  0
LINE
  8
1
 62
7
  6
CONTINUOUS
 10
193.433523
 20
144.565403
 11
192.601523
 21
144.565403
  0
LINE
  8
1
 62
7
  6
CONTINUOUS
 10
192.601523
 20
144.565403
 11
193.017523
 21
147.765403
  0
TEXT
  8
1
 62
7
  6
CONTINUOUS
 10
191.017523
 20
148.018020
 40
3.200000
 41
0.900000
  1
3
  7
KANJI
 50
90.000000
 51
0.000000
  0
LINE
  8
1
 62
7
  6
CONTINUOUS
 10
200.388911
 20
170.143807
 11
225.388911
 21
170.143807
  0
LINE
  8
1
 62
7
  6
CONTINUOUS
 10
225.388911
 20
148.765403
 11
225.388911
 21
171.643807
  0
LINE
  8
1
 62
7
  6
CONTINUOUS
 10
200.388911
 20
151.765403
 11
200.388911
 21
171.643807
  0
LINE
  8
1
 62
7
  6
CONTINUOUS
 10
200.388911
 20
170.143807
 11
203.588911
 21
170.559807
  0
LINE
  8
1
 62
7
  6
CONTINUOUS
 10
203.588911
 20
170.559807
 11
203.588911
 21
169.727807
  0
LINE
  8
1
 62
7
  6
CONTINUOUS
 10
203.588911
 20
169.727807
 11
200.388911
 21
170.143807
  0
LINE
  8
1
 62
7
  6
CONTINUOUS
 10
225.388911
 20
170.143807
 11
222.188911
 21
169.727807
  0
LINE
  8
1
 62
7
  6
CONTINUOUS
 10
222.188911
 20
169.727807
 11
222.188911
 21
170.559807
  0
LINE
  8
1
 62
7
  6
CONTINUOUS
 10
222.188911
 20
170.559807
 11
225.388911
 21
170.143807
  0
TEXT
  8
1
 62
7
  6
CONTINUOUS
 10
211.387687
 20
172.143807
 40
3.200000
 41
0.900000
  1
25
  7
KANJI
 50
0.000000
 51
0.000000
  0
LINE
  8
1
 62
7
  6
CONTINUOUS
 10
200.388911
 20
199.877013
 11
235.388911
 21
199.877013
  0
LINE
  8
1
 62
7
  6
CONTINUOUS
 10
235.388911
 20
168.031469
 11
235.388911
 21
201.377013
  0
LINE
  8
1
 62
7
  6
CONTINUOUS
 10
200.388911
 20
151.765403
 11
200.388911
 21
201.377013
  0
LINE
  8
1
 62
7
  6
CONTINUOUS
 10
235.388911
 20
199.877013
 11
232.188911
 21
199.461013
  0
LINE
  8
1
 62
7
  6
CONTINUOUS
 10
232.188911
 20
199.461013
 11
232.188911
 21
200.293013
  0
LINE
  8
1
 62
7
  6
CONTINUOUS
 10
232.188911
 20
200.293013
 11
235.388911
 21
199.877013
  0
LINE
  8
1
 62
7
  6
CONTINUOUS
 10
200.388911
 20
199.877013
 11
203.588911
 21
200.293013
  0
LINE
  8
1
 62
7
  6
CONTINUOUS
 10
203.588911
 20
200.293013
 11
203.588911
 21
199.461013
  0
LINE
  8
1
 62
7
  6
CONTINUOUS
 10
203.588911
 20
199.461013
 11
200.388911
 21
199.877013
  0
TEXT
  8
1
 62
7
  6
CONTINUOUS
 10
215.116870
 20
201.877013
 40
3.200000
 41
0.900000
  1
35
  7
KANJI
 50
0.000000
 51
0.000000
  0
LINE
  8
1
 62
7
  6
CONTINUOUS
 10
235.388911
 20
174.100029
 11
241.788911
 21
174.100029
  0
LINE
  8
1
 62
7
  6
CONTINUOUS
 10
228.388911
 20
174.100029
 11
221.988911
 21
174.100029
  0
LINE
  8
1
 62
7
  6
CONTINUOUS
 10
228.388911
 20
174.100029
 11
235.388911
 21
174.100029
  0
LINE
  8
1
 62
7
  6
CONTINUOUS
 10
235.388911
 20
168.031469
 11
235.388911
 21
175.600029
  0
LINE
  8
1
 62
7
  6
CONTINUOUS
 10
228.388911
 20
159.265403
 11
228.388911
 21
175.600029
  0
LINE
  8
1
 62
7
  6
CONTINUOUS
 10
235.388911
 20
174.100029
 11
238.588911
 21
174.516029
  0
LINE
  8
1
 62
7
  6
CONTINUOUS
 10
238.588911
 20
174.516029
 11
238.588911
 21
173.684029
  0
LINE
  8
1
 62
7
  6
CONTINUOUS
 10
238.588911
 20
173.684029
 11
235.388911
 21
174.100029
  0
LINE
  8
1
 62
7
  6
CONTINUOUS
 10
228.388911
 20
174.100029
 11
225.188911
 21
173.684029
  0
LINE
  8
1
 62
7
  6
CONTINUOUS
 10
225.188911
 20
173.684029
 11
225.188911
 21
174.516029
  0
LINE
  8
1
 62
7
  6
CONTINUOUS
 10
225.188911
 20
174.516029
 11
228.388911
 21
174.100029
  0
TEXT
  8
1
 62
7
  6
CONTINUOUS
 10
230.828497
 20
176.100029
 40
3.200000
 41
0.900000
  1
7
  7
KANJI
 50
0.000000
 51
0.000000
  0
LINE
  8
1
 62
7
  6
CONTINUOUS
 10
235.388911
 20
199.877013
 11
285.388911
 21
199.877013
  0
LINE
  8
1
 62
7
  6
CONTINUOUS
 10
285.388911
 20
168.265403
 11
285.388911
 21
201.377013
  0
LINE
  8
1
 62
7
  6
CONTINUOUS
 10
235.388911
 20
168.031469
 11
235.388911
 21
201.377013
  0
LINE
  8
1
 62
7
  6
CONTINUOUS
 10
235.388911
 20
199.877013
 11
238.588911
 21
200.293013
  0
LINE
  8
1
 62
7
  6
CONTINUOUS
 10
238.588911
 20
200.293013
 11
238.588911
 21
199.461013
  0
LINE
  8
1
 62
7
  6
CONTINUOUS
 10
238.588911
 20
199.461013
 11
235.388911
 21
199.877013
  0
LINE
  8
1
 62
7
  6
CONTINUOUS
 10
285.388911
 20
199.877013
 11
282.188911
 21
199.461013
  0
LINE
  8
1
 62
7
  6
CONTINUOUS
 10
282.188911
 20
199.461013
 11
282.188911
 21
200.293013
  0
LINE
  8
1
 62
7
  6
CONTINUOUS
 10
282.188911
 20
200.293013
 11
285.388911
 21
199.877013
  0
TEXT
  8
1
 62
7
  6
CONTINUOUS
 10
258.456913
 20
201.877013
 40
3.200000
 41
0.900000
  1
50
  7
KANJI
 50
0.000000
 51
0.000000
  0
LINE
  8
128
 62
7
  6
CONTINUOUS
 10
53.218146
 20
190.793833
 11
119.718146
 21
190.793833
  0
LINE
  8
128
 62
7
  6
CONTINUOUS
 10
53.218146
 20
170.953107
 11
53.218146
 21
191.793833
  0
LINE
  8
128
 62
7
  6
CONTINUOUS
 10
119.718146
 20
170.953107
 11
119.718146
 21
191.793833
  0
LINE
  8
128
 62
7
  6
CONTINUOUS
 10
53.218146
 20
190.793833
 11
56.418146
 21
191.209833
  0
LINE
  8
128
 62
7
  6
CONTINUOUS
 10
56.418146
 20
191.209833
 11
56.418146
 21
190.377833
  0
LINE
  8
128
 62
7
  6
CONTINUOUS
 10
56.418146
 20
190.377833
 11
53.218146
 21
190.793833
  0
LINE
  8
128
 62
7
  6
CONTINUOUS
 10
119.718146
 20
190.793833
 11
116.518146
 21
190.377833
  0
LINE
  8
128
 62
7
  6
CONTINUOUS
 10
116.518146
 20
190.377833
 11
116.518146
 21
191.209833
  0
LINE
  8
128
 62
7
  6
CONTINUOUS
 10
116.518146
 20
191.209833
 11
119.718146
 21
190.793833
  0
TEXT
  8
128
 62
7
  6
CONTINUOUS
 10
77.920146
 20
192.393833
 40
3.200000
 41
0.900000
  1
66.5
  7
KANJI
 50
0.000000
 51
0.000000
  0
TEXT
  8
128
 62
7
  6
CONTINUOUS
 10
88.240146
 20
192.873833
 40
2.240000
 41
0.900000
  1
ü}0.3
  7
KANJI
 50
0.000000
 51
0.000000
  0
LINE
  8
128
 62
7
  6
CONTINUOUS
 10
36.468146
 20
94.943623
 11
36.468146
 21
161.443623
  0
LINE
  8
128
 62
7
  6
CONTINUOUS
 10
43.708662
 20
94.943623
 11
35.468146
 21
94.943623
  0
LINE
  8
128
 62
7
  6
CONTINUOUS
 10
43.708662
 20
161.443623
 11
35.468146
 21
161.443623
  0
LINE
  8
128
 62
7
  6
CONTINUOUS
 10
36.468146
 20
161.443623
 11
36.884146
 21
158.243623
  0
LINE
  8
128
 62
7
  6
CONTINUOUS
 10
36.884146
 20
158.243623
 11
36.052146
 21
158.243623
  0
LINE
  8
128
 62
7
  6
CONTINUOUS
 10
36.052146
 20
158.243623
 11
36.468146
 21
161.443623
  0
LINE
  8
128
 62
7
  6
CONTINUOUS
 10
36.468146
 20
94.943623
 11
36.052146
 21
98.143623
  0
LINE
  8
128
 62
7
  6
CONTINUOUS
 10
36.052146
 20
98.143623
 11
36.884146
 21
98.143623
  0
LINE
  8
128
 62
7
  6
CONTINUOUS
 10
36.884146
 20
98.143623
 11
36.468146
 21
94.943623
  0
TEXT
  8
128
 62
7
  6
CONTINUOUS
 10
34.868146
 20
118.761727
 40
3.200000
 41
0.900000
  1
66.5
  7
KANJI
 50
90.000000
 51
0.000000
  0
TEXT
  8
128
 62
7
  6
CONTINUOUS
 10
34.388146
 20
129.081727
 40
2.240000
 41
0.900000
  1
ü}0.3
  7
KANJI
 50
90.000000
 51
0.000000
  0
LINE
  8
128
 62
7
  6
CONTINUOUS
 10
46.468146
 20
200.793833
 11
126.468146
 21
200.793833
  0
LINE
  8
128
 62
7
  6
CONTINUOUS
 10
46.468146
 20
162.443623
 11
46.468146
 21
201.793833
  0
LINE
  8
128
 62
7
  6
CONTINUOUS
 10
126.468146
 20
162.443623
 11
126.468146
 21
201.793833
  0
LINE
  8
128
 62
7
  6
CONTINUOUS
 10
46.468146
 20
200.793833
 11
49.668146
 21
201.209833
  0
LINE
  8
128
 62
7
  6
CONTINUOUS
 10
49.668146
 20
201.209833
 11
49.668146
 21
200.377833
  0
LINE
  8
128
 62
7
  6
CONTINUOUS
 10
49.668146
 20
200.377833
 11
46.468146
 21
200.793833
  0
LINE
  8
128
 62
7
  6
CONTINUOUS
 10
126.468146
 20
200.793833
 11
123.268146
 21
200.377833
  0
LINE
  8
128
 62
7
  6
CONTINUOUS
 10
123.268146
 20
200.377833
 11
123.268146
 21
201.209833
  0
LINE
  8
128
 62
7
  6
CONTINUOUS
 10
123.268146
 20
201.209833
 11
126.468146
 21
200.793833
  0
TEXT
  8
128
 62
7
  6
CONTINUOUS
 10
84.068146
 20
202.393833
 40
3.200000
 41
0.900000
  1
80
  7
KANJI
 50
0.000000
 51
0.000000
  0
LINE
  8
128
 62
7
  6
CONTINUOUS
 10
26.468146
 20
88.193623
 11
26.468146
 21
168.193623
  0
LINE
  8
128
 62
7
  6
CONTINUOUS
 10
52.218146
 20
88.193623
 11
25.468146
 21
88.193623
  0
LINE
  8
128
 62
7
  6
CONTINUOUS
 10
52.218146
 20
168.193623
 11
25.468146
 21
168.193623
  0
LINE
  8
128
 62
7
  6
CONTINUOUS
 10
26.468146
 20
168.193623
 11
26.884146
 21
164.993623
  0
LINE
  8
128
 62
7
  6
CONTINUOUS
 10
26.884146
 20
164.993623
 11
26.052146
 21
164.993623
  0
LINE
  8
128
 62
7
  6
CONTINUOUS
 10
26.052146
 20
164.993623
 11
26.468146
 21
168.193623
  0
LINE
  8
128
 62
7
  6
CONTINUOUS
 10
26.468146
 20
88.193623
 11
26.052146
 21
91.393623
  0
LINE
  8
128
 62
7
  6
CONTINUOUS
 10
26.052146
 20
91.393623
 11
26.884146
 21
91.393623
  0
LINE
  8
128
 62
7
  6
CONTINUOUS
 10
26.884146
 20
91.393623
 11
26.468146
 21
88.193623
  0
TEXT
  8
128
 62
7
  6
CONTINUOUS
 10
24.868146
 20
124.495418
 40
3.200000
 41
0.900000
  1
80
  7
KANJI
 50
90.000000
 51
0.000000
  0
LINE
  8
1
 62
7
  6
CONTINUOUS
 10
293.388911
 20
181.150326
 11
299.788911
 21
181.150326
  0
LINE
  8
1
 62
7
  6
CONTINUOUS
 10
285.388911
 20
181.150326
 11
278.988911
 21
181.150326
  0
LINE
  8
1
 62
7
  6
CONTINUOUS
 10
285.388911
 20
181.150326
 11
293.388911
 21
181.150326
  0
LINE
  8
1
 62
7
  6
CONTINUOUS
 10
293.388911
 20
169.193623
 11
293.388911
 21
182.650326
  0
LINE
  8
1
 62
7
  6
CONTINUOUS
 10
285.388911
 20
168.193623
 11
285.388911
 21
182.650326
  0
LINE
  8
1
 62
7
  6
CONTINUOUS
 10
285.388911
 20
181.150326
 11
282.188911
 21
180.734326
  0
LINE
  8
1
 62
7
  6
CONTINUOUS
 10
282.188911
 20
180.734326
 11
282.188911
 21
181.566326
  0
LINE
  8
1
 62
7
  6
CONTINUOUS
 10
282.188911
 20
181.566326
 11
285.388911
 21
181.150326
  0
LINE
  8
1
 62
7
  6
CONTINUOUS
 10
293.388911
 20
181.150326
 11
296.588911
 21
181.566326
  0
LINE
  8
1
 62
7
  6
CONTINUOUS
 10
296.588911
 20
181.566326
 11
296.588911
 21
180.734326
  0
LINE
  8
1
 62
7
  6
CONTINUOUS
 10
296.588911
 20
180.734326
 11
293.388911
 21
181.150326
  0
TEXT
  8
1
 62
7
  6
CONTINUOUS
 10
288.254432
 20
183.150326
 40
3.200000
 41
0.900000
  1
8
  7
KANJI
 50
0.000000
 51
0.000000
  0
LINE
  8
1
 62
7
  6
CONTINUOUS
 10
355.645252
 20
63.919725
 11
355.645252
 21
93.193623
  0
LINE
  8
1
 62
7
  6
CONTINUOUS
 10
346.388911
 20
93.193623
 11
357.145252
 21
93.193623
  0
LINE
  8
1
 62
7
  6
CONTINUOUS
 10
343.769441
 20
63.919725
 11
357.145252
 21
63.919725
  0
LINE
  8
1
 62
7
  6
CONTINUOUS
 10
355.645252
 20
93.193623
 11
356.061252
 21
89.993623
  0
LINE
  8
1
 62
7
  6
CONTINUOUS
 10
356.061252
 20
89.993623
 11
355.229252
 21
89.993623
  0
LINE
  8
1
 62
7
  6
CONTINUOUS
 10
355.229252
 20
89.993623
 11
355.645252
 21
93.193623
  0
LINE
  8
1
 62
7
  6
CONTINUOUS
 10
355.645252
 20
63.919725
 11
355.229252
 21
67.119725
  0
LINE
  8
1
 62
7
  6
CONTINUOUS
 10
355.229252
 20
67.119725
 11
356.061252
 21
67.119725
  0
LINE
  8
1
 62
7
  6
CONTINUOUS
 10
356.061252
 20
67.119725
 11
355.645252
 21
63.919725
  0
TEXT
  8
1
 62
7
  6
CONTINUOUS
 10
353.645252
 20
72.877124
 40
3.200000
 41
0.900000
  1
150
  7
KANJI
 50
90.000000
 51
0.000000
  0
TEXT
  8
1
 62
7
  6
CONTINUOUS
 10
353.645252
 20
70.797124
 40
3.200000
 41
0.900000
  1
(
  7
KANJI
 50
90.000000
 51
0.000000
  0
TEXT
  8
1
 62
7
  6
CONTINUOUS
 10
353.645252
 20
81.197124
 40
3.200000
 41
0.900000
  1
)
  7
KANJI
 50
90.000000
 51
0.000000
  0
LINE
  8
1
 62
7
  6
CONTINUOUS
 10
367.946962
 20
43.266791
 11
367.946962
 21
93.193623
  0
LINE
  8
1
 62
7
  6
CONTINUOUS
 10
346.388911
 20
93.193623
 11
369.446962
 21
93.193623
  0
LINE
  8
1
 62
7
  6
CONTINUOUS
 10
349.138911
 20
43.266791
 11
369.446962
 21
43.266791
  0
LINE
  8
1
 62
7
  6
CONTINUOUS
 10
367.946962
 20
93.193623
 11
368.362962
 21
89.993623
  0
LINE
  8
1
 62
7
  6
CONTINUOUS
 10
368.362962
 20
89.993623
 11
367.530962
 21
89.993623
  0
LINE
  8
1
 62
7
  6
CONTINUOUS
 10
367.530962
 20
89.993623
 11
367.946962
 21
93.193623
  0
LINE
  8
1
 62
7
  6
CONTINUOUS
 10
367.946962
 20
43.266791
 11
367.530962
 21
46.466791
  0
LINE
  8
1
 62
7
  6
CONTINUOUS
 10
367.530962
 20
46.466791
 11
368.362962
 21
46.466791
  0
LINE
  8
1
 62
7
  6
CONTINUOUS
 10
368.362962
 20
46.466791
 11
367.946962
 21
43.266791
  0
TEXT
  8
1
 62
7
  6
CONTINUOUS
 10
365.146962
 20
58.531684
 40
3.200000
 41
0.900000
  1
300
  7
KANJI
 50
90.000000
 51
0.000000
  0
TEXT
  8
1
 62
7
  6
CONTINUOUS
 10
363.066962
 20
67.811684
 40
1.920000
 41
0.900000
  1
+30
  7
KANJI
 50
90.000000
 51
0.000000
  0
TEXT
  8
1
 62
7
  6
CONTINUOUS
 10
365.946962
 20
69.539684
 40
1.920000
 41
0.900000
  1
 0
  7
KANJI
 50
90.000000
 51
0.000000
  0
LINE
  8
128
 62
7
  6
CONTINUOUS
 10
43.204418
 20
109.829260
 11
129.731874
 21
146.557986
  0
LINE
  8
128
 62
7
  6
CONTINUOUS
 10
43.204418
 20
109.829260
 11
45.987489
 21
111.462529
  0
LINE
  8
128
 62
7
  6
CONTINUOUS
 10
45.987489
 20
111.462529
 11
46.312578
 21
110.696669
  0
LINE
  8
128
 62
7
  6
CONTINUOUS
 10
46.312578
 20
110.696669
 11
43.204418
 21
109.829260
  0
LINE
  8
128
 62
7
  6
CONTINUOUS
 10
129.731874
 20
146.557986
 11
126.948803
 21
144.924716
  0
LINE
  8
128
 62
7
  6
CONTINUOUS
 10
126.948803
 20
144.924716
 11
126.623714
 21
145.690576
  0
LINE
  8
128
 62
7
  6
CONTINUOUS
 10
126.623714
 20
145.690576
 11
129.731874
 21
146.557986
  0
TEXT
  8
128
 62
7
  6
CONTINUOUS
 10
55.999987
 20
118.299919
 40
3.200000
 41
0.900000
  1
94
  7
KANJI
 50
23.000000
 51
0.000000
  0
TEXT
  8
128
 62
7
  6
CONTINUOUS
 10
51.139722
 20
116.236858
 40
3.200000
 41
0.900000
  1
(âË
  7
KANJI
 50
23.000000
 51
0.000000
  0
TEXT
  8
128
 62
7
  6
CONTINUOUS
 10
61.891218
 20
120.800598
 40
3.200000
 41
0.900000
  1
)
  7
KANJI
 50
23.000000
 51
0.000000
  0
LINE
  8
1
 62
7
  6
CONTINUOUS
 10
247.644396
 20
172.669485
 11
247.644396
 21
175.169485
  0
LINE
  8
1
 62
7
  6
CONTINUOUS
 10
245.144396
 20
174.169485
 11
247.644396
 21
172.669485
  0
LINE
  8
1
 62
7
  6
CONTINUOUS
 10
250.144396
 20
174.169485
 11
245.144396
 21
174.169485
  0
LINE
  8
1
 62
7
  6
CONTINUOUS
 10
244.644396
 20
177.169485
 11
250.644396
 21
177.169485
  0
LINE
  8
1
 62
7
  6
CONTINUOUS
 10
250.644396
 20
171.169485
 11
244.644396
 21
171.169485
  0
LINE
  8
1
 62
7
  6
CONTINUOUS
 10
250.644396
 20
197.169485
 11
250.644396
 21
171.169485
  0
LINE
  8
1
 62
7
  6
CONTINUOUS
 10
244.644396
 20
197.169485
 11
250.644396
 21
197.169485
  0
LINE
  8
1
 62
7
  6
CONTINUOUS
 10
244.644396
 20
171.169485
 11
244.644396
 21
197.169485
  0
TEXT
  8
1
 62
7
  6
CONTINUOUS
 10
249.644396
 20
178.216231
 40
4.000000
 41
0.900000
  1
òÂÄÜâmî³âL
  7
KANJI
 50
90.000000
 51
0.000000
  0
LINE
  8
1
 62
7
  6
CONTINUOUS
 10
356.083686
 20
126.535822
 11
382.083686
 21
126.535822
  0
LINE
  8
1
 62
7
  6
CONTINUOUS
 10
382.083686
 20
126.535822
 11
382.083686
 21
120.535822
  0
LINE
  8
1
 62
7
  6
CONTINUOUS
 10
382.083686
 20
120.535822
 11
356.083686
 21
120.535822
  0
LINE
  8
1
 62
7
  6
CONTINUOUS
 10
356.083686
 20
120.535822
 11
356.083686
 21
126.535822
  0
LINE
  8
1
 62
7
  6
CONTINUOUS
 10
362.083686
 20
126.535822
 11
362.083686
 21
120.535822
  0
LINE
  8
1
 62
7
  6
CONTINUOUS
 10
359.083686
 20
121.035822
 11
359.083686
 21
126.035822
  0
LINE
  8
1
 62
7
  6
CONTINUOUS
 10
359.083686
 20
126.035822
 11
357.583686
 21
123.535822
  0
LINE
  8
1
 62
7
  6
CONTINUOUS
 10
357.583686
 20
123.535822
 11
360.083686
 21
123.535822
  0
TEXT
  8
1
 62
7
  6
CONTINUOUS
 10
363.130432
 20
121.535822
 40
4.000000
 41
0.900000
  1
òÂÄÜâmî³âL
  7
KANJI
 50
0.000000
 51
0.000000
  0
LINE
  8
1
 62
7
  6
CONTINUOUS
 10
57.218146
 20
92.666192
 11
53.218146
 21
90.356791
  0
LINE
  8
1
 62
7
  6
CONTINUOUS
 10
53.218146
 20
90.356791
 11
49.218146
 21
92.666192
  0
LINE
  8
1
 62
7
  6
CONTINUOUS
 10
49.218146
 20
92.666192
 11
49.218146
 21
97.284994
  0
LINE
  8
1
 62
7
  6
CONTINUOUS
 10
49.218146
 20
97.284994
 11
53.218146
 21
99.594395
  0
LINE
  8
1
 62
7
  6
CONTINUOUS
 10
53.218146
 20
99.594395
 11
57.218146
 21
97.284994
  0
LINE
  8
1
 62
7
  6
CONTINUOUS
 10
57.218146
 20
97.284994
 11
57.218146
 21
92.666192
  0
LINE
  8
1
 62
7
  6
CONTINUOUS
 10
62.218146
 20
94.975593
 11
44.218146
 21
94.975593
  0
LINE
  8
1
 62
7
  6
CONTINUOUS
 10
53.218146
 20
103.975593
 11
53.218146
 21
85.975593
  0
CIRCLE
  8
1
 62
7
  6
CONTINUOUS
 10
53.218146
 20
94.975593
 40
2.500000
  0
CIRCLE
  8
1
 62
7
  6
CONTINUOUS
 10
53.218146
 20
94.975593
 40
4.000000
  0
CIRCLE
  8
1
 62
7
  6
CONTINUOUS
 10
53.218146
 20
94.975593
 40
2.066987
  0
LINE
  8
1
 62
7
  6
CONTINUOUS
 10
231.388911
 20
164.015403
 11
231.388911
 21
163.582390
  0
LINE
  8
1
 62
7
  6
CONTINUOUS
 10
231.388911
 20
163.582390
 11
219.688911
 21
163.582390
  0
LINE
  8
1
 62
7
  6
CONTINUOUS
 10
219.688911
 20
164.015403
 11
219.688911
 21
163.582390
  0
LINE
  8
1
 62
7
  6
CONTINUOUS
 10
231.388911
 20
163.582390
 11
231.388911
 21
159.448416
  0
LINE
  8
1
 62
7
  6
CONTINUOUS
 10
231.388911
 20
159.448416
 11
219.688911
 21
159.448416
  0
LINE
  8
1
 62
7
  6
CONTINUOUS
 10
219.688911
 20
163.582390
 11
219.688911
 21
159.448416
  0
LINE
  8
1
 62
7
  6
CONTINUOUS
 10
219.688911
 20
159.448416
 11
219.688911
 21
159.015403
  0
LINE
  8
1
 62
7
  6
CONTINUOUS
 10
219.688911
 20
164.015403
 11
231.388911
 21
164.015403
  0
LINE
  8
1
 62
7
  6
CONTINUOUS
 10
231.388911
 20
159.448416
 11
231.388911
 21
159.015403
  0
LINE
  8
1
 62
7
  6
CONTINUOUS
 10
231.388911
 20
159.015403
 11
219.688911
 21
159.015403
  0
LINE
  8
1
 62
7
  6
CONTINUOUS
 10
236.388911
 20
161.515403
 11
217.288911
 21
161.515403
  0
LINE
  8
1
 62
7
  6
CONTINUOUS
 10
217.288911
 20
95.015403
 11
236.388911
 21
95.015403
  0
LINE
  8
1
 62
7
  6
CONTINUOUS
 10
219.688911
 20
97.515403
 11
231.388911
 21
97.515403
  0
LINE
  8
1
 62
7
  6
CONTINUOUS
 10
231.388911
 20
97.515403
 11
231.388911
 21
97.082390
  0
LINE
  8
1
 62
7
  6
CONTINUOUS
 10
231.388911
 20
92.515403
 11
219.688911
 21
92.515403
  0
LINE
  8
1
 62
7
  6
CONTINUOUS
 10
219.688911
 20
97.515403
 11
219.688911
 21
97.082390
  0
LINE
  8
1
 62
7
  6
CONTINUOUS
 10
219.688911
 20
97.082390
 11
219.688911
 21
92.948416
  0
LINE
  8
1
 62
7
  6
CONTINUOUS
 10
219.688911
 20
97.082390
 11
231.388911
 21
97.082390
  0
LINE
  8
1
 62
7
  6
CONTINUOUS
 10
231.388911
 20
97.082390
 11
231.388911
 21
92.948416
  0
LINE
  8
1
 62
7
  6
CONTINUOUS
 10
219.688911
 20
92.948416
 11
219.688911
 21
92.515403
  0
LINE
  8
1
 62
7
  6
CONTINUOUS
 10
219.688911
 20
92.948416
 11
231.388911
 21
92.948416
  0
LINE
  8
1
 62
7
  6
CONTINUOUS
 10
231.388911
 20
92.948416
 11
231.388911
 21
92.515403
  0
LINE
  8
1
 62
7
  6
CONTINUOUS
 10
294.688911
 20
164.273623
 11
294.688911
 21
158.573623
  0
LINE
  8
1
 62
7
  6
CONTINUOUS
 10
294.688911
 20
166.173623
 11
294.688911
 21
164.273623
  0
LINE
  8
1
 62
7
  6
CONTINUOUS
 10
298.366379
 20
162.023623
 11
298.091379
 21
162.023623
  0
LINE
  8
1
 62
7
  6
CONTINUOUS
 10
298.091379
 20
162.023623
 11
298.091379
 21
160.823623
  0
LINE
  8
1
 62
7
  6
CONTINUOUS
 10
298.091379
 20
160.823623
 11
298.366379
 21
160.823623
  0
LINE
  8
1
 62
7
  6
CONTINUOUS
 10
296.826107
 20
166.173623
 11
294.688911
 21
166.173623
  0
LINE
  8
1
 62
7
  6
CONTINUOUS
 10
294.688911
 20
158.573623
 11
294.688911
 21
156.673623
  0
LINE
  8
1
 62
7
  6
CONTINUOUS
 10
294.688911
 20
156.673623
 11
296.826107
 21
156.673623
  0
LINE
  8
1
 62
7
  6
CONTINUOUS
 10
279.688911
 20
161.423623
 11
303.188911
 21
161.423623
  0
ARC
  8
1
 62
7
  6
CONTINUOUS
 10
290.388911
 20
161.423623
 40
8.000000
 50
17.457603
 51
36.423574
  0
ARC
  8
1
 62
7
  6
CONTINUOUS
 10
290.388911
 20
161.423623
 40
8.000000
 50
-17.457603
 51
-4.301222
  0
ARC
  8
1
 62
7
  6
CONTINUOUS
 10
290.388911
 20
161.423623
 40
8.000000
 50
-36.423574
 51
-17.457603
  0
ARC
  8
1
 62
7
  6
CONTINUOUS
 10
290.388911
 20
161.423623
 40
8.000000
 50
4.301222
 51
17.457603
  0
LINE
  8
1
 62
7
  6
CONTINUOUS
 10
294.688911
 20
166.023623
 11
293.388911
 21
166.023623
  0
LINE
  8
1
 62
7
  6
CONTINUOUS
 10
294.688911
 20
156.823623
 11
294.688911
 21
166.023623
  0
LINE
  8
1
 62
7
  6
CONTINUOUS
 10
293.388911
 20
156.823623
 11
294.688911
 21
156.823623
  0
LINE
  8
1
 62
7
  6
CONTINUOUS
 10
293.388911
 20
166.023623
 11
293.388911
 21
156.823623
  0
LINE
  8
1
 62
7
  6
CONTINUOUS
 10
294.688911
 20
161.586123
 11
293.388911
 21
161.748623
  0
LINE
  8
1
 62
7
  6
CONTINUOUS
 10
294.688911
 20
161.098623
 11
293.388911
 21
161.261123
  0
LINE
  8
1
 62
7
  6
CONTINUOUS
 10
238.388911
 20
161.515403
 11
228.388911
 21
161.515403
  0
LINE
  8
1
 62
7
  6
CONTINUOUS
 10
231.388911
 20
164.979505
 11
231.388911
 21
158.051302
  0
LINE
  8
1
 62
7
  6
CONTINUOUS
 10
235.388911
 20
164.979505
 11
235.388911
 21
158.051302
  0
LINE
  8
1
 62
7
  6
CONTINUOUS
 10
231.927357
 20
166.134205
 11
234.850465
 21
166.134205
  0
LINE
  8
1
 62
7
  6
CONTINUOUS
 10
231.927357
 20
156.896601
 11
234.850465
 21
156.896601
  0
LINE
  8
1
 62
7
  6
CONTINUOUS
 10
231.927357
 20
163.824804
 11
234.850465
 21
163.824804
  0
LINE
  8
1
 62
7
  6
CONTINUOUS
 10
231.927357
 20
159.206002
 11
234.850465
 21
159.206002
  0
ARC
  8
1
 62
7
  6
CONTINUOUS
 10
232.896265
 20
164.979505
 40
1.507354
 50
130.000000
 51
-130.000000
  0
ARC
  8
1
 62
7
  6
CONTINUOUS
 10
232.896265
 20
158.051302
 40
1.507354
 50
130.000000
 51
-130.000000
  0
ARC
  8
1
 62
7
  6
CONTINUOUS
 10
236.610660
 20
161.515403
 40
5.221749
 50
153.751464
 51
-153.751464
  0
ARC
  8
1
 62
7
  6
CONTINUOUS
 10
233.881556
 20
158.051302
 40
1.507354
 50
-50.000000
 51
50.000000
  0
ARC
  8
1
 62
7
  6
CONTINUOUS
 10
233.881556
 20
164.979505
 40
1.507354
 50
-50.000000
 51
50.000000
  0
ARC
  8
1
 62
7
  6
CONTINUOUS
 10
230.167161
 20
161.515403
 40
5.221749
 50
-26.248536
 51
26.248536
  0
LINE
  8
1
 62
7
  6
CONTINUOUS
 10
123.686176
 20
159.134222
 11
119.686176
 21
156.824820
  0
LINE
  8
1
 62
7
  6
CONTINUOUS
 10
119.686176
 20
156.824820
 11
115.686176
 21
159.134222
  0
LINE
  8
1
 62
7
  6
CONTINUOUS
 10
115.686176
 20
159.134222
 11
115.686176
 21
163.753024
  0
LINE
  8
1
 62
7
  6
CONTINUOUS
 10
115.686176
 20
163.753024
 11
119.686176
 21
166.062425
  0
LINE
  8
1
 62
7
  6
CONTINUOUS
 10
119.686176
 20
166.062425
 11
123.686176
 21
163.753024
  0
LINE
  8
1
 62
7
  6
CONTINUOUS
 10
123.686176
 20
163.753024
 11
123.686176
 21
159.134222
  0
LINE
  8
1
 62
7
  6
CONTINUOUS
 10
128.686176
 20
161.443623
 11
110.686176
 21
161.443623
  0
LINE
  8
1
 62
7
  6
CONTINUOUS
 10
119.686176
 20
170.443623
 11
119.686176
 21
152.443623
  0
CIRCLE
  8
1
 62
7
  6
CONTINUOUS
 10
119.686176
 20
161.443623
 40
2.500000
  0
CIRCLE
  8
1
 62
7
  6
CONTINUOUS
 10
119.686176
 20
161.443623
 40
4.000000
  0
CIRCLE
  8
1
 62
7
  6
CONTINUOUS
 10
119.686176
 20
161.443623
 40
2.066987
  0
LINE
  8
1
 62
7
  6
CONTINUOUS
 10
231.927357
 20
92.706002
 11
234.850465
 21
92.706002
  0
LINE
  8
1
 62
7
  6
CONTINUOUS
 10
231.927357
 20
97.324804
 11
234.850465
 21
97.324804
  0
LINE
  8
1
 62
7
  6
CONTINUOUS
 10
231.927357
 20
90.396601
 11
234.850465
 21
90.396601
  0
LINE
  8
1
 62
7
  6
CONTINUOUS
 10
231.927357
 20
99.634205
 11
234.850465
 21
99.634205
  0
LINE
  8
1
 62
7
  6
CONTINUOUS
 10
235.388911
 20
98.479505
 11
235.388911
 21
91.551302
  0
LINE
  8
1
 62
7
  6
CONTINUOUS
 10
231.388911
 20
98.479505
 11
231.388911
 21
91.551302
  0
LINE
  8
1
 62
7
  6
CONTINUOUS
 10
238.388911
 20
95.015403
 11
228.388911
 21
95.015403
  0
ARC
  8
1
 62
7
  6
CONTINUOUS
 10
230.167161
 20
95.015403
 40
5.221749
 50
-26.248536
 51
26.248536
  0
ARC
  8
1
 62
7
  6
CONTINUOUS
 10
233.881556
 20
98.479505
 40
1.507354
 50
-50.000000
 51
50.000000
  0
ARC
  8
1
 62
7
  6
CONTINUOUS
 10
233.881556
 20
91.551302
 40
1.507354
 50
-50.000000
 51
50.000000
  0
ARC
  8
1
 62
7
  6
CONTINUOUS
 10
236.610660
 20
95.015403
 40
5.221749
 50
153.751464
 51
-153.751464
  0
ARC
  8
1
 62
7
  6
CONTINUOUS
 10
232.896265
 20
91.551302
 40
1.507354
 50
130.000000
 51
-130.000000
  0
ARC
  8
1
 62
7
  6
CONTINUOUS
 10
232.896265
 20
98.479505
 40
1.507354
 50
130.000000
 51
-130.000000
  0
LINE
  8
1
 62
7
  6
CONTINUOUS
 10
53.250116
 20
152.443623
 11
53.250116
 21
170.443623
  0
LINE
  8
1
 62
7
  6
CONTINUOUS
 10
62.250116
 20
161.443623
 11
44.250116
 21
161.443623
  0
LINE
  8
1
 62
7
  6
CONTINUOUS
 10
49.250116
 20
159.134222
 11
49.250116
 21
163.753024
  0
LINE
  8
1
 62
7
  6
CONTINUOUS
 10
49.250116
 20
163.753024
 11
53.250116
 21
166.062425
  0
LINE
  8
1
 62
7
  6
CONTINUOUS
 10
53.250116
 20
166.062425
 11
57.250116
 21
163.753024
  0
LINE
  8
1
 62
7
  6
CONTINUOUS
 10
57.250116
 20
163.753024
 11
57.250116
 21
159.134222
  0
LINE
  8
1
 62
7
  6
CONTINUOUS
 10
57.250116
 20
159.134222
 11
53.250116
 21
156.824820
  0
LINE
  8
1
 62
7
  6
CONTINUOUS
 10
53.250116
 20
156.824820
 11
49.250116
 21
159.134222
  0
CIRCLE
  8
1
 62
7
  6
CONTINUOUS
 10
53.250116
 20
161.443623
 40
2.066987
  0
CIRCLE
  8
1
 62
7
  6
CONTINUOUS
 10
53.250116
 20
161.443623
 40
4.000000
  0
CIRCLE
  8
1
 62
7
  6
CONTINUOUS
 10
53.250116
 20
161.443623
 40
2.500000
  0
LINE
  8
1
 62
7
  6
CONTINUOUS
 10
119.718146
 20
85.975593
 11
119.718146
 21
103.975593
  0
LINE
  8
1
 62
7
  6
CONTINUOUS
 10
128.718146
 20
94.975593
 11
110.718146
 21
94.975593
  0
LINE
  8
1
 62
7
  6
CONTINUOUS
 10
115.718146
 20
92.666192
 11
115.718146
 21
97.284994
  0
LINE
  8
1
 62
7
  6
CONTINUOUS
 10
115.718146
 20
97.284994
 11
119.718146
 21
99.594395
  0
LINE
  8
1
 62
7
  6
CONTINUOUS
 10
119.718146
 20
99.594395
 11
123.718146
 21
97.284994
  0
LINE
  8
1
 62
7
  6
CONTINUOUS
 10
123.718146
 20
97.284994
 11
123.718146
 21
92.666192
  0
LINE
  8
1
 62
7
  6
CONTINUOUS
 10
123.718146
 20
92.666192
 11
119.718146
 21
90.356791
  0
LINE
  8
1
 62
7
  6
CONTINUOUS
 10
119.718146
 20
90.356791
 11
115.718146
 21
92.666192
  0
CIRCLE
  8
1
 62
7
  6
CONTINUOUS
 10
119.718146
 20
94.975593
 40
2.066987
  0
CIRCLE
  8
1
 62
7
  6
CONTINUOUS
 10
119.718146
 20
94.975593
 40
4.000000
  0
CIRCLE
  8
1
 62
7
  6
CONTINUOUS
 10
119.718146
 20
94.975593
 40
2.500000
  0
LINE
  8
1
 62
7
  6
CONTINUOUS
 10
303.188911
 20
94.963623
 11
279.688911
 21
94.963623
  0
LINE
  8
1
 62
7
  6
CONTINUOUS
 10
296.826107
 20
99.713623
 11
294.688911
 21
99.713623
  0
LINE
  8
1
 62
7
  6
CONTINUOUS
 10
294.688911
 20
99.713623
 11
294.688911
 21
97.813623
  0
LINE
  8
1
 62
7
  6
CONTINUOUS
 10
294.688911
 20
90.213623
 11
296.826107
 21
90.213623
  0
LINE
  8
1
 62
7
  6
CONTINUOUS
 10
298.366379
 20
95.563623
 11
298.091379
 21
95.563623
  0
LINE
  8
1
 62
7
  6
CONTINUOUS
 10
298.091379
 20
95.563623
 11
298.091379
 21
94.363623
  0
LINE
  8
1
 62
7
  6
CONTINUOUS
 10
298.091379
 20
94.363623
 11
298.366379
 21
94.363623
  0
LINE
  8
1
 62
7
  6
CONTINUOUS
 10
294.688911
 20
92.113623
 11
294.688911
 21
90.213623
  0
LINE
  8
1
 62
7
  6
CONTINUOUS
 10
294.688911
 20
97.813623
 11
294.688911
 21
92.113623
  0
ARC
  8
1
 62
7
  6
CONTINUOUS
 10
290.388911
 20
94.963623
 40
8.000000
 50
-17.457603
 51
-4.301222
  0
ARC
  8
1
 62
7
  6
CONTINUOUS
 10
290.388911
 20
94.963623
 40
8.000000
 50
17.457603
 51
36.423574
  0
ARC
  8
1
 62
7
  6
CONTINUOUS
 10
290.388911
 20
94.963623
 40
8.000000
 50
4.301222
 51
17.457603
  0
ARC
  8
1
 62
7
  6
CONTINUOUS
 10
290.388911
 20
94.963623
 40
8.000000
 50
-36.423574
 51
-17.457603
  0
LINE
  8
1
 62
7
  6
CONTINUOUS
 10
294.688911
 20
164.273623
 11
294.688911
 21
158.573623
  0
LINE
  8
1
 62
7
  6
CONTINUOUS
 10
294.688911
 20
166.173623
 11
294.688911
 21
164.273623
  0
LINE
  8
1
 62
7
  6
CONTINUOUS
 10
298.366379
 20
162.023623
 11
298.091379
 21
162.023623
  0
LINE
  8
1
 62
7
  6
CONTINUOUS
 10
298.091379
 20
162.023623
 11
298.091379
 21
160.823623
  0
LINE
  8
1
 62
7
  6
CONTINUOUS
 10
298.091379
 20
160.823623
 11
298.366379
 21
160.823623
  0
LINE
  8
1
 62
7
  6
CONTINUOUS
 10
296.826107
 20
166.173623
 11
294.688911
 21
166.173623
  0
LINE
  8
1
 62
7
  6
CONTINUOUS
 10
294.688911
 20
158.573623
 11
294.688911
 21
156.673623
  0
LINE
  8
1
 62
7
  6
CONTINUOUS
 10
294.688911
 20
156.673623
 11
296.826107
 21
156.673623
  0
LINE
  8
1
 62
7
  6
CONTINUOUS
 10
279.688911
 20
161.423623
 11
303.188911
 21
161.423623
  0
ARC
  8
1
 62
7
  6
CONTINUOUS
 10
290.388911
 20
161.423623
 40
8.000000
 50
17.457603
 51
36.423574
  0
ARC
  8
1
 62
7
  6
CONTINUOUS
 10
290.388911
 20
161.423623
 40
8.000000
 50
-17.457603
 51
-4.301222
  0
ARC
  8
1
 62
7
  6
CONTINUOUS
 10
290.388911
 20
161.423623
 40
8.000000
 50
-36.423574
 51
-17.457603
  0
ARC
  8
1
 62
7
  6
CONTINUOUS
 10
290.388911
 20
161.423623
 40
8.000000
 50
4.301222
 51
17.457603
  0
LINE
  8
1
 62
7
  6
CONTINUOUS
 10
293.388911
 20
95.126123
 11
294.688911
 21
95.288623
  0
LINE
  8
1
 62
7
  6
CONTINUOUS
 10
293.388911
 20
94.638623
 11
294.688911
 21
94.801123
  0
LINE
  8
1
 62
7
  6
CONTINUOUS
 10
293.388911
 20
99.563623
 11
293.388911
 21
90.363623
  0
LINE
  8
1
 62
7
  6
CONTINUOUS
 10
294.688911
 20
99.563623
 11
293.388911
 21
99.563623
  0
LINE
  8
1
 62
7
  6
CONTINUOUS
 10
294.688911
 20
90.363623
 11
294.688911
 21
99.563623
  0
LINE
  8
1
 62
7
  6
CONTINUOUS
 10
293.388911
 20
90.363623
 11
294.688911
 21
90.363623
  0
LINE
  8
128
 62
7
  6
CONTINUOUS
 10
83.968146
 20
151.264690
 11
83.968146
 21
181.793833
  0
LINE
  8
128
 62
7
  6
CONTINUOUS
 10
88.968146
 20
151.264690
 11
88.968146
 21
181.793833
  0
LINE
  8
128
 62
7
  6
CONTINUOUS
 10
77.568146
 20
180.793833
 11
100.956146
 21
180.793833
  0
LINE
  8
128
 62
7
  6
CONTINUOUS
 10
83.968146
 20
180.793833
 11
80.768146
 21
180.377833
  0
LINE
  8
128
 62
7
  6
CONTINUOUS
 10
80.768146
 20
180.377833
 11
80.768146
 21
181.209833
  0
LINE
  8
128
 62
7
  6
CONTINUOUS
 10
80.768146
 20
181.209833
 11
83.968146
 21
180.793833
  0
LINE
  8
128
 62
7
  6
CONTINUOUS
 10
88.968146
 20
180.793833
 11
92.168146
 21
181.209833
  0
LINE
  8
128
 62
7
  6
CONTINUOUS
 10
92.168146
 20
181.209833
 11
92.168146
 21
180.377833
  0
LINE
  8
128
 62
7
  6
CONTINUOUS
 10
92.168146
 20
180.377833
 11
88.968146
 21
180.793833
  0
TEXT
  8
128
 62
7
  6
CONTINUOUS
 10
95.248146
 20
183.833833
 40
3.200000
 41
0.900000
  1
5
  7
KANJI
 50
0.000000
 51
0.000000
  0
TEXT
  8
128
 62
7
  6
CONTINUOUS
 10
98.768146
 20
185.993833
 40
2.240000
 41
0.900000
  1
+0.03
  7
KANJI
 50
0.000000
 51
0.000000
  0
TEXT
  8
128
 62
7
  6
CONTINUOUS
 10
100.560146
 20
182.633833
 40
2.240000
 41
0.900000
  1
0
  7
KANJI
 50
0.000000
 51
0.000000
  0
LINE
  8
128
 62
7
  6
CONTINUOUS
 10
67.873725
 20
143.193623
 11
66.640927
 21
143.193623
  0
LINE
  8
128
 62
7
  6
CONTINUOUS
 10
67.873725
 20
128.193623
 11
66.640927
 21
128.193623
  0
LINE
  8
128
 62
7
  6
CONTINUOUS
 10
67.640927
 20
121.793623
 11
67.640927
 21
149.593623
  0
LINE
  8
128
 62
7
  6
CONTINUOUS
 10
67.640927
 20
143.193623
 11
67.224927
 21
146.393623
  0
LINE
  8
128
 62
7
  6
CONTINUOUS
 10
67.224927
 20
146.393623
 11
68.056927
 21
146.393623
  0
LINE
  8
128
 62
7
  6
CONTINUOUS
 10
68.056927
 20
146.393623
 11
67.640927
 21
143.193623
  0
LINE
  8
128
 62
7
  6
CONTINUOUS
 10
67.640927
 20
128.193623
 11
68.056927
 21
124.993623
  0
LINE
  8
128
 62
7
  6
CONTINUOUS
 10
68.056927
 20
124.993623
 11
67.224927
 21
124.993623
  0
LINE
  8
128
 62
7
  6
CONTINUOUS
 10
67.224927
 20
124.993623
 11
67.640927
 21
128.193623
  0
TEXT
  8
128
 62
7
  6
CONTINUOUS
 10
66.040927
 20
133.773623
 40
3.200000
 41
0.900000
  1
15
  7
KANJI
 50
90.000000
 51
0.000000
  0
LINE
  8
1
 62
7
  6
CONTINUOUS
 10
170.263757
 20
126.265403
 11
170.263757
 21
148.507103
  0
LINE
  8
1
 62
7
  6
CONTINUOUS
 10
228.388911
 20
126.265403
 11
168.763757
 21
126.265403
  0
LINE
  8
1
 62
7
  6
CONTINUOUS
 10
170.263757
 20
126.265403
 11
169.847757
 21
129.465403
  0
LINE
  8
1
 62
7
  6
CONTINUOUS
 10
169.847757
 20
129.465403
 11
170.679757
 21
129.465403
  0
LINE
  8
1
 62
7
  6
CONTINUOUS
 10
170.679757
 20
129.465403
 11
170.263757
 21
126.265403
  0
TEXT
  8
1
 62
7
  6
CONTINUOUS
 10
168.263757
 20
143.707103
 40
3.200000
 41
0.900000
  1
34
  7
KANJI
 50
90.000000
 51
0.000000
  0
TEXT
  8
1
 62
7
  6
CONTINUOUS
 10
168.263757
 20
140.062659
 40
3.200000
 41
0.900000
  1
âË
  7
KANJI
 50
90.000000
 51
0.000000
  0
ENDSEC
  0
EOF
