  0
SECTION
  2
HEADER
  9
$ACADVER
  1
AC1003
  9
$INSBASE
 10
0.000000
 20
0.000000
  9
$EXTMIN
 10
0.000000
 20
0.000000
  9
$EXTMAX
 10
210.000000
 20
148.000000
  9
$LIMMIN
 10
0.000000
 20
0.000000
  9
$LIMMAX
 10
210.000000
 20
148.000000
  9
$VIEWCTR
 10
105.000000
 20
74.000000
  9
$VIEWSIZE
 40
148.000000
  9
$PEXTMIN
 10
0.000000
 20
0.000000
 30
0.000000
  9
$PEXTMAX
 10
210.000000
 20
148.000000
 30
0.000000
  9
$SNAPMODE
 70
     0
  9
$SNAPUNIT
 10
1.000000
 20
1.000000
  9
$SNAPBASE
 10
0.000000
 20
0.000000
  9
$SNAPANG
 50
0.000000
  9
$SNAPISOPAIR
 70
     0
  9
$SNAPSTYLE
 70
     0
  9
$GRIDMODE
 70
     0
  9
$GRIDUNIT
 10
0.000000
 20
0.000000
  9
$ORTHOMODE
 70
     0
  9
$REGENMODE
 70
     1
  9
$FILLMODE
 70
     1
  9
$QTEXTMODE
 70
     0
  9
$DRAGMODE
 70
     2
  9
$LTSCALE
 40
0.250000
  9
$OSMODE
 70
     0
  9
$ATTMODE
 70
     1
  9
$TEXTSIZE
 40
0.200000
  9
$TRACEWID
 40
0.050000
  9
$TEXTSTYLE
  7
STANDARD
  9
$CLAYER
  8
0
  9
$CELTYPE
  6
BYLAYER
  9
$CECOLOR
 62
   256
  9
$DIMSCALE
 40
1.000000
  9
$DIMASZ
 40
1.000000
  9
$DIMEXO
 40
0.000000
  9
$DIMDLI
 40
0.500000
  9
$DIMRND
 40
0.000000
  9
$DIMDLE
 40
0.000000
  9
$DIMEXE
 40
0.000000
  9
$DIMTP
 40
0.000000
  9
$DIMTM
 40
0.000000
  9
$DIMTXT
 40
0.180000
  9
$DIMCEN
 40
0.000000
  9
$DIMTSZ
 40
0.000000
  9
$DIMTOL
 70
     0
  9
$DIMLIM
 70
     0
  9
$DIMTIH
 70
     1
  9
$DIMTOH
 70
     1
  9
$DIMSE1
 70
     0
  9
$DIMSE2
 70
     0
  9
$DIMTAD
 70
     0
  9
$DIMZIN
 70
     0
  9
$DIMBLK
  1

  9
$DIMASO
 70
     0
  9
$DIMSHO
 70
     0
  9
$DIMPOST
  1

  9
$DIMAPOST
  1

  9
$DIMALT
 70
     0
  9
$DIMALTD
 70
     0
  9
$DIMALTF
 40
25.400000
  9
$DIMLFAC
 40
1.000000
  9
$DIMTOFL
 70
     0
  9
$DIMTVP
 40
0.000000
  9
$DIMTIX
 70
     0
  9
$DIMSOXD
 70
     0
  9
$DIMSAH
 70
     0
  9
$DIMBLKL
  1

  9
$DIMBLKR
  1

  9
$LUNITS
 70
     2
  9
$LUPREC
 70
     2
  9
$AXISMODE
 70
     0
  9
$AXISUNIT
 10
1.000000
 20
1.000000
  9
$SKETCHINC
 40
0.000000
  9
$FILLETRAD
 40
0.000000
  9
$AUNITS
 70
     1
  9
$AUPREC
 70
     2
  9
$MENU
  1
ACAD
  9
$ELEVATION
 40
0.000000
  9
$THICKNESS
 40
0.000000
  9
$VIEWDIR
 10
0.000000
 20
0.000000
 30
1.000000
  9
$LIMCHECK
 70
     1
  9
$BLIPMODE
 70
     1
  9
$CHAMFERA
 40
0.000000
  9
$CHAMFERB
 40
0.000000
  9
$FASTZOOM
 70
     1
  9
$SKPOLY
 70
     0
  9
$TDCREATE
 40
0.000000
  9
$TDUPDATE
 40
0.000000
  9
$TDINDWG
 40
0.000000
  9
$TDUSRTIMER
 40
0.000000
  9
$USRTIMER
 70
     1
  9
$ANGBASE
 50
0.000000
  9
$ANGDIR
 70
     0
  9
$PDMODE
 70
     0
  9
$PDSIZE
 40
0.000000
  9
$PLINEWID
 40
0.000000
  9
$COORDS
 70
     2
  9
$USERI1
 70
     0
  9
$USERI2
 70
     0
  9
$USERI3
 70
     0
  9
$USERI4
 70
     0
  9
$USERI5
 70
     0
  9
$USERR1
 40
0.000000
  9
$USERR2
 40
0.000000
  9
$USERR3
 40
0.000000
  9
$USERR4
 40
0.000000
  9
$USERR5
 40
0.000000
  0
ENDSEC
  0
SECTION
  2
TABLES
  0
TABLE
  2
LTYPE
 70
     5
  0
LTYPE
  2
CONTINUOUS
 70
    64
  3
Solid line
 72
    65
 73
     0
 40
0.0
  0
LTYPE
  2
HIDDEN
 70
    64
  3
------------------------
 72
    65
 73
     2
 40
12.6
 49
8.4
 49
-4.2
  0
LTYPE
  2
DOT
 70
    64
  3
ÑÑÑÑÑÑÑÑÑÑÑÑÑÑÑÑÑÑÑÑÑÑÑÑ
 72
    65
 73
     2
 40
8.0
 49
6.0
 49
-2.0
  0
LTYPE
  2
DASHDOT
 70
    64
  3
--Ñ--Ñ--Ñ--Ñ--Ñ--Ñ--Ñ--
 72
    65
 73
     4
 40
50.5
 49
30.0
 49
-9.0
 49
2.5
 49
-9.0
  0
LTYPE
  2
DIVIDE
 70
    64
  3
--ÑÑ--ÑÑ--ÑÑ--ÑÑ--ÑÑ--
 72
    65
 73
     6
 40
58.0
 49
30.0
 49
-9.0
 49
2.5
 49
-5.0
 49
2.5
 49
-9.0
  0
ENDTAB
  0
TABLE
  2
LAYER
 70
1
  0
LAYER
  2
1
 70
64
 62
7
  6
CONTINUOUS
  0
ENDTAB
  0
TABLE
  2
STYLE
 70
     2
  0
STYLE
  2
STANDARD
 70
    64
 40
0.0
 41
1.0
 50
0.0
 71
     0
 42
0.2
  3
TXT
  4

  0
STYLE
  2
KANJI
 70
    64
 40
0.0
 41
1.0
 50
0.0
 71
     0
 42
0.2
  3
TXT
  4
BIGFONT
  0
ENDTAB
  0
TABLE
  2
VIEW
 70
     0
  0
ENDTAB
  0
ENDSEC
  0
SECTION
  2
BLOCKS
  0
ENDSEC
  0
SECTION
  2
ENTITIES
  0
LINE
  8
1
 62
7
  6
CONTINUOUS
 10
134.297041
 20
23.248157
 11
134.404795
 21
23.355911
  0
LINE
  8
1
 62
7
  6
CONTINUOUS
 10
134.297041
 20
22.965314
 11
134.687638
 21
23.355911
  0
LINE
  8
1
 62
7
  6
CONTINUOUS
 10
134.297041
 20
22.682471
 11
134.970481
 21
23.355911
  0
LINE
  8
1
 62
7
  6
CONTINUOUS
 10
134.297041
 20
22.399629
 11
135.253324
 21
23.355911
  0
LINE
  8
1
 62
7
  6
CONTINUOUS
 10
134.536166
 20
22.355911
 11
135.536166
 21
23.355911
  0
LINE
  8
1
 62
7
  6
CONTINUOUS
 10
134.819009
 20
22.355911
 11
135.819009
 21
23.355911
  0
LINE
  8
1
 62
7
  6
CONTINUOUS
 10
136.523440
 20
23.777499
 11
136.601852
 21
23.855911
  0
LINE
  8
1
 62
7
  6
CONTINUOUS
 10
135.101852
 20
22.355911
 11
136.101852
 21
23.355911
  0
LINE
  8
1
 62
7
  6
CONTINUOUS
 10
136.523440
 20
23.494656
 11
136.884694
 21
23.855911
  0
LINE
  8
1
 62
7
  6
CONTINUOUS
 10
135.384694
 20
22.355911
 11
136.384694
 21
23.355911
  0
LINE
  8
1
 62
7
  6
CONTINUOUS
 10
135.667537
 20
22.355911
 11
137.023440
 21
23.711814
  0
LINE
  8
1
 62
7
  6
CONTINUOUS
 10
135.950380
 20
22.355911
 11
137.023440
 21
23.428971
  0
LINE
  8
1
 62
7
  6
CONTINUOUS
 10
136.233223
 20
22.355911
 11
137.023440
 21
23.146128
  0
LINE
  8
1
 62
7
  6
CONTINUOUS
 10
136.516065
 20
22.355911
 11
137.023440
 21
22.863285
  0
LINE
  8
1
 62
7
  6
CONTINUOUS
 10
136.523440
 20
22.080443
 11
137.023440
 21
22.580443
  0
LINE
  8
1
 62
7
  6
CONTINUOUS
 10
136.581751
 20
21.855911
 11
137.023440
 21
22.297600
  0
LINE
  8
1
 62
7
  6
CONTINUOUS
 10
136.864593
 20
21.855911
 11
137.023440
 21
22.014757
  0
CIRCLE
  8
1
 62
7
  6
DIVIDE
 10
35.250000
 20
57.992860
 40
0.500000
  0
CIRCLE
  8
1
 62
7
  6
DIVIDE
 10
35.250000
 20
57.992860
 40
0.250000
  0
LINE
  8
1
 62
7
  6
CONTINUOUS
 10
35.250000
 20
37.992860
 11
29.000000
 21
37.992860
  0
LINE
  8
1
 62
7
  6
CONTINUOUS
 10
41.500000
 20
37.992860
 11
35.250000
 21
37.992860
  0
LINE
  8
1
 62
7
  6
CONTINUOUS
 10
42.000000
 20
38.742860
 11
42.000000
 21
38.492860
  0
LINE
  8
1
 62
7
  6
CONTINUOUS
 10
28.500000
 20
38.492860
 11
28.500000
 21
38.742860
  0
LINE
  8
1
 62
7
  6
CONTINUOUS
 10
37.500000
 20
37.492860
 11
37.500000
 21
37.992860
  0
LINE
  8
1
 62
7
  6
CONTINUOUS
 10
33.000000
 20
37.492860
 11
37.500000
 21
37.492860
  0
LINE
  8
1
 62
7
  6
CONTINUOUS
 10
33.000000
 20
37.992860
 11
33.000000
 21
37.492860
  0
LINE
  8
1
 62
7
  6
CONTINUOUS
 10
34.250000
 20
37.492860
 11
34.250000
 21
34.306395
  0
LINE
  8
1
 62
7
  6
CONTINUOUS
 10
34.725623
 20
34.441647
 11
34.725623
 21
37.492860
  0
LINE
  8
1
 62
7
  6
CONTINUOUS
 10
35.250000
 20
37.492860
 11
35.250000
 21
34.607749
  0
LINE
  8
1
 62
7
  6
CONTINUOUS
 10
35.750000
 20
34.709490
 11
35.750000
 21
37.492860
  0
LINE
  8
1
 62
7
  6
CONTINUOUS
 10
36.250000
 20
37.492860
 11
36.250000
 21
34.704200
  0
LINE
  8
1
 62
7
  6
CONTINUOUS
 10
133.792632
 20
16.328924
 11
133.792632
 21
18.155771
  0
LINE
  8
1
 62
7
  6
CONTINUOUS
 10
137.117493
 20
16.328924
 11
133.792632
 21
16.328924
  0
LINE
  8
1
 62
7
  6
CONTINUOUS
 10
137.117493
 20
18.155771
 11
137.117493
 21
16.328924
  0
LINE
  8
1
 62
7
  6
CONTINUOUS
 10
133.792632
 20
18.155771
 11
137.117493
 21
18.155771
  0
LINE
  8
1
 62
7
  6
CONTINUOUS
 10
134.523440
 20
22.355911
 11
134.523440
 21
18.155771
  0
LINE
  8
1
 62
7
  6
CONTINUOUS
 10
134.994322
 20
18.155771
 11
134.994322
 21
22.355911
  0
LINE
  8
1
 62
7
  6
CONTINUOUS
 10
135.523440
 20
18.155771
 11
135.523440
 21
22.355911
  0
LINE
  8
1
 62
7
  6
CONTINUOUS
 10
136.023440
 20
18.155771
 11
136.023440
 21
22.355911
  0
LINE
  8
1
 62
7
  6
CONTINUOUS
 10
136.523440
 20
18.155771
 11
136.523440
 21
22.355911
  0
LINE
  8
1
 62
7
  6
CONTINUOUS
 10
134.125701
 20
22.855911
 11
137.338704
 21
22.855911
  0
LINE
  8
1
 62
7
  6
CONTINUOUS
 10
134.523440
 20
23.355911
 11
134.523440
 21
25.489321
  0
LINE
  8
1
 62
7
  6
CONTINUOUS
 10
136.523440
 20
23.355911
 11
136.523440
 21
25.887126
  0
LINE
  8
1
 62
7
  6
CONTINUOUS
 10
136.023440
 20
23.355911
 11
136.023440
 21
25.892417
  0
LINE
  8
1
 62
7
  6
CONTINUOUS
 10
135.523440
 20
23.355911
 11
135.523440
 21
25.790676
  0
LINE
  8
1
 62
7
  6
CONTINUOUS
 10
134.995971
 20
23.355911
 11
135.000008
 21
25.624880
  0
LINE
  8
1
 62
7
  6
CONTINUOUS
 10
134.297041
 20
22.355911
 11
134.297041
 21
23.355911
  0
LINE
  8
1
 62
7
  6
CONTINUOUS
 10
136.523440
 20
22.355911
 11
134.297041
 21
22.355911
  0
LINE
  8
1
 62
7
  6
CONTINUOUS
 10
136.523440
 20
21.855911
 11
136.523440
 21
22.355911
  0
LINE
  8
1
 62
7
  6
CONTINUOUS
 10
137.023440
 20
21.855911
 11
136.523440
 21
21.855911
  0
LINE
  8
1
 62
7
  6
CONTINUOUS
 10
137.023440
 20
23.855911
 11
137.023440
 21
21.855911
  0
LINE
  8
1
 62
7
  6
CONTINUOUS
 10
136.523440
 20
23.855911
 11
137.023440
 21
23.855911
  0
LINE
  8
1
 62
7
  6
CONTINUOUS
 10
136.523440
 20
23.355911
 11
136.523440
 21
23.855911
  0
LINE
  8
1
 62
7
  6
CONTINUOUS
 10
134.297041
 20
23.355911
 11
136.523440
 21
23.355911
  0
LINE
  8
1
 62
7
  6
CONTINUOUS
 10
138.648440
 20
37.492860
 11
138.648440
 21
37.992860
  0
LINE
  8
1
 62
7
  6
CONTINUOUS
 10
132.398440
 20
37.492860
 11
138.648440
 21
37.492860
  0
LINE
  8
1
 62
7
  6
CONTINUOUS
 10
132.398440
 20
37.992860
 11
132.398440
 21
37.492860
  0
LINE
  8
1
 62
7
  6
CONTINUOUS
 10
134.523440
 20
37.492860
 11
134.523440
 21
26.126644
  0
LINE
  8
1
 62
7
  6
CONTINUOUS
 10
134.999062
 20
26.261897
 11
134.999062
 21
37.492860
  0
LINE
  8
1
 62
7
  6
CONTINUOUS
 10
135.523440
 20
37.492860
 11
135.523440
 21
26.427999
  0
LINE
  8
1
 62
7
  6
CONTINUOUS
 10
136.023440
 20
26.529740
 11
136.023440
 21
37.492860
  0
LINE
  8
1
 62
7
  6
CONTINUOUS
 10
136.523440
 20
37.492860
 11
136.523440
 21
26.524450
  0
LINE
  8
1
 62
7
  6
CONTINUOUS
 10
24.612983
 20
69.104580
 11
20.873317
 21
65.364914
  0
LINE
  8
1
 62
7
  6
CONTINUOUS
 10
24.625632
 20
67.367228
 11
24.625632
 21
68.377591
  0
LINE
  8
1
 62
7
  6
CONTINUOUS
 10
24.625632
 20
66.356865
 11
24.625632
 21
67.367228
  0
LINE
  8
1
 62
7
  6
CONTINUOUS
 10
22.875632
 20
65.346502
 11
24.625632
 21
66.356865
  0
LINE
  8
1
 62
7
  6
CONTINUOUS
 10
21.125632
 20
66.356865
 11
22.875632
 21
65.346502
  0
LINE
  8
1
 62
7
  6
CONTINUOUS
 10
21.125632
 20
68.377591
 11
21.125632
 21
66.356865
  0
LINE
  8
1
 62
7
  6
CONTINUOUS
 10
22.875632
 20
69.387954
 11
21.125632
 21
68.377591
  0
LINE
  8
1
 62
7
  6
CONTINUOUS
 10
24.625632
 20
68.377591
 11
22.875632
 21
69.387954
  0
LINE
  8
1
 62
7
  6
CONTINUOUS
 10
49.361721
 20
44.355843
 11
45.622054
 21
40.616176
  0
LINE
  8
1
 62
7
  6
CONTINUOUS
 10
50.500000
 20
42.896495
 11
50.500000
 21
43.494122
  0
LINE
  8
1
 62
7
  6
CONTINUOUS
 10
49.374369
 20
42.618491
 11
49.374369
 21
43.628854
  0
LINE
  8
1
 62
7
  6
CONTINUOUS
 10
49.374369
 20
41.608128
 11
49.374369
 21
42.618491
  0
LINE
  8
1
 62
7
  6
CONTINUOUS
 10
47.624369
 20
40.597765
 11
49.374369
 21
41.608128
  0
LINE
  8
1
 62
7
  6
CONTINUOUS
 10
45.874369
 20
41.608128
 11
47.624369
 21
40.597765
  0
LINE
  8
1
 62
7
  6
CONTINUOUS
 10
45.874369
 20
43.628854
 11
45.874369
 21
41.608128
  0
LINE
  8
1
 62
7
  6
CONTINUOUS
 10
47.624369
 20
44.639217
 11
45.874369
 21
43.628854
  0
LINE
  8
1
 62
7
  6
CONTINUOUS
 10
49.374369
 20
43.628854
 11
47.624369
 21
44.639217
  0
LINE
  8
1
 62
7
  6
CONTINUOUS
 10
128.848440
 20
39.742860
 11
128.848440
 21
37.992860
  0
LINE
  8
1
 62
7
  6
CONTINUOUS
 10
138.148440
 20
39.742860
 11
138.148440
 21
37.992860
  0
LINE
  8
1
 62
7
  6
CONTINUOUS
 10
138.648440
 20
39.742860
 11
138.648440
 21
37.992860
  0
LINE
  8
1
 62
7
  6
CONTINUOUS
 10
128.848440
 20
37.992860
 11
138.648440
 21
37.992860
  0
LINE
  8
1
 62
7
  6
CONTINUOUS
 10
138.148440
 20
70.242860
 11
138.148440
 21
39.742860
  0
LINE
  8
1
 62
7
  6
CONTINUOUS
 10
104.721072
 20
54.992860
 11
141.543596
 21
54.992860
  0
LINE
  8
1
 62
7
  6
CONTINUOUS
 10
119.648440
 20
69.154728
 11
119.648440
 21
65.654728
  0
LINE
  8
1
 62
7
  6
CONTINUOUS
 10
119.648440
 20
44.992860
 11
119.648440
 21
54.992860
  0
LINE
  8
1
 62
7
  6
CONTINUOUS
 10
119.648440
 20
44.992860
 11
122.748440
 21
44.992860
  0
LINE
  8
1
 62
7
  6
CONTINUOUS
 10
119.648440
 20
39.992860
 11
119.648440
 21
44.992860
  0
LINE
  8
1
 62
7
  6
CONTINUOUS
 10
128.348440
 20
44.992860
 11
122.748440
 21
44.992860
  0
LINE
  8
1
 62
7
  6
CONTINUOUS
 10
138.648440
 20
44.992860
 11
128.348440
 21
44.992860
  0
LINE
  8
1
 62
7
  6
CONTINUOUS
 10
115.648440
 20
39.992860
 11
115.648440
 21
54.992860
  0
LINE
  8
1
 62
7
  6
CONTINUOUS
 10
128.348440
 20
39.742860
 11
138.648440
 21
39.742860
  0
LINE
  8
1
 62
7
  6
CONTINUOUS
 10
138.648440
 20
39.742860
 11
138.648440
 21
54.992860
  0
LINE
  8
1
 62
7
  6
CONTINUOUS
 10
115.648440
 20
39.992860
 11
122.748440
 21
39.992860
  0
LINE
  8
1
 62
7
  6
CONTINUOUS
 10
122.748440
 20
39.992860
 11
122.748440
 21
54.992860
  0
LINE
  8
1
 62
7
  6
CONTINUOUS
 10
122.748440
 20
39.992860
 11
122.748440
 21
54.992860
  0
LINE
  8
1
 62
7
  6
CONTINUOUS
 10
128.348440
 20
54.992860
 11
128.348440
 21
39.992860
  0
LINE
  8
1
 62
7
  6
CONTINUOUS
 10
128.348440
 20
39.992860
 11
122.748440
 21
39.992860
  0
LINE
  8
1
 62
7
  6
CONTINUOUS
 10
128.348440
 20
39.742860
 11
128.348440
 21
54.992860
  0
LINE
  8
1
 62
7
  6
CONTINUOUS
 10
119.648440
 20
54.992860
 11
119.648440
 21
64.992860
  0
LINE
  8
1
 62
7
  6
CONTINUOUS
 10
122.748440
 20
64.992860
 11
119.648440
 21
64.992860
  0
LINE
  8
1
 62
7
  6
CONTINUOUS
 10
119.648440
 20
64.992860
 11
119.648440
 21
69.992860
  0
LINE
  8
1
 62
7
  6
CONTINUOUS
 10
122.748440
 20
64.992860
 11
128.348440
 21
64.992860
  0
LINE
  8
1
 62
7
  6
CONTINUOUS
 10
128.348440
 20
64.992860
 11
138.648440
 21
64.992860
  0
LINE
  8
1
 62
7
  6
CONTINUOUS
 10
115.648440
 20
54.992860
 11
115.648440
 21
69.992860
  0
LINE
  8
1
 62
7
  6
CONTINUOUS
 10
138.648440
 20
70.242860
 11
128.348440
 21
70.242860
  0
LINE
  8
1
 62
7
  6
CONTINUOUS
 10
138.648440
 20
54.992860
 11
138.648440
 21
70.242860
  0
LINE
  8
1
 62
7
  6
CONTINUOUS
 10
122.748440
 20
69.992860
 11
115.648440
 21
69.992860
  0
LINE
  8
1
 62
7
  6
CONTINUOUS
 10
122.748440
 20
54.992860
 11
122.748440
 21
69.992860
  0
LINE
  8
1
 62
7
  6
CONTINUOUS
 10
122.748440
 20
54.992860
 11
122.748440
 21
69.992860
  0
LINE
  8
1
 62
7
  6
CONTINUOUS
 10
128.348440
 20
69.992860
 11
128.348440
 21
54.992860
  0
LINE
  8
1
 62
7
  6
CONTINUOUS
 10
122.748440
 20
69.992860
 11
128.348440
 21
69.992860
  0
LINE
  8
1
 62
7
  6
CONTINUOUS
 10
128.348440
 20
54.992860
 11
128.348440
 21
70.242860
  0
LINE
  8
1
 62
7
  6
CONTINUOUS
 10
123.798440
 20
64.992860
 11
123.798440
 21
66.709439
  0
LINE
  8
1
 62
7
  6
CONTINUOUS
 10
123.798440
 20
67.384791
 11
123.798440
 21
69.992860
  0
LINE
  8
1
 62
7
  6
CONTINUOUS
 10
124.298440
 20
69.992860
 11
124.298440
 21
67.565642
  0
LINE
  8
1
 62
7
  6
CONTINUOUS
 10
124.798440
 20
67.746493
 11
124.798440
 21
69.992860
  0
LINE
  8
1
 62
7
  6
CONTINUOUS
 10
126.298440
 20
69.992860
 11
126.298440
 21
67.746493
  0
LINE
  8
1
 62
7
  6
CONTINUOUS
 10
126.798440
 20
67.565642
 11
126.798440
 21
69.992860
  0
LINE
  8
1
 62
7
  6
CONTINUOUS
 10
127.298440
 20
69.992860
 11
127.298440
 21
67.384791
  0
LINE
  8
1
 62
7
  6
CONTINUOUS
 10
127.298440
 20
64.992860
 11
127.298440
 21
66.709439
  0
LINE
  8
1
 62
7
  6
CONTINUOUS
 10
123.298440
 20
67.203940
 11
123.298440
 21
69.992860
  0
LINE
  8
1
 62
7
  6
CONTINUOUS
 10
127.798440
 20
66.528588
 11
127.798440
 21
64.992860
  0
LINE
  8
1
 62
7
  6
CONTINUOUS
 10
123.298440
 20
64.992860
 11
123.298440
 21
66.528588
  0
LINE
  8
1
 62
7
  6
CONTINUOUS
 10
127.798440
 20
69.992860
 11
127.798440
 21
67.203940
  0
LINE
  8
1
 62
7
  6
CONTINUOUS
 10
123.798440
 20
64.992860
 11
123.798440
 21
66.709439
  0
LINE
  8
1
 62
7
  6
CONTINUOUS
 10
123.798440
 20
67.384791
 11
123.798440
 21
69.992860
  0
LINE
  8
1
 62
7
  6
CONTINUOUS
 10
124.298440
 20
69.992860
 11
124.298440
 21
67.565642
  0
LINE
  8
1
 62
7
  6
CONTINUOUS
 10
124.798440
 20
67.746493
 11
124.798440
 21
69.992860
  0
LINE
  8
1
 62
7
  6
CONTINUOUS
 10
126.298440
 20
69.992860
 11
126.298440
 21
67.746493
  0
LINE
  8
1
 62
7
  6
CONTINUOUS
 10
126.798440
 20
67.565642
 11
126.798440
 21
69.992860
  0
LINE
  8
1
 62
7
  6
CONTINUOUS
 10
127.298440
 20
69.992860
 11
127.298440
 21
67.384791
  0
LINE
  8
1
 62
7
  6
CONTINUOUS
 10
127.298440
 20
64.992860
 11
127.298440
 21
66.709439
  0
LINE
  8
1
 62
7
  6
CONTINUOUS
 10
123.298440
 20
67.203940
 11
123.298440
 21
69.992860
  0
LINE
  8
1
 62
7
  6
CONTINUOUS
 10
127.798440
 20
66.528588
 11
127.798440
 21
64.992860
  0
LINE
  8
1
 62
7
  6
CONTINUOUS
 10
123.298440
 20
64.992860
 11
123.298440
 21
66.528588
  0
LINE
  8
1
 62
7
  6
CONTINUOUS
 10
127.798440
 20
63.154905
 11
127.798440
 21
54.992860
  0
LINE
  8
1
 62
7
  6
CONTINUOUS
 10
127.298440
 20
63.154905
 11
127.298440
 21
54.992860
  0
LINE
  8
1
 62
7
  6
CONTINUOUS
 10
126.798440
 20
63.154905
 11
126.798440
 21
54.992860
  0
LINE
  8
1
 62
7
  6
CONTINUOUS
 10
126.298440
 20
63.154905
 11
126.298440
 21
54.992860
  0
LINE
  8
1
 62
7
  6
CONTINUOUS
 10
125.798440
 20
63.154905
 11
125.798440
 21
54.992860
  0
LINE
  8
1
 62
7
  6
CONTINUOUS
 10
125.298440
 20
63.154905
 11
125.298440
 21
54.992860
  0
LINE
  8
1
 62
7
  6
CONTINUOUS
 10
125.298440
 20
63.154905
 11
125.298440
 21
54.992860
  0
LINE
  8
1
 62
7
  6
CONTINUOUS
 10
124.798440
 20
63.154905
 11
124.798440
 21
54.992860
  0
LINE
  8
1
 62
7
  6
CONTINUOUS
 10
124.298440
 20
63.154905
 11
124.298440
 21
54.992860
  0
LINE
  8
1
 62
7
  6
CONTINUOUS
 10
123.798440
 20
63.154905
 11
123.798440
 21
54.992860
  0
LINE
  8
1
 62
7
  6
CONTINUOUS
 10
123.298440
 20
63.154905
 11
123.298440
 21
54.992860
  0
LINE
  8
1
 62
7
  6
CONTINUOUS
 10
123.798440
 20
43.276280
 11
123.798440
 21
44.992860
  0
LINE
  8
1
 62
7
  6
CONTINUOUS
 10
123.798440
 20
39.992860
 11
123.798440
 21
42.600928
  0
LINE
  8
1
 62
7
  6
CONTINUOUS
 10
124.298440
 20
42.420077
 11
124.298440
 21
39.992860
  0
LINE
  8
1
 62
7
  6
CONTINUOUS
 10
126.298440
 20
42.239226
 11
126.298440
 21
39.992860
  0
LINE
  8
1
 62
7
  6
CONTINUOUS
 10
126.798440
 20
39.992860
 11
126.798440
 21
42.420077
  0
LINE
  8
1
 62
7
  6
CONTINUOUS
 10
127.298440
 20
42.600928
 11
127.298440
 21
39.992860
  0
LINE
  8
1
 62
7
  6
CONTINUOUS
 10
123.298440
 20
39.992860
 11
123.298440
 21
42.781779
  0
LINE
  8
1
 62
7
  6
CONTINUOUS
 10
127.798440
 20
44.992860
 11
127.798440
 21
43.457131
  0
LINE
  8
1
 62
7
  6
CONTINUOUS
 10
123.298440
 20
43.457131
 11
123.298440
 21
44.992860
  0
LINE
  8
1
 62
7
  6
CONTINUOUS
 10
127.798440
 20
42.781779
 11
127.798440
 21
39.992860
  0
LINE
  8
1
 62
7
  6
CONTINUOUS
 10
124.798440
 20
39.992860
 11
124.798440
 21
42.239226
  0
LINE
  8
1
 62
7
  6
CONTINUOUS
 10
126.298440
 20
42.239226
 11
126.298440
 21
39.992860
  0
LINE
  8
1
 62
7
  6
CONTINUOUS
 10
127.298440
 20
43.276280
 11
127.298440
 21
44.992860
  0
LINE
  8
1
 62
7
  6
CONTINUOUS
 10
127.798440
 20
44.992860
 11
127.798440
 21
43.457131
  0
LINE
  8
1
 62
7
  6
CONTINUOUS
 10
123.298440
 20
43.457131
 11
123.298440
 21
44.992860
  0
LINE
  8
1
 62
7
  6
CONTINUOUS
 10
127.798440
 20
54.992860
 11
127.798440
 21
46.830814
  0
LINE
  8
1
 62
7
  6
CONTINUOUS
 10
127.298440
 20
54.992860
 11
127.298440
 21
46.830814
  0
LINE
  8
1
 62
7
  6
CONTINUOUS
 10
126.798440
 20
54.992860
 11
126.798440
 21
46.830814
  0
LINE
  8
1
 62
7
  6
CONTINUOUS
 10
126.298440
 20
54.992860
 11
126.298440
 21
46.830814
  0
LINE
  8
1
 62
7
  6
CONTINUOUS
 10
125.798440
 20
54.992860
 11
125.798440
 21
46.830814
  0
LINE
  8
1
 62
7
  6
CONTINUOUS
 10
125.298440
 20
54.992860
 11
125.298440
 21
46.830814
  0
LINE
  8
1
 62
7
  6
CONTINUOUS
 10
125.298440
 20
54.992860
 11
125.298440
 21
46.830814
  0
LINE
  8
1
 62
7
  6
CONTINUOUS
 10
124.798440
 20
54.992860
 11
124.798440
 21
46.830814
  0
LINE
  8
1
 62
7
  6
CONTINUOUS
 10
124.298440
 20
54.992860
 11
124.298440
 21
46.830814
  0
LINE
  8
1
 62
7
  6
CONTINUOUS
 10
123.798440
 20
54.992860
 11
123.798440
 21
46.830814
  0
LINE
  8
1
 62
7
  6
CONTINUOUS
 10
123.298440
 20
54.992860
 11
123.298440
 21
46.830814
  0
LINE
  8
1
 62
7
  6
CONTINUOUS
 10
119.648440
 20
66.994533
 11
120.148440
 21
67.404728
  0
LINE
  8
1
 62
7
  6
CONTINUOUS
 10
119.648440
 20
67.404728
 11
120.148440
 21
67.814924
  0
LINE
  8
1
 62
7
  6
CONTINUOUS
 10
87.848440
 20
43.455991
 11
89.048440
 21
43.455991
  0
LINE
  8
1
 62
7
  6
CONTINUOUS
 10
87.848440
 20
43.655991
 11
89.048440
 21
43.655991
  0
LINE
  8
1
 62
7
  6
CONTINUOUS
 10
89.048440
 20
41.655991
 11
87.848440
 21
41.655991
  0
LINE
  8
1
 62
7
  6
CONTINUOUS
 10
89.048440
 20
41.855991
 11
87.848440
 21
41.855991
  0
LINE
  8
1
 62
7
  6
CONTINUOUS
 10
87.848440
 20
41.655991
 11
87.848440
 21
41.855991
  0
LINE
  8
1
 62
7
  6
CONTINUOUS
 10
87.848440
 20
41.855991
 11
87.648440
 21
41.855991
  0
LINE
  8
1
 62
7
  6
CONTINUOUS
 10
87.648440
 20
41.855991
 11
87.648440
 21
43.455991
  0
LINE
  8
1
 62
7
  6
CONTINUOUS
 10
87.648440
 20
43.455991
 11
87.848440
 21
43.455991
  0
LINE
  8
1
 62
7
  6
CONTINUOUS
 10
87.848440
 20
41.855991
 11
87.848440
 21
43.455991
  0
LINE
  8
1
 62
7
  6
CONTINUOUS
 10
87.848440
 20
41.655991
 11
87.648440
 21
41.855991
  0
LINE
  8
1
 62
7
  6
CONTINUOUS
 10
87.848440
 20
43.455991
 11
87.848440
 21
43.655991
  0
LINE
  8
1
 62
7
  6
CONTINUOUS
 10
87.648440
 20
43.455991
 11
87.848440
 21
43.655991
  0
LINE
  8
1
 62
7
  6
CONTINUOUS
 10
47.624369
 20
42.618491
 11
45.622054
 21
44.620806
  0
LINE
  8
1
 62
7
  6
CONTINUOUS
 10
24.621357
 20
44.364216
 11
21.229935
 21
40.972794
  0
LINE
  8
1
 62
7
  6
CONTINUOUS
 10
51.318701
 20
54.992860
 11
19.181300
 21
54.992860
  0
LINE
  8
1
 62
7
  6
CONTINUOUS
 10
21.138280
 20
69.104580
 11
24.877946
 21
65.364914
  0
LINE
  8
1
 62
7
  6
CONTINUOUS
 10
49.361721
 20
69.104580
 11
45.622054
 21
65.364914
  0
LINE
  8
1
 62
7
  6
CONTINUOUS
 10
49.361721
 20
40.881139
 11
47.624369
 21
42.618491
  0
LINE
  8
1
 62
7
  6
CONTINUOUS
 10
20.000000
 20
68.242860
 11
20.000000
 21
67.287390
  0
LINE
  8
1
 62
7
  6
CONTINUOUS
 10
48.500000
 20
70.242860
 11
47.902373
 21
70.242860
  0
LINE
  8
1
 62
7
  6
CONTINUOUS
 10
36.572771
 20
61.492754
 11
33.927019
 21
61.492754
  0
LINE
  8
1
 62
7
  6
CONTINUOUS
 10
32.353239
 20
59.992860
 11
38.302539
 21
59.992860
  0
LINE
  8
1
 62
7
  6
CONTINUOUS
 10
35.250000
 20
38.924159
 11
35.250000
 21
71.061560
  0
LINE
  8
1
 62
7
  6
CONTINUOUS
 10
50.500000
 20
42.671165
 11
50.500000
 21
67.645233
  0
LINE
  8
1
 62
7
  6
CONTINUOUS
 10
47.677043
 20
39.742860
 11
48.500000
 21
39.742860
  0
LINE
  8
1
 62
7
  6
CONTINUOUS
 10
22.795794
 20
70.242860
 11
22.000000
 21
70.242860
  0
LINE
  8
1
 62
7
  6
CONTINUOUS
 10
20.000000
 20
67.287390
 11
20.000000
 21
42.711259
  0
LINE
  8
1
 62
7
  6
CONTINUOUS
 10
22.968400
 20
39.742860
 11
47.677043
 21
39.742860
  0
LINE
  8
1
 62
7
  6
CONTINUOUS
 10
47.902373
 20
70.242860
 11
47.346365
 21
70.242860
  0
LINE
  8
1
 62
7
  6
CONTINUOUS
 10
50.500000
 20
67.645233
 11
50.500000
 21
68.242860
  0
LINE
  8
1
 62
7
  6
CONTINUOUS
 10
47.346365
 20
70.242860
 11
22.795794
 21
70.242860
  0
LINE
  8
1
 62
7
  6
CONTINUOUS
 10
24.625632
 20
42.618491
 11
24.625632
 21
43.628854
  0
LINE
  8
1
 62
7
  6
CONTINUOUS
 10
24.625632
 20
41.608128
 11
24.625632
 21
42.618491
  0
LINE
  8
1
 62
7
  6
CONTINUOUS
 10
22.875632
 20
40.597765
 11
24.625632
 21
41.608128
  0
LINE
  8
1
 62
7
  6
CONTINUOUS
 10
21.125632
 20
41.608128
 11
22.875632
 21
40.597765
  0
LINE
  8
1
 62
7
  6
CONTINUOUS
 10
21.125632
 20
43.628854
 11
21.125632
 21
41.608128
  0
LINE
  8
1
 62
7
  6
CONTINUOUS
 10
22.875632
 20
44.639217
 11
21.125632
 21
43.628854
  0
LINE
  8
1
 62
7
  6
CONTINUOUS
 10
24.625632
 20
43.628854
 11
22.875632
 21
44.639217
  0
LINE
  8
1
 62
7
  6
CONTINUOUS
 10
49.374369
 20
67.367228
 11
49.374369
 21
68.377591
  0
LINE
  8
1
 62
7
  6
CONTINUOUS
 10
49.374369
 20
66.356865
 11
49.374369
 21
67.367228
  0
LINE
  8
1
 62
7
  6
CONTINUOUS
 10
47.624369
 20
65.346502
 11
49.374369
 21
66.356865
  0
LINE
  8
1
 62
7
  6
CONTINUOUS
 10
45.874369
 20
66.356865
 11
47.624369
 21
65.346502
  0
LINE
  8
1
 62
7
  6
CONTINUOUS
 10
45.874369
 20
68.377591
 11
45.874369
 21
66.356865
  0
LINE
  8
1
 62
7
  6
CONTINUOUS
 10
47.624369
 20
69.387954
 11
45.874369
 21
68.377591
  0
LINE
  8
1
 62
7
  6
CONTINUOUS
 10
49.374369
 20
68.377591
 11
47.624369
 21
69.387954
  0
LINE
  8
1
 62
7
  6
CONTINUOUS
 10
74.202833
 20
60.030360
 11
92.283636
 21
60.030360
  0
LINE
  8
1
 62
7
  6
CONTINUOUS
 10
90.468903
 20
41.645991
 11
89.227976
 21
41.645991
  0
LINE
  8
1
 62
7
  6
CONTINUOUS
 10
90.468903
 20
43.665991
 11
89.227976
 21
43.665991
  0
LINE
  8
1
 62
7
  6
CONTINUOUS
 10
89.048440
 20
44.170991
 11
89.048440
 21
41.140991
  0
LINE
  8
1
 62
7
  6
CONTINUOUS
 10
89.227976
 20
44.675991
 11
90.468903
 21
44.675991
  0
LINE
  8
1
 62
7
  6
CONTINUOUS
 10
89.227976
 20
40.635991
 11
90.468903
 21
40.635991
  0
LINE
  8
1
 62
7
  6
CONTINUOUS
 10
83.841022
 20
62.030360
 11
89.148440
 21
62.030360
  0
LINE
  8
1
 62
7
  6
CONTINUOUS
 10
91.148440
 20
59.780360
 11
91.148440
 21
60.030360
  0
LINE
  8
1
 62
7
  6
CONTINUOUS
 10
91.148440
 20
64.529097
 11
91.148440
 21
66.904728
  0
LINE
  8
1
 62
7
  6
CONTINUOUS
 10
90.898440
 20
39.780360
 11
115.648440
 21
39.780360
  0
LINE
  8
1
 62
7
  6
CONTINUOUS
 10
91.148440
 20
43.155991
 11
91.148440
 21
45.531622
  0
LINE
  8
1
 62
7
  6
CONTINUOUS
 10
90.898440
 20
45.531622
 11
91.148440
 21
45.531622
  0
LINE
  8
1
 62
7
  6
CONTINUOUS
 10
91.148440
 20
59.530360
 11
91.148440
 21
60.030360
  0
LINE
  8
1
 62
7
  6
CONTINUOUS
 10
91.148440
 20
45.531622
 11
91.148440
 21
53.530360
  0
LINE
  8
1
 62
7
  6
CONTINUOUS
 10
74.898440
 20
61.530360
 11
74.648440
 21
61.530360
  0
LINE
  8
1
 62
7
  6
CONTINUOUS
 10
74.898440
 20
58.030360
 11
74.898440
 21
61.530360
  0
LINE
  8
1
 62
7
  6
CONTINUOUS
 10
81.148440
 20
61.530360
 11
74.898440
 21
61.530360
  0
LINE
  8
1
 62
7
  6
CONTINUOUS
 10
74.648440
 20
58.280360
 11
74.898440
 21
58.030360
  0
LINE
  8
1
 62
7
  6
CONTINUOUS
 10
74.648440
 20
58.280360
 11
74.648440
 21
61.530360
  0
LINE
  8
1
 62
7
  6
CONTINUOUS
 10
89.148440
 20
54.030360
 11
89.148440
 21
59.280360
  0
LINE
  8
1
 62
7
  6
CONTINUOUS
 10
89.148440
 20
59.280360
 11
89.148440
 21
63.280360
  0
LINE
  8
1
 62
7
  6
CONTINUOUS
 10
89.148440
 20
58.030360
 11
74.898440
 21
58.030360
  0
LINE
  8
1
 62
7
  6
CONTINUOUS
 10
91.148440
 20
60.030360
 11
91.148440
 21
59.780360
  0
LINE
  8
1
 62
7
  6
CONTINUOUS
 10
90.898440
 20
53.780360
 11
89.398440
 21
53.780360
  0
LINE
  8
1
 62
7
  6
CONTINUOUS
 10
89.148440
 20
63.280360
 11
89.148440
 21
65.502430
  0
LINE
  8
1
 62
7
  6
CONTINUOUS
 10
91.148440
 20
53.780360
 11
91.148440
 21
64.529097
  0
LINE
  8
1
 62
7
  6
CONTINUOUS
 10
91.148440
 20
64.529097
 11
90.898440
 21
64.529097
  0
LINE
  8
1
 62
7
  6
CONTINUOUS
 10
90.648440
 20
64.779097
 11
90.648440
 21
70.030360
  0
LINE
  8
1
 62
7
  6
CONTINUOUS
 10
115.648440
 20
70.280360
 11
90.898440
 21
70.280360
  0
LINE
  8
1
 62
7
  6
CONTINUOUS
 10
90.648440
 20
40.405991
 11
90.648440
 21
44.905991
  0
LINE
  8
1
 62
7
  6
CONTINUOUS
 10
90.648440
 20
45.281622
 11
90.648440
 21
40.030360
  0
LINE
  8
1
 62
7
  6
CONTINUOUS
 10
89.398440
 20
66.280360
 11
90.648440
 21
66.280360
  0
LINE
  8
1
 62
7
  6
CONTINUOUS
 10
115.648440
 20
70.280360
 11
115.648440
 21
63.780360
  0
LINE
  8
1
 62
7
  6
CONTINUOUS
 10
90.648440
 20
65.654728
 11
90.648440
 21
69.154728
  0
LINE
  8
1
 62
7
  6
CONTINUOUS
 10
120.148440
 20
65.654728
 11
120.148440
 21
69.154728
  0
LINE
  8
1
 62
7
  6
CONTINUOUS
 10
119.648440
 20
65.654728
 11
120.148440
 21
65.654728
  0
LINE
  8
1
 62
7
  6
CONTINUOUS
 10
119.648440
 20
69.154728
 11
120.148440
 21
69.154728
  0
LINE
  8
1
 62
7
  6
CONTINUOUS
 10
120.148440
 20
65.654728
 11
120.448440
 21
65.654728
  0
LINE
  8
1
 62
7
  6
CONTINUOUS
 10
121.448440
 20
66.654728
 11
121.448440
 21
68.154728
  0
LINE
  8
1
 62
7
  6
CONTINUOUS
 10
86.383444
 20
67.404728
 11
91.880169
 21
67.404728
  0
LINE
  8
1
 62
7
  6
CONTINUOUS
 10
89.048440
 20
66.404728
 11
87.848440
 21
66.404728
  0
LINE
  8
1
 62
7
  6
CONTINUOUS
 10
89.048440
 20
66.604728
 11
87.848440
 21
66.604728
  0
LINE
  8
1
 62
7
  6
CONTINUOUS
 10
87.848440
 20
68.204728
 11
89.048440
 21
68.204728
  0
LINE
  8
1
 62
7
  6
CONTINUOUS
 10
87.848440
 20
68.404728
 11
89.048440
 21
68.404728
  0
LINE
  8
1
 62
7
  6
CONTINUOUS
 10
87.848440
 20
66.404728
 11
87.848440
 21
66.604728
  0
LINE
  8
1
 62
7
  6
CONTINUOUS
 10
87.848440
 20
66.604728
 11
87.648440
 21
66.604728
  0
LINE
  8
1
 62
7
  6
CONTINUOUS
 10
87.648440
 20
66.604728
 11
87.648440
 21
68.204728
  0
LINE
  8
1
 62
7
  6
CONTINUOUS
 10
87.648440
 20
68.204728
 11
87.848440
 21
68.204728
  0
LINE
  8
1
 62
7
  6
CONTINUOUS
 10
87.848440
 20
66.604728
 11
87.848440
 21
68.204728
  0
LINE
  8
1
 62
7
  6
CONTINUOUS
 10
87.848440
 20
66.404728
 11
87.648440
 21
66.604728
  0
LINE
  8
1
 62
7
  6
CONTINUOUS
 10
87.848440
 20
68.204728
 11
87.848440
 21
68.404728
  0
LINE
  8
1
 62
7
  6
CONTINUOUS
 10
87.648440
 20
68.204728
 11
87.848440
 21
68.404728
  0
LINE
  8
1
 62
7
  6
CONTINUOUS
 10
89.048440
 20
68.919728
 11
89.048440
 21
65.889728
  0
LINE
  8
1
 62
7
  6
CONTINUOUS
 10
89.227976
 20
66.394728
 11
89.848440
 21
66.394728
  0
LINE
  8
1
 62
7
  6
CONTINUOUS
 10
89.227976
 20
68.414728
 11
89.848440
 21
68.414728
  0
LINE
  8
1
 62
7
  6
CONTINUOUS
 10
89.227976
 20
69.424728
 11
89.848440
 21
69.424728
  0
LINE
  8
1
 62
7
  6
CONTINUOUS
 10
89.227976
 20
65.384728
 11
89.848440
 21
65.384728
  0
LINE
  8
1
 62
7
  6
CONTINUOUS
 10
89.848440
 20
66.394728
 11
90.468903
 21
66.394728
  0
LINE
  8
1
 62
7
  6
CONTINUOUS
 10
89.848440
 20
68.414728
 11
90.468903
 21
68.414728
  0
LINE
  8
1
 62
7
  6
CONTINUOUS
 10
89.848440
 20
69.424728
 11
90.468903
 21
69.424728
  0
LINE
  8
1
 62
7
  6
CONTINUOUS
 10
89.848440
 20
65.384728
 11
90.468903
 21
65.384728
  0
LINE
  8
1
 62
7
  6
CONTINUOUS
 10
120.148440
 20
65.889728
 11
120.148440
 21
68.919728
  0
LINE
  8
1
 62
7
  6
CONTINUOUS
 10
115.648440
 20
46.780360
 11
115.648440
 21
39.780360
  0
LINE
  8
1
 62
7
  6
CONTINUOUS
 10
120.148440
 20
69.154728
 11
120.448440
 21
69.154728
  0
LINE
  8
1
 62
7
  6
CONTINUOUS
 10
86.383444
 20
42.655991
 11
91.880169
 21
42.655991
  0
LINE
  8
1
 62
7
  6
CONTINUOUS
 10
89.148440
 20
65.502430
 11
89.148440
 21
66.030254
  0
LINE
  8
1
 62
7
  6
CONTINUOUS
 10
119.648440
 20
44.405991
 11
119.648440
 21
40.905991
  0
LINE
  8
1
 62
7
  6
CONTINUOUS
 10
119.648440
 20
42.245796
 11
120.148440
 21
42.655991
  0
LINE
  8
1
 62
7
  6
CONTINUOUS
 10
119.648440
 20
42.655991
 11
120.148440
 21
43.066187
  0
LINE
  8
1
 62
7
  6
CONTINUOUS
 10
120.148440
 20
40.905991
 11
120.148440
 21
44.405991
  0
LINE
  8
1
 62
7
  6
CONTINUOUS
 10
119.648440
 20
40.905991
 11
120.148440
 21
40.905991
  0
LINE
  8
1
 62
7
  6
CONTINUOUS
 10
119.648440
 20
44.405991
 11
120.148440
 21
44.405991
  0
LINE
  8
1
 62
7
  6
CONTINUOUS
 10
120.148440
 20
40.905991
 11
120.448440
 21
40.905991
  0
LINE
  8
1
 62
7
  6
CONTINUOUS
 10
121.448440
 20
41.905991
 11
121.448440
 21
43.405991
  0
LINE
  8
1
 62
7
  6
CONTINUOUS
 10
120.148440
 20
41.140991
 11
120.148440
 21
44.170991
  0
LINE
  8
1
 62
7
  6
CONTINUOUS
 10
120.148440
 20
44.405991
 11
120.448440
 21
44.405991
  0
ARC
  8
1
 62
7
  6
CONTINUOUS
 10
47.624369
 20
42.618491
 40
1.125000
 50
-135.000000
 51
0.000000
  0
ARC
  8
1
 62
7
  6
CONTINUOUS
 10
47.624369
 20
42.618491
 40
1.125000
 50
0.000000
 51
-177.285856
  0
ARC
  8
1
 62
7
  6
CONTINUOUS
 10
47.624369
 20
42.618491
 40
1.125000
 50
-177.285856
 51
-135.000000
  0
ARC
  8
1
 62
7
  6
CONTINUOUS
 10
89.848440
 20
41.140991
 40
0.800000
 50
-39.142406
 51
0.000000
  0
ARC
  8
1
 62
7
  6
CONTINUOUS
 10
89.848440
 20
44.170991
 40
0.800000
 50
-39.142406
 51
0.000000
  0
ARC
  8
1
 62
7
  6
CONTINUOUS
 10
35.250000
 20
54.992860
 40
17.500000
 50
-52.886003
 51
-45.000000
  0
ARC
  8
1
 62
7
  6
CONTINUOUS
 10
35.250000
 20
54.992860
 40
17.500000
 50
36.208274
 51
68.568492
  0
ARC
  8
1
 62
7
  6
CONTINUOUS
 10
35.250000
 20
54.992860
 40
17.500000
 50
-142.878965
 51
-116.719613
  0
ARC
  8
1
 62
7
  6
CONTINUOUS
 10
35.250000
 20
54.992860
 40
17.500000
 50
-142.878965
 51
-116.719613
  0
ARC
  8
1
 62
7
  6
CONTINUOUS
 10
47.624369
 20
67.367228
 40
1.125000
 50
-135.000000
 51
0.000000
  0
ARC
  8
1
 62
7
  6
CONTINUOUS
 10
47.624369
 20
67.367228
 40
1.125000
 50
0.000000
 51
-177.285856
  0
ARC
  8
1
 62
7
  6
CONTINUOUS
 10
47.624369
 20
67.367228
 40
1.125000
 50
-177.285856
 51
-135.000000
  0
ARC
  8
1
 62
7
  6
CONTINUOUS
 10
35.250000
 20
54.992860
 40
17.500000
 50
127.113997
 51
143.631553
  0
ARC
  8
1
 62
7
  6
CONTINUOUS
 10
35.250000
 20
54.992860
 40
17.500000
 50
-45.000000
 51
-36.368447
  0
ARC
  8
1
 62
7
  6
CONTINUOUS
 10
87.717744
 20
42.655991
 40
2.930695
 50
-20.159096
 51
20.159096
  0
ARC
  8
1
 62
7
  6
CONTINUOUS
 10
89.848440
 20
41.140991
 40
0.800000
 50
0.000000
 51
39.142406
  0
ARC
  8
1
 62
7
  6
CONTINUOUS
 10
89.848440
 20
44.170991
 40
0.800000
 50
0.000000
 51
39.142406
  0
ARC
  8
1
 62
7
  6
CONTINUOUS
 10
91.979135
 20
42.655991
 40
2.930695
 50
159.840904
 51
-159.840904
  0
ARC
  8
1
 62
7
  6
CONTINUOUS
 10
89.848440
 20
41.140991
 40
0.800000
 50
140.857594
 51
-140.857594
  0
ARC
  8
1
 62
7
  6
CONTINUOUS
 10
89.848440
 20
44.170991
 40
0.800000
 50
140.857594
 51
-140.857594
  0
ARC
  8
1
 62
7
  6
CONTINUOUS
 10
81.148440
 20
69.030360
 40
7.500000
 50
-90.000000
 51
-68.960530
  0
ARC
  8
1
 62
7
  6
CONTINUOUS
 10
91.979135
 20
67.404728
 40
2.930695
 50
159.840904
 51
-159.840904
  0
ARC
  8
1
 62
7
  6
CONTINUOUS
 10
89.848440
 20
65.889728
 40
0.800000
 50
140.857594
 51
-140.857594
  0
ARC
  8
1
 62
7
  6
CONTINUOUS
 10
89.848440
 20
68.919728
 40
0.800000
 50
140.857594
 51
-140.857594
  0
ARC
  8
1
 62
7
  6
CONTINUOUS
 10
87.717744
 20
67.404728
 40
2.930695
 50
-20.159096
 51
20.159096
  0
ARC
  8
1
 62
7
  6
CONTINUOUS
 10
89.848440
 20
65.889728
 40
0.800000
 50
-39.142406
 51
39.142406
  0
ARC
  8
1
 62
7
  6
CONTINUOUS
 10
89.848440
 20
68.919728
 40
0.800000
 50
-39.142406
 51
39.142406
  0
CIRCLE
  8
1
 62
7
  6
CONTINUOUS
 10
22.875632
 20
67.367228
 40
1.000000
  0
CIRCLE
  8
1
 62
7
  6
CONTINUOUS
 10
22.875632
 20
67.367228
 40
1.750000
  0
CIRCLE
  8
1
 62
7
  6
CONTINUOUS
 10
47.624369
 20
42.618491
 40
1.000000
  0
CIRCLE
  8
1
 62
7
  6
CONTINUOUS
 10
47.624369
 20
42.618491
 40
1.750000
  0
CIRCLE
  8
1
 62
7
  6
CONTINUOUS
 10
35.250000
 20
54.992965
 40
17.500074
  0
CIRCLE
  8
1
 62
7
  6
CONTINUOUS
 10
22.875632
 20
42.618491
 40
1.125000
  0
CIRCLE
  8
1
 62
7
  6
CONTINUOUS
 10
22.875632
 20
67.367228
 40
1.125000
  0
CIRCLE
  8
1
 62
7
  6
CONTINUOUS
 10
47.624369
 20
42.618491
 40
2.876114
  0
CIRCLE
  8
1
 62
7
  6
CONTINUOUS
 10
22.875632
 20
67.367228
 40
2.876739
  0
CIRCLE
  8
1
 62
7
  6
CONTINUOUS
 10
22.875632
 20
42.618491
 40
2.877127
  0
CIRCLE
  8
1
 62
7
  6
CONTINUOUS
 10
47.624369
 20
67.367228
 40
2.889038
  0
CIRCLE
  8
1
 62
7
  6
CONTINUOUS
 10
35.250000
 20
59.992860
 40
2.000000
  0
CIRCLE
  8
1
 62
7
  6
CONTINUOUS
 10
22.875632
 20
42.618491
 40
1.000000
  0
CIRCLE
  8
1
 62
7
  6
CONTINUOUS
 10
22.875632
 20
42.618491
 40
1.750000
  0
CIRCLE
  8
1
 62
7
  6
CONTINUOUS
 10
47.624369
 20
67.367228
 40
1.000000
  0
CIRCLE
  8
1
 62
7
  6
CONTINUOUS
 10
47.624369
 20
67.367228
 40
1.750000
  0
CIRCLE
  8
1
 62
7
  6
CONTINUOUS
 10
35.250000
 20
59.992860
 40
6.250000
  0
ARC
  8
1
 62
7
  6
CONTINUOUS
 10
38.791088
 20
51.973922
 40
18.500106
 50
-109.059107
 51
-108.404750
  0
ARC
  8
1
 62
7
  6
CONTINUOUS
 10
34.862634
 20
40.167822
 40
6.057569
 50
-108.404750
 51
-106.421407
  0
ARC
  8
1
 62
7
  6
CONTINUOUS
 10
34.133306
 20
37.693193
 40
3.477703
 50
-106.421407
 51
-103.013702
  0
ARC
  8
1
 62
7
  6
CONTINUOUS
 10
33.882297
 20
36.607137
 40
2.363018
 50
-103.013702
 51
-98.080590
  0
ARC
  8
1
 62
7
  6
CONTINUOUS
 10
33.797045
 20
36.006669
 40
1.756528
 50
-98.080590
 51
-78.448410
  0
ARC
  8
1
 62
7
  6
CONTINUOUS
 10
33.214074
 20
38.858917
 40
4.667743
 50
-78.448410
 51
-73.399213
  0
ARC
  8
1
 62
7
  6
CONTINUOUS
 10
31.729893
 20
43.837252
 40
9.862607
 50
-73.399213
 51
-70.961403
  0
ARC
  8
1
 62
7
  6
CONTINUOUS
 10
37.088516
 20
28.101698
 40
6.760544
 50
104.921300
 51
108.466394
  0
ARC
  8
1
 62
7
  6
CONTINUOUS
 10
36.040305
 20
32.043400
 40
2.681849
 50
96.214319
 51
104.965958
  0
ARC
  8
1
 62
7
  6
CONTINUOUS
 10
35.967381
 20
32.493252
 40
2.226874
 50
87.910805
 51
95.601956
  0
ARC
  8
1
 62
7
  6
CONTINUOUS
 10
35.941512
 20
31.801334
 40
2.919275
 50
81.994334
 51
87.898492
  0
ARC
  8
1
 62
7
  6
CONTINUOUS
 10
35.755092
 20
30.473189
 40
4.260439
 50
77.897753
 51
81.999290
  0
ARC
  8
1
 62
7
  6
CONTINUOUS
 10
35.100561
 20
27.415070
 40
7.387819
 50
75.510262
 51
77.906838
  0
ARC
  8
1
 62
7
  6
CONTINUOUS
 10
31.276112
 20
12.606682
 40
22.682091
 50
74.729601
 51
75.516208
  0
ARC
  8
1
 62
7
  6
CONTINUOUS
 10
38.791088
 20
51.336598
 40
18.500107
 50
-109.059107
 51
-108.404750
  0
ARC
  8
1
 62
7
  6
CONTINUOUS
 10
34.862634
 20
39.530498
 40
6.057568
 50
-108.404750
 51
-106.421407
  0
ARC
  8
1
 62
7
  6
CONTINUOUS
 10
34.133306
 20
37.055869
 40
3.477703
 50
-106.421407
 51
-103.013702
  0
ARC
  8
1
 62
7
  6
CONTINUOUS
 10
33.882297
 20
35.969814
 40
2.363018
 50
-103.013702
 51
-98.080590
  0
ARC
  8
1
 62
7
  6
CONTINUOUS
 10
33.797045
 20
35.369345
 40
1.756528
 50
-98.080590
 51
-78.448410
  0
ARC
  8
1
 62
7
  6
CONTINUOUS
 10
33.214074
 20
38.221593
 40
4.667743
 50
-78.448410
 51
-73.399213
  0
ARC
  8
1
 62
7
  6
CONTINUOUS
 10
31.729893
 20
43.199928
 40
9.862607
 50
-73.399213
 51
-70.961403
  0
ARC
  8
1
 62
7
  6
CONTINUOUS
 10
37.088516
 20
27.464374
 40
6.760544
 50
104.921300
 51
108.466394
  0
ARC
  8
1
 62
7
  6
CONTINUOUS
 10
36.040305
 20
31.406076
 40
2.681849
 50
96.214319
 51
104.965958
  0
ARC
  8
1
 62
7
  6
CONTINUOUS
 10
35.967381
 20
31.855928
 40
2.226874
 50
87.910805
 51
95.601956
  0
ARC
  8
1
 62
7
  6
CONTINUOUS
 10
35.941512
 20
31.164010
 40
2.919275
 50
81.994334
 51
87.898492
  0
ARC
  8
1
 62
7
  6
CONTINUOUS
 10
35.755092
 20
29.835866
 40
4.260439
 50
77.897753
 51
81.999290
  0
ARC
  8
1
 62
7
  6
CONTINUOUS
 10
35.100560
 20
26.777746
 40
7.387819
 50
75.510262
 51
77.906838
  0
ARC
  8
1
 62
7
  6
CONTINUOUS
 10
31.276112
 20
11.969358
 40
22.682091
 50
74.729601
 51
75.516208
  0
ARC
  8
1
 62
7
  6
CONTINUOUS
 10
139.064527
 20
43.156847
 40
18.500106
 50
-109.059107
 51
-108.404750
  0
ARC
  8
1
 62
7
  6
CONTINUOUS
 10
135.136073
 20
31.350748
 40
6.057568
 50
-108.404750
 51
-106.421407
  0
ARC
  8
1
 62
7
  6
CONTINUOUS
 10
134.406745
 20
28.876119
 40
3.477702
 50
-106.421407
 51
-103.013702
  0
ARC
  8
1
 62
7
  6
CONTINUOUS
 10
134.155736
 20
27.790063
 40
2.363018
 50
-103.013702
 51
-98.080590
  0
ARC
  8
1
 62
7
  6
CONTINUOUS
 10
134.070484
 20
27.189595
 40
1.756528
 50
-98.080590
 51
-78.448410
  0
ARC
  8
1
 62
7
  6
CONTINUOUS
 10
133.487513
 20
30.041843
 40
4.667743
 50
-78.448410
 51
-73.399213
  0
ARC
  8
1
 62
7
  6
CONTINUOUS
 10
132.003332
 20
35.020178
 40
9.862607
 50
-73.399213
 51
-70.961403
  0
ARC
  8
1
 62
7
  6
CONTINUOUS
 10
137.361956
 20
19.284624
 40
6.760544
 50
104.921300
 51
108.466394
  0
ARC
  8
1
 62
7
  6
CONTINUOUS
 10
136.313744
 20
23.226326
 40
2.681849
 50
96.214319
 51
104.965958
  0
ARC
  8
1
 62
7
  6
CONTINUOUS
 10
136.240820
 20
23.676178
 40
2.226874
 50
87.910804
 51
95.601956
  0
ARC
  8
1
 62
7
  6
CONTINUOUS
 10
136.214952
 20
22.984260
 40
2.919275
 50
81.994334
 51
87.898492
  0
ARC
  8
1
 62
7
  6
CONTINUOUS
 10
136.028531
 20
21.656115
 40
4.260439
 50
77.897753
 51
81.999290
  0
ARC
  8
1
 62
7
  6
CONTINUOUS
 10
135.374000
 20
18.597996
 40
7.387819
 50
75.510262
 51
77.906838
  0
ARC
  8
1
 62
7
  6
CONTINUOUS
 10
131.549551
 20
3.789608
 40
22.682091
 50
74.729601
 51
75.516208
  0
ARC
  8
1
 62
7
  6
CONTINUOUS
 10
139.064527
 20
43.794170
 40
18.500105
 50
-109.059107
 51
-108.404750
  0
ARC
  8
1
 62
7
  6
CONTINUOUS
 10
135.136073
 20
31.988071
 40
6.057568
 50
-108.404750
 51
-106.421407
  0
ARC
  8
1
 62
7
  6
CONTINUOUS
 10
134.406745
 20
29.513442
 40
3.477703
 50
-106.421407
 51
-103.013702
  0
ARC
  8
1
 62
7
  6
CONTINUOUS
 10
134.155736
 20
28.427387
 40
2.363018
 50
-103.013702
 51
-98.080590
  0
ARC
  8
1
 62
7
  6
CONTINUOUS
 10
134.070484
 20
27.826918
 40
1.756528
 50
-98.080590
 51
-78.448410
  0
ARC
  8
1
 62
7
  6
CONTINUOUS
 10
133.487513
 20
30.679167
 40
4.667743
 50
-78.448410
 51
-73.399213
  0
ARC
  8
1
 62
7
  6
CONTINUOUS
 10
132.003332
 20
35.657502
 40
9.862607
 50
-73.399213
 51
-70.961403
  0
ARC
  8
1
 62
7
  6
CONTINUOUS
 10
137.361956
 20
19.921947
 40
6.760544
 50
104.921300
 51
108.466394
  0
ARC
  8
1
 62
7
  6
CONTINUOUS
 10
136.313744
 20
23.863649
 40
2.681849
 50
96.214319
 51
104.965958
  0
ARC
  8
1
 62
7
  6
CONTINUOUS
 10
136.240820
 20
24.313502
 40
2.226874
 50
87.910805
 51
95.601956
  0
ARC
  8
1
 62
7
  6
CONTINUOUS
 10
136.214952
 20
23.621583
 40
2.919275
 50
81.994334
 51
87.898492
  0
ARC
  8
1
 62
7
  6
CONTINUOUS
 10
136.028531
 20
22.293439
 40
4.260439
 50
77.897753
 51
81.999290
  0
ARC
  8
1
 62
7
  6
CONTINUOUS
 10
135.374000
 20
19.235320
 40
7.387819
 50
75.510262
 51
77.906838
  0
ARC
  8
1
 62
7
  6
CONTINUOUS
 10
131.549551
 20
4.426932
 40
22.682091
 50
74.729601
 51
75.516208
  0
ARC
  8
1
 62
7
  6
CONTINUOUS
 10
41.500000
 20
38.492860
 40
0.500000
 50
-90.000000
 51
0.000000
  0
ARC
  8
1
 62
7
  6
CONTINUOUS
 10
29.000000
 20
38.492860
 40
0.500000
 50
180.000000
 51
-90.000000
  0
ARC
  8
1
 62
7
  6
CONTINUOUS
 10
43.000000
 20
38.742860
 40
1.000000
 50
90.000000
 51
180.000000
  0
ARC
  8
1
 62
7
  6
CONTINUOUS
 10
27.500000
 20
38.742860
 40
1.000000
 50
0.000000
 51
90.000000
  0
ARC
  8
1
 62
7
  6
CONTINUOUS
 10
22.000000
 20
68.242860
 40
2.000000
 50
90.000000
 51
180.000000
  0
ARC
  8
1
 62
7
  6
CONTINUOUS
 10
48.500000
 20
68.242860
 40
2.000000
 50
0.000000
 51
90.000000
  0
ARC
  8
1
 62
7
  6
CONTINUOUS
 10
90.898440
 20
53.530360
 40
0.250000
 50
0.000000
 51
90.000000
  0
ARC
  8
1
 62
7
  6
CONTINUOUS
 10
90.898440
 20
45.281622
 40
0.250000
 50
90.000000
 51
180.000000
  0
ARC
  8
1
 62
7
  6
CONTINUOUS
 10
90.898440
 20
40.030360
 40
0.250000
 50
180.000000
 51
-90.000000
  0
ARC
  8
1
 62
7
  6
CONTINUOUS
 10
89.398440
 20
54.030360
 40
0.250000
 50
180.000000
 51
-90.000000
  0
ARC
  8
1
 62
7
  6
CONTINUOUS
 10
89.398440
 20
66.030254
 40
0.250000
 50
89.975885
 51
180.000000
  0
ARC
  8
1
 62
7
  6
CONTINUOUS
 10
90.898440
 20
64.779097
 40
0.250000
 50
180.000000
 51
-90.000000
  0
ARC
  8
1
 62
7
  6
CONTINUOUS
 10
90.898440
 20
70.030360
 40
0.250000
 50
90.000000
 51
180.000000
  0
ARC
  8
1
 62
7
  6
CONTINUOUS
 10
120.448440
 20
68.154728
 40
1.000000
 50
0.000000
 51
90.000000
  0
ARC
  8
1
 62
7
  6
CONTINUOUS
 10
120.448440
 20
66.654728
 40
1.000000
 50
-90.000000
 51
0.000000
  0
ARC
  8
1
 62
7
  6
CONTINUOUS
 10
120.448440
 20
43.405991
 40
1.000000
 50
0.000000
 51
90.000000
  0
ARC
  8
1
 62
7
  6
CONTINUOUS
 10
120.448440
 20
41.905991
 40
1.000000
 50
-90.000000
 51
0.000000
  0
LINE
  8
1
 62
7
  6
CONTINUOUS
 10
65.735123
 20
45.971414
 11
81.009459
 21
45.971414
  0
LINE
  8
1
 62
7
  6
CONTINUOUS
 10
81.009459
 20
45.971414
 11
87.648440
 21
42.655991
  0
LINE
  8
1
 62
7
  6
CONTINUOUS
 10
84.597350
 20
43.708768
 11
84.973792
 21
44.462575
  0
LINE
  8
1
 62
7
  6
CONTINUOUS
 10
84.973792
 20
44.462575
 11
87.648440
 21
42.655991
  0
LINE
  8
1
 62
7
  6
CONTINUOUS
 10
87.648440
 20
42.655991
 11
84.597350
 21
43.708768
  0
TEXT
  8
1
 62
7
  6
CONTINUOUS
 10
67.176910
 20
46.625744
 40
2.800000
 41
0.900000
  1
M4ü~70
  7
KANJI
 50
0.000000
 51
0.000000
  0
LINE
  8
1
 62
7
  6
CONTINUOUS
 10
146.062007
 20
18.155771
 11
146.062007
 21
37.492860
  0
LINE
  8
1
 62
7
  6
CONTINUOUS
 10
138.117493
 20
18.155771
 11
147.562007
 21
18.155771
  0
LINE
  8
1
 62
7
  6
CONTINUOUS
 10
139.648440
 20
37.492860
 11
147.562007
 21
37.492860
  0
LINE
  8
1
 62
7
  6
CONTINUOUS
 10
146.062007
 20
37.492860
 11
146.426007
 21
34.692860
  0
LINE
  8
1
 62
7
  6
CONTINUOUS
 10
146.426007
 20
34.692860
 11
145.698007
 21
34.692860
  0
LINE
  8
1
 62
7
  6
CONTINUOUS
 10
145.698007
 20
34.692860
 11
146.062007
 21
37.492860
  0
LINE
  8
1
 62
7
  6
CONTINUOUS
 10
146.062007
 20
18.155771
 11
145.698007
 21
20.955771
  0
LINE
  8
1
 62
7
  6
CONTINUOUS
 10
145.698007
 20
20.955771
 11
146.426007
 21
20.955771
  0
LINE
  8
1
 62
7
  6
CONTINUOUS
 10
146.426007
 20
20.955771
 11
146.062007
 21
18.155771
  0
TEXT
  8
1
 62
7
  6
CONTINUOUS
 10
143.362007
 20
22.206681
 40
2.800000
 41
0.900000
  1
300
  7
KANJI
 50
90.000000
 51
0.000000
  0
TEXT
  8
1
 62
7
  6
CONTINUOUS
 10
141.542007
 20
30.326681
 40
1.680000
 41
0.900000
  1
+30
  7
KANJI
 50
90.000000
 51
0.000000
  0
TEXT
  8
1
 62
7
  6
CONTINUOUS
 10
144.062007
 20
31.838681
 40
1.680000
 41
0.900000
  1
 0
  7
KANJI
 50
90.000000
 51
0.000000
  0
LINE
  8
1
 62
7
  6
CONTINUOUS
 10
25.509784
 20
59.992860
 11
25.509784
 21
65.592860
  0
LINE
  8
1
 62
7
  6
CONTINUOUS
 10
25.509784
 20
54.992860
 11
25.509784
 21
49.392860
  0
LINE
  8
1
 62
7
  6
CONTINUOUS
 10
25.509784
 20
54.992860
 11
25.509784
 21
59.992860
  0
LINE
  8
1
 62
7
  6
CONTINUOUS
 10
31.353239
 20
59.992860
 11
24.009784
 21
59.992860
  0
LINE
  8
1
 62
7
  6
CONTINUOUS
 10
50.318701
 20
54.992860
 11
24.009784
 21
54.992860
  0
LINE
  8
1
 62
7
  6
CONTINUOUS
 10
25.509784
 20
59.992860
 11
25.145784
 21
62.792860
  0
LINE
  8
1
 62
7
  6
CONTINUOUS
 10
25.145784
 20
62.792860
 11
25.873784
 21
62.792860
  0
LINE
  8
1
 62
7
  6
CONTINUOUS
 10
25.873784
 20
62.792860
 11
25.509784
 21
59.992860
  0
LINE
  8
1
 62
7
  6
CONTINUOUS
 10
25.509784
 20
54.992860
 11
25.873784
 21
52.192860
  0
LINE
  8
1
 62
7
  6
CONTINUOUS
 10
25.873784
 20
52.192860
 11
25.145784
 21
52.192860
  0
LINE
  8
1
 62
7
  6
CONTINUOUS
 10
25.145784
 20
52.192860
 11
25.509784
 21
54.992860
  0
TEXT
  8
1
 62
7
  6
CONTINUOUS
 10
23.509784
 20
55.961255
 40
2.800000
 41
0.900000
  1
10
  7
KANJI
 50
90.000000
 51
0.000000
  0
LINE
  8
1
 62
7
  6
CONTINUOUS
 10
89.148440
 20
75.280360
 11
83.548440
 21
75.280360
  0
LINE
  8
1
 62
7
  6
CONTINUOUS
 10
89.148440
 20
75.280360
 11
90.648440
 21
75.280360
  0
LINE
  8
1
 62
7
  6
CONTINUOUS
 10
96.248440
 20
75.280360
 11
90.648440
 21
75.280360
  0
LINE
  8
1
 62
7
  6
CONTINUOUS
 10
90.648440
 20
71.030360
 11
90.648440
 21
76.780360
  0
LINE
  8
1
 62
7
  6
CONTINUOUS
 10
89.148440
 20
67.030254
 11
89.148440
 21
76.780360
  0
LINE
  8
1
 62
7
  6
CONTINUOUS
 10
89.148440
 20
75.280360
 11
86.348440
 21
74.916360
  0
LINE
  8
1
 62
7
  6
CONTINUOUS
 10
86.348440
 20
74.916360
 11
86.348440
 21
75.644360
  0
LINE
  8
1
 62
7
  6
CONTINUOUS
 10
86.348440
 20
75.644360
 11
89.148440
 21
75.280360
  0
LINE
  8
1
 62
7
  6
CONTINUOUS
 10
90.648440
 20
75.280360
 11
93.448440
 21
75.644360
  0
LINE
  8
1
 62
7
  6
CONTINUOUS
 10
93.448440
 20
75.644360
 11
93.448440
 21
74.916360
  0
LINE
  8
1
 62
7
  6
CONTINUOUS
 10
93.448440
 20
74.916360
 11
90.648440
 21
75.280360
  0
TEXT
  8
1
 62
7
  6
CONTINUOUS
 10
84.967908
 20
77.280360
 40
2.800000
 41
0.900000
  1
3
  7
KANJI
 50
0.000000
 51
0.000000
  0
LINE
  8
1
 62
7
  6
CONTINUOUS
 10
90.648440
 20
82.280360
 11
115.648440
 21
82.280360
  0
LINE
  8
1
 62
7
  6
CONTINUOUS
 10
115.648440
 20
71.280360
 11
115.648440
 21
83.780360
  0
LINE
  8
1
 62
7
  6
CONTINUOUS
 10
90.648440
 20
71.030360
 11
90.648440
 21
83.780360
  0
LINE
  8
1
 62
7
  6
CONTINUOUS
 10
90.648440
 20
82.280360
 11
93.448440
 21
82.644360
  0
LINE
  8
1
 62
7
  6
CONTINUOUS
 10
93.448440
 20
82.644360
 11
93.448440
 21
81.916360
  0
LINE
  8
1
 62
7
  6
CONTINUOUS
 10
93.448440
 20
81.916360
 11
90.648440
 21
82.280360
  0
LINE
  8
1
 62
7
  6
CONTINUOUS
 10
115.648440
 20
82.280360
 11
112.848440
 21
81.916360
  0
LINE
  8
1
 62
7
  6
CONTINUOUS
 10
112.848440
 20
81.916360
 11
112.848440
 21
82.644360
  0
LINE
  8
1
 62
7
  6
CONTINUOUS
 10
112.848440
 20
82.644360
 11
115.648440
 21
82.280360
  0
TEXT
  8
1
 62
7
  6
CONTINUOUS
 10
101.036243
 20
84.280360
 40
2.800000
 41
0.900000
  1
50
  7
KANJI
 50
0.000000
 51
0.000000
  0
LINE
  8
1
 62
7
  6
CONTINUOUS
 10
119.648440
 20
75.280360
 11
125.248440
 21
75.280360
  0
LINE
  8
1
 62
7
  6
CONTINUOUS
 10
115.648440
 20
75.280360
 11
110.048440
 21
75.280360
  0
LINE
  8
1
 62
7
  6
CONTINUOUS
 10
115.648440
 20
75.280360
 11
119.648440
 21
75.280360
  0
LINE
  8
1
 62
7
  6
CONTINUOUS
 10
119.648440
 20
70.992860
 11
119.648440
 21
76.780360
  0
LINE
  8
1
 62
7
  6
CONTINUOUS
 10
115.648440
 20
70.992860
 11
115.648440
 21
76.780360
  0
LINE
  8
1
 62
7
  6
CONTINUOUS
 10
115.648440
 20
75.280360
 11
112.848440
 21
74.916360
  0
LINE
  8
1
 62
7
  6
CONTINUOUS
 10
112.848440
 20
74.916360
 11
112.848440
 21
75.644360
  0
LINE
  8
1
 62
7
  6
CONTINUOUS
 10
112.848440
 20
75.644360
 11
115.648440
 21
75.280360
  0
LINE
  8
1
 62
7
  6
CONTINUOUS
 10
119.648440
 20
75.280360
 11
122.448440
 21
75.644360
  0
LINE
  8
1
 62
7
  6
CONTINUOUS
 10
122.448440
 20
75.644360
 11
122.448440
 21
74.916360
  0
LINE
  8
1
 62
7
  6
CONTINUOUS
 10
122.448440
 20
74.916360
 11
119.648440
 21
75.280360
  0
TEXT
  8
1
 62
7
  6
CONTINUOUS
 10
117.225271
 20
77.280360
 40
2.800000
 41
0.900000
  1
8
  7
KANJI
 50
0.000000
 51
0.000000
  0
LINE
  8
1
 62
7
  6
CONTINUOUS
 10
115.648440
 20
82.280360
 11
138.648440
 21
82.280360
  0
LINE
  8
1
 62
7
  6
CONTINUOUS
 10
138.648440
 20
71.242860
 11
138.648440
 21
83.780360
  0
LINE
  8
1
 62
7
  6
CONTINUOUS
 10
115.648440
 20
70.992860
 11
115.648440
 21
83.780360
  0
LINE
  8
1
 62
7
  6
CONTINUOUS
 10
115.648440
 20
82.280360
 11
118.448440
 21
82.644360
  0
LINE
  8
1
 62
7
  6
CONTINUOUS
 10
118.448440
 20
82.644360
 11
118.448440
 21
81.916360
  0
LINE
  8
1
 62
7
  6
CONTINUOUS
 10
118.448440
 20
81.916360
 11
115.648440
 21
82.280360
  0
LINE
  8
1
 62
7
  6
CONTINUOUS
 10
138.648440
 20
82.280360
 11
135.848440
 21
81.916360
  0
LINE
  8
1
 62
7
  6
CONTINUOUS
 10
135.848440
 20
81.916360
 11
135.848440
 21
82.644360
  0
LINE
  8
1
 62
7
  6
CONTINUOUS
 10
135.848440
 20
82.644360
 11
138.648440
 21
82.280360
  0
TEXT
  8
1
 62
7
  6
CONTINUOUS
 10
125.740229
 20
84.280360
 40
2.800000
 41
0.900000
  1
46
  7
KANJI
 50
0.000000
 51
0.000000
  0
LINE
  8
1
 62
7
  6
CONTINUOUS
 10
71.894325
 20
55.930360
 11
71.894325
 21
61.530360
  0
LINE
  8
1
 62
7
  6
CONTINUOUS
 10
71.894325
 20
61.530360
 11
71.894325
 21
62.030360
  0
LINE
  8
1
 62
7
  6
CONTINUOUS
 10
71.894325
 20
62.030360
 11
71.894325
 21
67.630360
  0
LINE
  8
1
 62
7
  6
CONTINUOUS
 10
73.898440
 20
61.530360
 11
70.894325
 21
61.530360
  0
LINE
  8
1
 62
7
  6
CONTINUOUS
 10
82.841022
 20
62.030360
 11
70.894325
 21
62.030360
  0
LINE
  8
1
 62
7
  6
CONTINUOUS
 10
71.894325
 20
62.030360
 11
71.530325
 21
64.830360
  0
LINE
  8
1
 62
7
  6
CONTINUOUS
 10
71.530325
 20
64.830360
 11
72.258325
 21
64.830360
  0
LINE
  8
1
 62
7
  6
CONTINUOUS
 10
72.258325
 20
64.830360
 11
71.894325
 21
62.030360
  0
LINE
  8
1
 62
7
  6
CONTINUOUS
 10
71.894325
 20
61.530360
 11
72.258325
 21
58.730360
  0
LINE
  8
1
 62
7
  6
CONTINUOUS
 10
72.258325
 20
58.730360
 11
71.530325
 21
58.730360
  0
LINE
  8
1
 62
7
  6
CONTINUOUS
 10
71.530325
 20
58.730360
 11
71.894325
 21
61.530360
  0
TEXT
  8
1
 62
7
  6
CONTINUOUS
 10
69.894325
 20
64.083992
 40
2.800000
 41
0.900000
  1
1
  7
KANJI
 50
90.000000
 51
0.000000
  0
LINE
  8
1
 62
7
  6
CONTINUOUS
 10
66.148495
 20
58.030360
 11
66.148495
 21
62.030360
  0
LINE
  8
1
 62
7
  6
CONTINUOUS
 10
66.148495
 20
58.030360
 11
66.148495
 21
52.430360
  0
LINE
  8
1
 62
7
  6
CONTINUOUS
 10
66.148495
 20
62.030360
 11
66.148495
 21
67.630360
  0
LINE
  8
1
 62
7
  6
CONTINUOUS
 10
73.898440
 20
58.030360
 11
65.148495
 21
58.030360
  0
LINE
  8
1
 62
7
  6
CONTINUOUS
 10
82.841022
 20
62.030360
 11
65.148495
 21
62.030360
  0
LINE
  8
1
 62
7
  6
CONTINUOUS
 10
66.148495
 20
62.030360
 11
65.784495
 21
64.830360
  0
LINE
  8
1
 62
7
  6
CONTINUOUS
 10
65.784495
 20
64.830360
 11
66.512495
 21
64.830360
  0
LINE
  8
1
 62
7
  6
CONTINUOUS
 10
66.512495
 20
64.830360
 11
66.148495
 21
62.030360
  0
LINE
  8
1
 62
7
  6
CONTINUOUS
 10
66.148495
 20
58.030360
 11
66.512495
 21
55.230360
  0
LINE
  8
1
 62
7
  6
CONTINUOUS
 10
66.512495
 20
55.230360
 11
65.784495
 21
55.230360
  0
LINE
  8
1
 62
7
  6
CONTINUOUS
 10
65.784495
 20
55.230360
 11
66.148495
 21
58.030360
  0
TEXT
  8
1
 62
7
  6
CONTINUOUS
 10
63.098495
 20
57.378760
 40
2.800000
 41
0.720000
  1
8
  7
KANJI
 50
90.000000
 51
0.000000
  0
TEXT
  8
1
 62
7
  6
CONTINUOUS
 10
61.208495
 20
60.122760
 40
1.960000
 41
0.720000
  1
 0
  7
KANJI
 50
90.000000
 51
0.000000
  0
TEXT
  8
1
 62
7
  6
CONTINUOUS
 10
64.148495
 20
60.122760
 40
1.960000
 41
0.720000
  1
-0.02
  7
KANJI
 50
90.000000
 51
0.000000
  0
TEXT
  8
1
 62
7
  6
CONTINUOUS
 10
63.098495
 20
54.410760
 40
2.800000
 41
0.720000
  1
âË
  7
KANJI
 50
90.000000
 51
0.000000
  0
LINE
  8
1
 62
7
  6
CONTINUOUS
 10
58.657635
 20
53.780360
 11
58.657635
 21
66.280360
  0
LINE
  8
1
 62
7
  6
CONTINUOUS
 10
88.398440
 20
53.780360
 11
57.657635
 21
53.780360
  0
LINE
  8
1
 62
7
  6
CONTINUOUS
 10
88.398440
 20
66.280360
 11
57.657635
 21
66.280360
  0
LINE
  8
1
 62
7
  6
CONTINUOUS
 10
58.657635
 20
66.280360
 11
59.021635
 21
63.480360
  0
LINE
  8
1
 62
7
  6
CONTINUOUS
 10
59.021635
 20
63.480360
 11
58.293635
 21
63.480360
  0
LINE
  8
1
 62
7
  6
CONTINUOUS
 10
58.293635
 20
63.480360
 11
58.657635
 21
66.280360
  0
LINE
  8
1
 62
7
  6
CONTINUOUS
 10
58.657635
 20
53.780360
 11
58.293635
 21
56.580360
  0
LINE
  8
1
 62
7
  6
CONTINUOUS
 10
58.293635
 20
56.580360
 11
59.021635
 21
56.580360
  0
LINE
  8
1
 62
7
  6
CONTINUOUS
 10
59.021635
 20
56.580360
 11
58.657635
 21
53.780360
  0
TEXT
  8
1
 62
7
  6
CONTINUOUS
 10
56.657635
 20
59.610360
 40
2.800000
 41
0.900000
  1
25
  7
KANJI
 50
90.000000
 51
0.000000
  0
TEXT
  8
1
 62
7
  6
CONTINUOUS
 10
56.657635
 20
56.250360
 40
2.800000
 41
0.900000
  1
âË
  7
KANJI
 50
90.000000
 51
0.000000
  0
LINE
  8
1
 62
7
  6
CONTINUOUS
 10
81.148440
 20
69.247190
 11
86.748440
 21
69.247190
  0
LINE
  8
1
 62
7
  6
CONTINUOUS
 10
74.648440
 20
69.247190
 11
69.048440
 21
69.247190
  0
LINE
  8
1
 62
7
  6
CONTINUOUS
 10
74.648440
 20
69.247190
 11
81.148440
 21
69.247190
  0
LINE
  8
1
 62
7
  6
CONTINUOUS
 10
81.148440
 20
62.530360
 11
81.148440
 21
70.247190
  0
LINE
  8
1
 62
7
  6
CONTINUOUS
 10
74.648440
 20
62.530360
 11
74.648440
 21
70.247190
  0
LINE
  8
1
 62
7
  6
CONTINUOUS
 10
74.648440
 20
69.247190
 11
71.848440
 21
68.883190
  0
LINE
  8
1
 62
7
  6
CONTINUOUS
 10
71.848440
 20
68.883190
 11
71.848440
 21
69.611190
  0
LINE
  8
1
 62
7
  6
CONTINUOUS
 10
71.848440
 20
69.611190
 11
74.648440
 21
69.247190
  0
LINE
  8
1
 62
7
  6
CONTINUOUS
 10
81.148440
 20
69.247190
 11
83.948440
 21
69.611190
  0
LINE
  8
1
 62
7
  6
CONTINUOUS
 10
83.948440
 20
69.611190
 11
83.948440
 21
68.883190
  0
LINE
  8
1
 62
7
  6
CONTINUOUS
 10
83.948440
 20
68.883190
 11
81.148440
 21
69.247190
  0
TEXT
  8
1
 62
7
  6
CONTINUOUS
 10
76.396804
 20
71.247190
 40
2.800000
 41
0.900000
  1
13
  7
KANJI
 50
0.000000
 51
0.000000
  0
LINE
  8
1
 62
7
  6
CONTINUOUS
 10
74.648440
 20
82.280360
 11
90.648440
 21
82.280360
  0
LINE
  8
1
 62
7
  6
CONTINUOUS
 10
90.648440
 20
71.030360
 11
90.648440
 21
83.280360
  0
LINE
  8
1
 62
7
  6
CONTINUOUS
 10
74.648440
 20
62.530360
 11
74.648440
 21
83.280360
  0
LINE
  8
1
 62
7
  6
CONTINUOUS
 10
74.648440
 20
82.280360
 11
77.448440
 21
82.644360
  0
LINE
  8
1
 62
7
  6
CONTINUOUS
 10
77.448440
 20
82.644360
 11
77.448440
 21
81.916360
  0
LINE
  8
1
 62
7
  6
CONTINUOUS
 10
77.448440
 20
81.916360
 11
74.648440
 21
82.280360
  0
LINE
  8
1
 62
7
  6
CONTINUOUS
 10
90.648440
 20
82.280360
 11
87.848440
 21
81.916360
  0
LINE
  8
1
 62
7
  6
CONTINUOUS
 10
87.848440
 20
81.916360
 11
87.848440
 21
82.644360
  0
LINE
  8
1
 62
7
  6
CONTINUOUS
 10
87.848440
 20
82.644360
 11
90.648440
 21
82.280360
  0
TEXT
  8
1
 62
7
  6
CONTINUOUS
 10
80.775420
 20
84.280360
 40
2.800000
 41
0.900000
  1
32
  7
KANJI
 50
0.000000
 51
0.000000
  0
LINE
  8
1
 62
7
  6
CONTINUOUS
 10
20.000000
 20
80.000000
 11
50.500000
 21
80.000000
  0
LINE
  8
1
 62
7
  6
CONTINUOUS
 10
20.000000
 20
69.242860
 11
20.000000
 21
81.000000
  0
LINE
  8
1
 62
7
  6
CONTINUOUS
 10
50.500000
 20
69.242860
 11
50.500000
 21
81.000000
  0
LINE
  8
1
 62
7
  6
CONTINUOUS
 10
20.000000
 20
80.000000
 11
22.800000
 21
80.364000
  0
LINE
  8
1
 62
7
  6
CONTINUOUS
 10
22.800000
 20
80.364000
 11
22.800000
 21
79.636000
  0
LINE
  8
1
 62
7
  6
CONTINUOUS
 10
22.800000
 20
79.636000
 11
20.000000
 21
80.000000
  0
LINE
  8
1
 62
7
  6
CONTINUOUS
 10
50.500000
 20
80.000000
 11
47.700000
 21
79.636000
  0
LINE
  8
1
 62
7
  6
CONTINUOUS
 10
47.700000
 20
79.636000
 11
47.700000
 21
80.364000
  0
LINE
  8
1
 62
7
  6
CONTINUOUS
 10
47.700000
 20
80.364000
 11
50.500000
 21
80.000000
  0
TEXT
  8
1
 62
7
  6
CONTINUOUS
 10
32.010602
 20
82.000000
 40
2.800000
 41
0.900000
  1
üá61
  7
KANJI
 50
0.000000
 51
0.000000
  0
LINE
  8
1
 62
7
  6
CONTINUOUS
 10
43.135135
 20
70.615937
 11
27.364865
 21
39.369993
  0
LINE
  8
1
 62
7
  6
CONTINUOUS
 10
27.364865
 20
39.369993
 11
28.301525
 21
42.033668
  0
LINE
  8
1
 62
7
  6
CONTINUOUS
 10
28.301525
 20
42.033668
 11
28.951438
 21
41.705648
  0
LINE
  8
1
 62
7
  6
CONTINUOUS
 10
28.951438
 20
41.705648
 11
27.364865
 21
39.369993
  0
LINE
  8
1
 62
7
  6
CONTINUOUS
 10
43.135135
 20
70.615937
 11
42.198475
 21
67.952262
  0
LINE
  8
1
 62
7
  6
CONTINUOUS
 10
42.198475
 20
67.952262
 11
41.548562
 21
68.280282
  0
LINE
  8
1
 62
7
  6
CONTINUOUS
 10
41.548562
 20
68.280282
 11
43.135135
 21
70.615937
  0
TEXT
  8
1
 62
7
  6
CONTINUOUS
 10
29.273245
 20
47.589853
 40
2.800000
 41
0.900000
  1
70
  7
KANJI
 50
63.219276
 51
0.000000
  0
TEXT
  8
1
 62
7
  6
CONTINUOUS
 10
27.759306
 20
44.590256
 40
2.800000
 41
0.900000
  1
âË
  7
KANJI
 50
63.219276
 51
0.000000
  0
ENDSEC
  0
EOF
