  0
SECTION
  2
HEADER
  9
$ACADVER
  1
AC1003
  9
$INSBASE
 10
0.000000
 20
0.000000
  9
$EXTMIN
 10
0.000000
 20
0.000000
  9
$EXTMAX
 10
420.000000
 20
297.000000
  9
$LIMMIN
 10
0.000000
 20
0.000000
  9
$LIMMAX
 10
420.000000
 20
297.000000
  9
$VIEWCTR
 10
210.000000
 20
148.500000
  9
$VIEWSIZE
 40
297.000000
  9
$PEXTMIN
 10
0.000000
 20
0.000000
 30
0.000000
  9
$PEXTMAX
 10
420.000000
 20
297.000000
 30
0.000000
  9
$SNAPMODE
 70
     0
  9
$SNAPUNIT
 10
1.000000
 20
1.000000
  9
$SNAPBASE
 10
0.000000
 20
0.000000
  9
$SNAPANG
 50
0.000000
  9
$SNAPISOPAIR
 70
     0
  9
$SNAPSTYLE
 70
     0
  9
$GRIDMODE
 70
     0
  9
$GRIDUNIT
 10
0.000000
 20
0.000000
  9
$ORTHOMODE
 70
     0
  9
$REGENMODE
 70
     1
  9
$FILLMODE
 70
     1
  9
$QTEXTMODE
 70
     0
  9
$DRAGMODE
 70
     2
  9
$LTSCALE
 40
0.250000
  9
$OSMODE
 70
     0
  9
$ATTMODE
 70
     1
  9
$TEXTSIZE
 40
0.200000
  9
$TRACEWID
 40
0.050000
  9
$TEXTSTYLE
  7
STANDARD
  9
$CLAYER
  8
0
  9
$CELTYPE
  6
BYLAYER
  9
$CECOLOR
 62
   256
  9
$DIMSCALE
 40
1.000000
  9
$DIMASZ
 40
1.000000
  9
$DIMEXO
 40
0.000000
  9
$DIMDLI
 40
0.500000
  9
$DIMRND
 40
0.000000
  9
$DIMDLE
 40
0.000000
  9
$DIMEXE
 40
0.000000
  9
$DIMTP
 40
0.000000
  9
$DIMTM
 40
0.000000
  9
$DIMTXT
 40
0.180000
  9
$DIMCEN
 40
0.000000
  9
$DIMTSZ
 40
0.000000
  9
$DIMTOL
 70
     0
  9
$DIMLIM
 70
     0
  9
$DIMTIH
 70
     1
  9
$DIMTOH
 70
     1
  9
$DIMSE1
 70
     0
  9
$DIMSE2
 70
     0
  9
$DIMTAD
 70
     0
  9
$DIMZIN
 70
     0
  9
$DIMBLK
  1

  9
$DIMASO
 70
     0
  9
$DIMSHO
 70
     0
  9
$DIMPOST
  1

  9
$DIMAPOST
  1

  9
$DIMALT
 70
     0
  9
$DIMALTD
 70
     0
  9
$DIMALTF
 40
25.400000
  9
$DIMLFAC
 40
1.000000
  9
$DIMTOFL
 70
     0
  9
$DIMTVP
 40
0.000000
  9
$DIMTIX
 70
     0
  9
$DIMSOXD
 70
     0
  9
$DIMSAH
 70
     0
  9
$DIMBLKL
  1

  9
$DIMBLKR
  1

  9
$LUNITS
 70
     2
  9
$LUPREC
 70
     2
  9
$AXISMODE
 70
     0
  9
$AXISUNIT
 10
1.000000
 20
1.000000
  9
$SKETCHINC
 40
0.000000
  9
$FILLETRAD
 40
0.000000
  9
$AUNITS
 70
     1
  9
$AUPREC
 70
     2
  9
$MENU
  1
ACAD
  9
$ELEVATION
 40
0.000000
  9
$THICKNESS
 40
0.000000
  9
$VIEWDIR
 10
0.000000
 20
0.000000
 30
1.000000
  9
$LIMCHECK
 70
     1
  9
$BLIPMODE
 70
     1
  9
$CHAMFERA
 40
0.000000
  9
$CHAMFERB
 40
0.000000
  9
$FASTZOOM
 70
     1
  9
$SKPOLY
 70
     0
  9
$TDCREATE
 40
0.000000
  9
$TDUPDATE
 40
0.000000
  9
$TDINDWG
 40
0.000000
  9
$TDUSRTIMER
 40
0.000000
  9
$USRTIMER
 70
     1
  9
$ANGBASE
 50
0.000000
  9
$ANGDIR
 70
     0
  9
$PDMODE
 70
     0
  9
$PDSIZE
 40
0.000000
  9
$PLINEWID
 40
0.000000
  9
$COORDS
 70
     2
  9
$USERI1
 70
     0
  9
$USERI2
 70
     0
  9
$USERI3
 70
     0
  9
$USERI4
 70
     0
  9
$USERI5
 70
     0
  9
$USERR1
 40
0.000000
  9
$USERR2
 40
0.000000
  9
$USERR3
 40
0.000000
  9
$USERR4
 40
0.000000
  9
$USERR5
 40
0.000000
  0
ENDSEC
  0
SECTION
  2
TABLES
  0
TABLE
  2
LTYPE
 70
     5
  0
LTYPE
  2
CONTINUOUS
 70
    64
  3
Solid line
 72
    65
 73
     0
 40
0.0
  0
LTYPE
  2
HIDDEN
 70
    64
  3
------------------------
 72
    65
 73
     2
 40
12.6
 49
8.4
 49
-4.2
  0
LTYPE
  2
DOT
 70
    64
  3
････････････････････････
 72
    65
 73
     2
 40
8.0
 49
6.0
 49
-2.0
  0
LTYPE
  2
DASHDOT
 70
    64
  3
--･--･--･--･--･--･--･--
 72
    65
 73
     4
 40
50.5
 49
30.0
 49
-9.0
 49
2.5
 49
-9.0
  0
LTYPE
  2
DIVIDE
 70
    64
  3
--･･--･･--･･--･･--･･--
 72
    65
 73
     6
 40
58.0
 49
30.0
 49
-9.0
 49
2.5
 49
-5.0
 49
2.5
 49
-9.0
  0
ENDTAB
  0
TABLE
  2
LAYER
 70
1
  0
LAYER
  2
1
 70
64
 62
7
  6
CONTINUOUS
  0
ENDTAB
  0
TABLE
  2
STYLE
 70
     2
  0
STYLE
  2
STANDARD
 70
    64
 40
0.0
 41
1.0
 50
0.0
 71
     0
 42
0.2
  3
TXT
  4

  0
STYLE
  2
KANJI
 70
    64
 40
0.0
 41
1.0
 50
0.0
 71
     0
 42
0.2
  3
TXT
  4
BIGFONT
  0
ENDTAB
  0
TABLE
  2
VIEW
 70
     0
  0
ENDTAB
  0
ENDSEC
  0
SECTION
  2
BLOCKS
  0
ENDSEC
  0
SECTION
  2
ENTITIES
  0
CIRCLE
  8
1
 62
7
  6
DIVIDE
 10
153.335810
 20
85.375758
 40
0.500000
  0
CIRCLE
  8
1
 62
7
  6
DIVIDE
 10
153.335810
 20
85.375758
 40
0.250000
  0
LINE
  8
1
 62
7
  6
CONTINUOUS
 10
336.814422
 20
103.304105
 11
337.814422
 21
104.124496
  0
LINE
  8
1
 62
7
  6
CONTINUOUS
 10
336.814422
 20
104.124496
 11
337.814422
 21
104.944887
  0
LINE
  8
1
 62
7
  6
CONTINUOUS
 10
268.214422
 20
56.227021
 11
275.614422
 21
56.227021
  0
LINE
  8
1
 62
7
  6
CONTINUOUS
 10
268.214422
 20
56.627021
 11
275.614422
 21
56.627021
  0
LINE
  8
1
 62
7
  6
CONTINUOUS
 10
275.614422
 20
52.627021
 11
268.214422
 21
52.627021
  0
LINE
  8
1
 62
7
  6
CONTINUOUS
 10
275.614422
 20
53.027021
 11
268.214422
 21
53.027021
  0
LINE
  8
1
 62
7
  6
CONTINUOUS
 10
268.214422
 20
52.627021
 11
268.214422
 21
53.027021
  0
LINE
  8
1
 62
7
  6
CONTINUOUS
 10
268.214422
 20
53.027021
 11
267.814422
 21
53.027021
  0
LINE
  8
1
 62
7
  6
CONTINUOUS
 10
267.814422
 20
53.027021
 11
267.814422
 21
56.227021
  0
LINE
  8
1
 62
7
  6
CONTINUOUS
 10
267.814422
 20
56.227021
 11
268.214422
 21
56.227021
  0
LINE
  8
1
 62
7
  6
CONTINUOUS
 10
268.214422
 20
53.027021
 11
268.214422
 21
56.227021
  0
LINE
  8
1
 62
7
  6
CONTINUOUS
 10
268.214422
 20
52.627021
 11
267.814422
 21
53.027021
  0
LINE
  8
1
 62
7
  6
CONTINUOUS
 10
268.214422
 20
56.227021
 11
268.214422
 21
56.627021
  0
LINE
  8
1
 62
7
  6
CONTINUOUS
 10
267.814422
 20
56.227021
 11
268.214422
 21
56.627021
  0
LINE
  8
1
 62
7
  6
CONTINUOUS
 10
178.084547
 20
54.627021
 11
174.079917
 21
58.631651
  0
LINE
  8
1
 62
7
  6
CONTINUOUS
 10
185.473211
 20
79.375758
 11
121.198408
 21
79.375758
  0
LINE
  8
1
 62
7
  6
CONTINUOUS
 10
125.112369
 20
107.599199
 11
132.591702
 21
100.119866
  0
LINE
  8
1
 62
7
  6
CONTINUOUS
 10
181.559251
 20
107.599199
 11
174.079917
 21
100.119866
  0
LINE
  8
1
 62
7
  6
CONTINUOUS
 10
181.559251
 20
51.152317
 11
178.084547
 21
54.627021
  0
LINE
  8
1
 62
7
  6
CONTINUOUS
 10
122.835810
 20
105.875758
 11
122.835810
 21
103.964820
  0
LINE
  8
1
 62
7
  6
CONTINUOUS
 10
179.835810
 20
109.875758
 11
178.640556
 21
109.875758
  0
LINE
  8
1
 62
7
  6
CONTINUOUS
 10
155.981350
 20
92.375548
 11
150.689848
 21
92.375548
  0
LINE
  8
1
 62
7
  6
CONTINUOUS
 10
147.542287
 20
89.375758
 11
159.440887
 21
89.375758
  0
LINE
  8
1
 62
7
  6
CONTINUOUS
 10
153.335810
 20
47.238357
 11
153.335810
 21
111.513160
  0
LINE
  8
1
 62
7
  6
CONTINUOUS
 10
183.835810
 20
54.732369
 11
183.835810
 21
104.680504
  0
LINE
  8
1
 62
7
  6
CONTINUOUS
 10
178.189895
 20
48.875758
 11
179.835810
 21
48.875758
  0
LINE
  8
1
 62
7
  6
CONTINUOUS
 10
128.427396
 20
109.875758
 11
126.835810
 21
109.875758
  0
LINE
  8
1
 62
7
  6
CONTINUOUS
 10
122.835810
 20
103.964820
 11
122.835810
 21
54.812557
  0
LINE
  8
1
 62
7
  6
CONTINUOUS
 10
128.772609
 20
48.875758
 11
178.189895
 21
48.875758
  0
LINE
  8
1
 62
7
  6
CONTINUOUS
 10
178.640556
 20
109.875758
 11
177.528538
 21
109.875758
  0
LINE
  8
1
 62
7
  6
CONTINUOUS
 10
183.835810
 20
104.680504
 11
183.835810
 21
105.875758
  0
LINE
  8
1
 62
7
  6
CONTINUOUS
 10
177.528538
 20
109.875758
 11
128.427396
 21
109.875758
  0
LINE
  8
1
 62
7
  6
CONTINUOUS
 10
132.087072
 20
54.627021
 11
132.087072
 21
56.647747
  0
LINE
  8
1
 62
7
  6
CONTINUOUS
 10
132.087072
 20
52.606295
 11
132.087072
 21
54.627021
  0
LINE
  8
1
 62
7
  6
CONTINUOUS
 10
128.587072
 20
50.585569
 11
132.087072
 21
52.606295
  0
LINE
  8
1
 62
7
  6
CONTINUOUS
 10
125.087072
 20
52.606295
 11
128.587072
 21
50.585569
  0
LINE
  8
1
 62
7
  6
CONTINUOUS
 10
125.087072
 20
56.647747
 11
125.087072
 21
52.606295
  0
LINE
  8
1
 62
7
  6
CONTINUOUS
 10
128.587072
 20
58.668473
 11
125.087072
 21
56.647747
  0
LINE
  8
1
 62
7
  6
CONTINUOUS
 10
132.087072
 20
56.647747
 11
128.587072
 21
58.668473
  0
LINE
  8
1
 62
7
  6
CONTINUOUS
 10
181.584547
 20
104.124496
 11
181.584547
 21
106.145222
  0
LINE
  8
1
 62
7
  6
CONTINUOUS
 10
181.584547
 20
102.103770
 11
181.584547
 21
104.124496
  0
LINE
  8
1
 62
7
  6
CONTINUOUS
 10
178.084547
 20
100.083044
 11
181.584547
 21
102.103770
  0
LINE
  8
1
 62
7
  6
CONTINUOUS
 10
174.584547
 20
102.103770
 11
178.084547
 21
100.083044
  0
LINE
  8
1
 62
7
  6
CONTINUOUS
 10
174.584547
 20
106.145222
 11
174.584547
 21
102.103770
  0
LINE
  8
1
 62
7
  6
CONTINUOUS
 10
178.084547
 20
108.165947
 11
174.584547
 21
106.145222
  0
LINE
  8
1
 62
7
  6
CONTINUOUS
 10
181.584547
 20
106.145222
 11
178.084547
 21
108.165947
  0
LINE
  8
1
 62
7
  6
CONTINUOUS
 10
245.923208
 20
89.375758
 11
282.084814
 21
89.375758
  0
LINE
  8
1
 62
7
  6
CONTINUOUS
 10
278.455349
 20
52.607021
 11
275.973495
 21
52.607021
  0
LINE
  8
1
 62
7
  6
CONTINUOUS
 10
278.455349
 20
56.647021
 11
275.973495
 21
56.647021
  0
LINE
  8
1
 62
7
  6
CONTINUOUS
 10
275.614422
 20
57.657021
 11
275.614422
 21
51.597021
  0
LINE
  8
1
 62
7
  6
CONTINUOUS
 10
275.973495
 20
58.667021
 11
278.455349
 21
58.667021
  0
LINE
  8
1
 62
7
  6
CONTINUOUS
 10
275.973495
 20
50.587021
 11
278.455349
 21
50.587021
  0
LINE
  8
1
 62
7
  6
CONTINUOUS
 10
265.199587
 20
93.375758
 11
275.814422
 21
93.375758
  0
LINE
  8
1
 62
7
  6
CONTINUOUS
 10
337.814422
 20
64.875758
 11
337.814422
 21
58.086613
  0
LINE
  8
1
 62
7
  6
DASHDOT
 10
356.420039
 20
110.580332
 11
338.734533
 21
110.734490
  0
LINE
  8
1
 62
7
  6
DASHDOT
 10
298.904991
 20
111.131246
 11
317.052412
 21
111.131246
  0
LINE
  8
1
 62
7
  6
CONTINUOUS
 10
279.814422
 20
88.875758
 11
279.814422
 21
89.375758
  0
LINE
  8
1
 62
7
  6
CONTINUOUS
 10
279.814422
 20
98.373233
 11
279.814422
 21
103.124496
  0
LINE
  8
1
 62
7
  6
CONTINUOUS
 10
279.314422
 20
48.875758
 11
328.814422
 21
48.875758
  0
LINE
  8
1
 62
7
  6
CONTINUOUS
 10
279.814422
 20
55.627021
 11
279.814422
 21
60.378284
  0
LINE
  8
1
 62
7
  6
CONTINUOUS
 10
279.314422
 20
60.378284
 11
279.814422
 21
60.378284
  0
LINE
  8
1
 62
7
  6
CONTINUOUS
 10
279.814422
 20
88.375758
 11
279.814422
 21
89.375758
  0
LINE
  8
1
 62
7
  6
CONTINUOUS
 10
279.814422
 20
60.378284
 11
279.814422
 21
76.375758
  0
LINE
  8
1
 62
7
  6
CONTINUOUS
 10
247.314422
 20
92.375758
 11
246.814422
 21
92.375758
  0
LINE
  8
1
 62
7
  6
CONTINUOUS
 10
247.314422
 20
85.375758
 11
247.314422
 21
92.375758
  0
LINE
  8
1
 62
7
  6
CONTINUOUS
 10
259.814422
 20
92.375758
 11
247.314422
 21
92.375758
  0
LINE
  8
1
 62
7
  6
CONTINUOUS
 10
246.814422
 20
85.875758
 11
247.314422
 21
85.375758
  0
LINE
  8
1
 62
7
  6
CONTINUOUS
 10
246.814422
 20
85.875758
 11
246.814422
 21
92.375758
  0
LINE
  8
1
 62
7
  6
CONTINUOUS
 10
275.814422
 20
77.375758
 11
275.814422
 21
87.875758
  0
LINE
  8
1
 62
7
  6
CONTINUOUS
 10
275.814422
 20
87.875758
 11
275.814422
 21
95.875758
  0
LINE
  8
1
 62
7
  6
CONTINUOUS
 10
275.814422
 20
85.375758
 11
247.314422
 21
85.375758
  0
LINE
  8
1
 62
7
  6
CONTINUOUS
 10
279.814422
 20
89.375758
 11
279.814422
 21
88.875758
  0
LINE
  8
1
 62
7
  6
CONTINUOUS
 10
279.314422
 20
76.875758
 11
276.314422
 21
76.875758
  0
LINE
  8
1
 62
7
  6
CONTINUOUS
 10
275.814422
 20
95.875758
 11
275.814422
 21
100.319899
  0
LINE
  8
1
 62
7
  6
CONTINUOUS
 10
279.814422
 20
76.875758
 11
279.814422
 21
98.373233
  0
LINE
  8
1
 62
7
  6
CONTINUOUS
 10
279.814422
 20
98.373233
 11
279.314422
 21
98.373233
  0
LINE
  8
1
 62
7
  6
CONTINUOUS
 10
278.814422
 20
98.873233
 11
278.814422
 21
109.375758
  0
LINE
  8
1
 62
7
  6
CONTINUOUS
 10
328.814422
 20
109.875758
 11
279.314422
 21
109.875758
  0
LINE
  8
1
 62
7
  6
CONTINUOUS
 10
357.814422
 20
109.125758
 11
362.814422
 21
109.125758
  0
LINE
  8
1
 62
7
  6
CONTINUOUS
 10
365.814422
 20
106.125758
 11
365.814422
 21
52.625758
  0
LINE
  8
1
 62
7
  6
CONTINUOUS
 10
357.814422
 20
109.375758
 11
357.814422
 21
109.125758
  0
LINE
  8
1
 62
7
  6
CONTINUOUS
 10
357.814422
 20
109.125758
 11
357.814422
 21
49.625758
  0
LINE
  8
1
 62
7
  6
CONTINUOUS
 10
362.814422
 20
109.125758
 11
365.814422
 21
106.125758
  0
LINE
  8
1
 62
7
  6
CONTINUOUS
 10
357.814422
 20
109.375758
 11
337.814422
 21
109.633955
  0
LINE
  8
1
 62
7
  6
CONTINUOUS
 10
362.814422
 20
49.625758
 11
357.814422
 21
49.625758
  0
LINE
  8
1
 62
7
  6
CONTINUOUS
 10
357.814422
 20
49.625758
 11
357.814422
 21
49.375758
  0
LINE
  8
1
 62
7
  6
CONTINUOUS
 10
365.814422
 20
52.625758
 11
362.814422
 21
49.625758
  0
LINE
  8
1
 62
7
  6
CONTINUOUS
 10
362.814422
 20
49.625758
 11
362.814422
 21
109.125758
  0
LINE
  8
1
 62
7
  6
CONTINUOUS
 10
328.814422
 20
49.025758
 11
336.314422
 21
49.025758
  0
LINE
  8
1
 62
7
  6
CONTINUOUS
 10
336.314422
 20
109.725758
 11
328.814422
 21
109.725758
  0
LINE
  8
1
 62
7
  6
CONTINUOUS
 10
337.814422
 20
64.875758
 11
337.814422
 21
58.086613
  0
LINE
  8
1
 62
7
  6
CONTINUOUS
 10
337.814422
 20
109.566735
 11
337.814422
 21
107.624496
  0
LINE
  8
1
 62
7
  6
CONTINUOUS
 10
337.814422
 20
49.117562
 11
357.814422
 21
49.375758
  0
LINE
  8
1
 62
7
  6
CONTINUOUS
 10
336.354199
 20
49.027343
 11
337.814422
 21
49.027343
  0
LINE
  8
1
 62
7
  6
CONTINUOUS
 10
337.814422
 20
49.027343
 11
337.814422
 21
49.117562
  0
LINE
  8
1
 62
7
  6
CONTINUOUS
 10
336.314422
 20
109.725758
 11
337.814422
 21
109.725758
  0
LINE
  8
1
 62
7
  6
CONTINUOUS
 10
337.814422
 20
109.725758
 11
337.814422
 21
109.566735
  0
LINE
  8
1
 62
7
  6
CONTINUOUS
 10
337.814422
 20
109.566735
 11
337.814422
 21
109.633955
  0
LINE
  8
1
 62
7
  6
CONTINUOUS
 10
278.814422
 20
50.127021
 11
278.814422
 21
59.127021
  0
LINE
  8
1
 62
7
  6
CONTINUOUS
 10
278.814422
 20
59.878284
 11
278.814422
 21
49.375758
  0
LINE
  8
1
 62
7
  6
CONTINUOUS
 10
337.814422
 20
58.086613
 11
337.814422
 21
49.117562
  0
LINE
  8
1
 62
7
  6
CONTINUOUS
 10
276.314422
 20
101.875758
 11
278.814422
 21
101.875758
  0
LINE
  8
1
 62
7
  6
CONTINUOUS
 10
282.277881
 20
54.627021
 11
274.241628
 21
54.627021
  0
LINE
  8
1
 62
7
  6
CONTINUOUS
 10
336.314422
 20
109.725758
 11
328.814422
 21
109.725758
  0
LINE
  8
1
 62
7
  6
CONTINUOUS
 10
328.814422
 20
109.875758
 11
328.814422
 21
96.875758
  0
LINE
  8
1
 62
7
  6
CONTINUOUS
 10
337.814422
 20
100.624496
 11
337.814422
 21
64.875758
  0
LINE
  8
1
 62
7
  6
CONTINUOUS
 10
336.814422
 20
96.875758
 11
336.814422
 21
49.525758
  0
LINE
  8
1
 62
7
  6
CONTINUOUS
 10
278.814422
 20
100.624496
 11
278.814422
 21
107.624496
  0
LINE
  8
1
 62
7
  6
CONTINUOUS
 10
337.814422
 20
100.624496
 11
337.814422
 21
107.624496
  0
LINE
  8
1
 62
7
  6
CONTINUOUS
 10
336.814422
 20
100.624496
 11
337.814422
 21
100.624496
  0
LINE
  8
1
 62
7
  6
CONTINUOUS
 10
336.814422
 20
107.624496
 11
337.814422
 21
107.624496
  0
LINE
  8
1
 62
7
  6
CONTINUOUS
 10
337.814422
 20
100.624496
 11
338.414422
 21
100.624496
  0
LINE
  8
1
 62
7
  6
CONTINUOUS
 10
333.912607
 20
104.124496
 11
341.266068
 21
104.124496
  0
LINE
  8
1
 62
7
  6
CONTINUOUS
 10
340.414422
 20
102.624496
 11
340.414422
 21
105.624496
  0
LINE
  8
1
 62
7
  6
CONTINUOUS
 10
265.284430
 20
104.124496
 11
281.277881
 21
104.124496
  0
LINE
  8
1
 62
7
  6
CONTINUOUS
 10
275.614422
 20
102.124496
 11
268.214422
 21
102.124496
  0
LINE
  8
1
 62
7
  6
CONTINUOUS
 10
275.614422
 20
102.524496
 11
268.214422
 21
102.524496
  0
LINE
  8
1
 62
7
  6
CONTINUOUS
 10
268.214422
 20
105.724496
 11
275.614422
 21
105.724496
  0
LINE
  8
1
 62
7
  6
CONTINUOUS
 10
268.214422
 20
106.124496
 11
275.614422
 21
106.124496
  0
LINE
  8
1
 62
7
  6
CONTINUOUS
 10
268.214422
 20
102.124496
 11
268.214422
 21
102.524496
  0
LINE
  8
1
 62
7
  6
CONTINUOUS
 10
268.214422
 20
102.524496
 11
267.814422
 21
102.524496
  0
LINE
  8
1
 62
7
  6
CONTINUOUS
 10
267.814422
 20
102.524496
 11
267.814422
 21
105.724496
  0
LINE
  8
1
 62
7
  6
CONTINUOUS
 10
267.814422
 20
105.724496
 11
268.214422
 21
105.724496
  0
LINE
  8
1
 62
7
  6
CONTINUOUS
 10
268.214422
 20
102.524496
 11
268.214422
 21
105.724496
  0
LINE
  8
1
 62
7
  6
CONTINUOUS
 10
268.214422
 20
102.124496
 11
267.814422
 21
102.524496
  0
LINE
  8
1
 62
7
  6
CONTINUOUS
 10
268.214422
 20
105.724496
 11
268.214422
 21
106.124496
  0
LINE
  8
1
 62
7
  6
CONTINUOUS
 10
267.814422
 20
105.724496
 11
268.214422
 21
106.124496
  0
LINE
  8
1
 62
7
  6
CONTINUOUS
 10
275.614422
 20
107.154496
 11
275.614422
 21
101.094496
  0
LINE
  8
1
 62
7
  6
CONTINUOUS
 10
275.973495
 20
102.104496
 11
277.214422
 21
102.104496
  0
LINE
  8
1
 62
7
  6
CONTINUOUS
 10
275.973495
 20
106.144496
 11
277.214422
 21
106.144496
  0
LINE
  8
1
 62
7
  6
CONTINUOUS
 10
275.973495
 20
108.164496
 11
277.214422
 21
108.164496
  0
LINE
  8
1
 62
7
  6
CONTINUOUS
 10
275.973495
 20
100.084496
 11
277.214422
 21
100.084496
  0
LINE
  8
1
 62
7
  6
CONTINUOUS
 10
277.214422
 20
102.104496
 11
278.455349
 21
102.104496
  0
LINE
  8
1
 62
7
  6
CONTINUOUS
 10
277.214422
 20
106.144496
 11
278.455349
 21
106.144496
  0
LINE
  8
1
 62
7
  6
CONTINUOUS
 10
277.214422
 20
108.164496
 11
278.455349
 21
108.164496
  0
LINE
  8
1
 62
7
  6
CONTINUOUS
 10
277.214422
 20
100.084496
 11
278.455349
 21
100.084496
  0
LINE
  8
1
 62
7
  6
CONTINUOUS
 10
337.814422
 20
101.094496
 11
337.814422
 21
107.154496
  0
LINE
  8
1
 62
7
  6
CONTINUOUS
 10
336.814422
 20
62.875758
 11
315.814422
 21
62.875758
  0
LINE
  8
1
 62
7
  6
CONTINUOUS
 10
315.814422
 20
62.875758
 11
315.814422
 21
96.875758
  0
LINE
  8
1
 62
7
  6
CONTINUOUS
 10
315.814422
 20
96.875758
 11
336.814422
 21
96.875758
  0
LINE
  8
1
 62
7
  6
CONTINUOUS
 10
336.814422
 20
96.875758
 11
336.814422
 21
100.624496
  0
LINE
  8
1
 62
7
  6
CONTINUOUS
 10
328.814422
 20
62.875758
 11
328.814422
 21
48.875758
  0
LINE
  8
1
 62
7
  6
CONTINUOUS
 10
336.814422
 20
109.225758
 11
336.814422
 21
100.624496
  0
LINE
  8
1
 62
7
  6
CONTINUOUS
 10
337.814422
 20
107.624496
 11
338.414422
 21
107.624496
  0
LINE
  8
1
 62
7
  6
CONTINUOUS
 10
265.284430
 20
54.627021
 11
281.277881
 21
54.627021
  0
LINE
  8
1
 62
7
  6
CONTINUOUS
 10
275.814422
 20
100.319899
 11
275.814422
 21
101.375548
  0
LINE
  8
1
 62
7
  6
CONTINUOUS
 10
97.177440
 20
107.723986
 11
97.177440
 21
116.136330
  0
LINE
  8
1
 62
7
  6
CONTINUOUS
 10
97.177440
 20
105.223986
 11
97.177440
 21
116.136330
  0
LINE
  8
1
 62
7
  6
CONTINUOUS
 10
97.177440
 20
116.136330
 11
97.177440
 21
117.251460
  0
LINE
  8
1
 62
7
  6
CONTINUOUS
 10
97.177440
 20
116.136330
 11
97.177440
 21
117.251460
  0
LINE
  8
1
 62
7
  6
CONTINUOUS
 10
97.177440
 20
117.251460
 11
97.177440
 21
130.723986
  0
LINE
  8
1
 62
7
  6
CONTINUOUS
 10
97.177440
 20
117.251460
 11
97.177440
 21
128.223986
  0
LINE
  8
1
 62
7
  6
CONTINUOUS
 10
97.177440
 20
127.223986
 11
97.177440
 21
126.223986
  0
LINE
  8
1
 62
7
  6
CONTINUOUS
 10
97.177440
 20
132.223986
 11
97.177440
 21
131.223986
  0
LINE
  8
1
 62
7
  6
CONTINUOUS
 10
97.177440
 20
133.223986
 11
97.177440
 21
125.173986
  0
LINE
  8
1
 62
7
  6
CONTINUOUS
 10
26.482124
 20
118.608857
 11
26.482124
 21
107.723986
  0
LINE
  8
1
 62
7
  6
CONTINUOUS
 10
26.482124
 20
118.608857
 11
26.482124
 21
107.723986
  0
LINE
  8
1
 62
7
  6
CONTINUOUS
 10
26.482124
 20
119.723986
 11
26.482124
 21
118.608857
  0
LINE
  8
1
 62
7
  6
CONTINUOUS
 10
26.482124
 20
119.723986
 11
26.482124
 21
118.608857
  0
LINE
  8
1
 62
7
  6
CONTINUOUS
 10
97.177440
 20
107.723986
 11
97.177440
 21
130.723986
  0
LINE
  8
1
 62
7
  6
CONTINUOUS
 10
97.177440
 20
105.223986
 11
97.177440
 21
128.223986
  0
LINE
  8
1
 62
7
  6
CONTINUOUS
 10
97.177440
 20
132.223986
 11
97.177440
 21
131.223986
  0
LINE
  8
1
 62
7
  6
CONTINUOUS
 10
97.177440
 20
133.223986
 11
97.177440
 21
125.173986
  0
LINE
  8
1
 62
7
  6
CONTINUOUS
 10
77.177440
 20
118.723986
 11
61.222309
 21
118.677744
  0
LINE
  8
1
 62
7
  6
CONTINUOUS
 10
26.482124
 20
130.723986
 11
26.482124
 21
119.723986
  0
LINE
  8
1
 62
7
  6
CONTINUOUS
 10
77.177440
 20
119.723986
 11
60.519304
 21
119.723986
  0
LINE
  8
1
 62
7
  6
CONTINUOUS
 10
26.482124
 20
128.223986
 11
26.482124
 21
119.723986
  0
LINE
  8
1
 62
7
  6
CONTINUOUS
 10
26.482124
 20
126.223986
 11
26.482124
 21
127.223986
  0
LINE
  8
1
 62
7
  6
CONTINUOUS
 10
26.482124
 20
128.723986
 11
26.482124
 21
129.723986
  0
LINE
  8
1
 62
7
  6
CONTINUOUS
 10
26.482124
 20
125.173986
 11
26.482124
 21
130.723986
  0
LINE
  8
1
 62
7
  6
CONTINUOUS
 10
22.734954
 20
128.723986
 11
18.582124
 21
128.723986
  0
LINE
  8
1
 62
7
  6
CONTINUOUS
 10
22.734954
 20
129.723986
 11
22.734954
 21
128.723986
  0
LINE
  8
1
 62
7
  6
CONTINUOUS
 10
18.582124
 20
129.723986
 11
18.582124
 21
128.723986
  0
LINE
  8
1
 62
7
  6
CONTINUOUS
 10
18.582124
 20
129.723986
 11
22.734954
 21
129.723986
  0
LINE
  8
1
 62
7
  6
CONTINUOUS
 10
22.734954
 20
126.223986
 11
18.582124
 21
126.223986
  0
LINE
  8
1
 62
7
  6
CONTINUOUS
 10
22.734954
 20
127.223986
 11
22.734954
 21
126.223986
  0
LINE
  8
1
 62
7
  6
CONTINUOUS
 10
18.582124
 20
127.223986
 11
18.582124
 21
126.223986
  0
LINE
  8
1
 62
7
  6
CONTINUOUS
 10
18.582124
 20
127.223986
 11
22.734954
 21
127.223986
  0
LINE
  8
1
 62
7
  6
CONTINUOUS
 10
22.734954
 20
123.723986
 11
18.582124
 21
123.723986
  0
LINE
  8
1
 62
7
  6
CONTINUOUS
 10
22.734954
 20
124.723986
 11
22.734954
 21
123.723986
  0
LINE
  8
1
 62
7
  6
CONTINUOUS
 10
18.582124
 20
124.723986
 11
18.582124
 21
123.723986
  0
LINE
  8
1
 62
7
  6
CONTINUOUS
 10
18.582124
 20
124.723986
 11
22.734954
 21
124.723986
  0
LINE
  8
1
 62
7
  6
CONTINUOUS
 10
22.734954
 20
121.223986
 11
18.582124
 21
121.223986
  0
LINE
  8
1
 62
7
  6
CONTINUOUS
 10
22.734954
 20
122.223986
 11
22.734954
 21
121.223986
  0
LINE
  8
1
 62
7
  6
CONTINUOUS
 10
18.582124
 20
122.223986
 11
18.582124
 21
121.223986
  0
LINE
  8
1
 62
7
  6
CONTINUOUS
 10
18.582124
 20
122.223986
 11
22.734954
 21
122.223986
  0
LINE
  8
1
 62
7
  6
CONTINUOUS
 10
22.734954
 20
118.723986
 11
18.582124
 21
118.723986
  0
LINE
  8
1
 62
7
  6
CONTINUOUS
 10
22.734954
 20
119.723986
 11
22.734954
 21
118.723986
  0
LINE
  8
1
 62
7
  6
CONTINUOUS
 10
18.582124
 20
119.723986
 11
18.582124
 21
118.723986
  0
LINE
  8
1
 62
7
  6
CONTINUOUS
 10
18.582124
 20
119.723986
 11
22.734954
 21
119.723986
  0
LINE
  8
1
 62
7
  6
CONTINUOUS
 10
22.734954
 20
116.223986
 11
18.582124
 21
116.223986
  0
LINE
  8
1
 62
7
  6
CONTINUOUS
 10
22.734954
 20
117.223986
 11
22.734954
 21
116.223986
  0
LINE
  8
1
 62
7
  6
CONTINUOUS
 10
18.582124
 20
117.223986
 11
18.582124
 21
116.223986
  0
LINE
  8
1
 62
7
  6
CONTINUOUS
 10
18.582124
 20
117.223986
 11
22.734954
 21
117.223986
  0
LINE
  8
1
 62
7
  6
CONTINUOUS
 10
22.734954
 20
113.723986
 11
18.582124
 21
113.723986
  0
LINE
  8
1
 62
7
  6
CONTINUOUS
 10
22.734954
 20
114.723986
 11
22.734954
 21
113.723986
  0
LINE
  8
1
 62
7
  6
CONTINUOUS
 10
18.582124
 20
114.723986
 11
18.582124
 21
113.723986
  0
LINE
  8
1
 62
7
  6
CONTINUOUS
 10
18.582124
 20
114.723986
 11
22.734954
 21
114.723986
  0
LINE
  8
1
 62
7
  6
CONTINUOUS
 10
22.734954
 20
111.223986
 11
18.582124
 21
111.223986
  0
LINE
  8
1
 62
7
  6
CONTINUOUS
 10
22.734954
 20
112.223986
 11
22.734954
 21
111.223986
  0
LINE
  8
1
 62
7
  6
CONTINUOUS
 10
18.582124
 20
112.223986
 11
18.582124
 21
111.223986
  0
LINE
  8
1
 62
7
  6
CONTINUOUS
 10
18.582124
 20
112.223986
 11
22.734954
 21
112.223986
  0
LINE
  8
1
 62
7
  6
CONTINUOUS
 10
22.734954
 20
108.723986
 11
18.582124
 21
108.723986
  0
LINE
  8
1
 62
7
  6
CONTINUOUS
 10
22.734954
 20
109.723986
 11
22.734954
 21
108.723986
  0
LINE
  8
1
 62
7
  6
CONTINUOUS
 10
18.582124
 20
109.723986
 11
18.582124
 21
108.723986
  0
LINE
  8
1
 62
7
  6
CONTINUOUS
 10
18.582124
 20
109.723986
 11
22.734954
 21
109.723986
  0
LINE
  8
1
 62
7
  6
CONTINUOUS
 10
100.332776
 20
127.173986
 11
99.772057
 21
127.173986
  0
LINE
  8
1
 62
7
  6
CONTINUOUS
 10
100.332776
 20
125.173986
 11
105.077440
 21
125.173986
  0
LINE
  8
1
 62
7
  6
CONTINUOUS
 10
100.332776
 20
125.173986
 11
100.332776
 21
127.173986
  0
LINE
  8
1
 62
7
  6
CONTINUOUS
 10
100.332776
 20
113.273986
 11
99.772057
 21
113.273986
  0
LINE
  8
1
 62
7
  6
CONTINUOUS
 10
100.332776
 20
111.273986
 11
105.077440
 21
111.273986
  0
LINE
  8
1
 62
7
  6
CONTINUOUS
 10
100.332776
 20
111.273986
 11
100.332776
 21
113.273986
  0
LINE
  8
1
 62
7
  6
CONTINUOUS
 10
101.678499
 20
133.223986
 11
101.229925
 21
133.223986
  0
LINE
  8
1
 62
7
  6
CONTINUOUS
 10
101.678499
 20
130.223986
 11
101.229925
 21
130.223986
  0
LINE
  8
1
 62
7
  6
CONTINUOUS
 10
101.678499
 20
130.223986
 11
101.678499
 21
133.223986
  0
LINE
  8
1
 62
7
  6
CONTINUOUS
 10
102.949461
 20
130.223986
 11
101.678499
 21
130.223986
  0
LINE
  8
1
 62
7
  6
CONTINUOUS
 10
102.949461
 20
133.223986
 11
101.678499
 21
133.223986
  0
LINE
  8
1
 62
7
  6
CONTINUOUS
 10
102.949461
 20
133.223986
 11
102.949461
 21
130.223986
  0
LINE
  8
1
 62
7
  6
CONTINUOUS
 10
101.678499
 20
108.223986
 11
101.229925
 21
108.223986
  0
LINE
  8
1
 62
7
  6
CONTINUOUS
 10
101.678499
 20
105.223986
 11
102.949461
 21
105.223986
  0
LINE
  8
1
 62
7
  6
CONTINUOUS
 10
101.678499
 20
105.223986
 11
101.678499
 21
108.223986
  0
LINE
  8
1
 62
7
  6
CONTINUOUS
 10
102.949461
 20
105.223986
 11
103.958753
 21
105.223986
  0
LINE
  8
1
 62
7
  6
CONTINUOUS
 10
102.949461
 20
108.223986
 11
101.678499
 21
108.223986
  0
LINE
  8
1
 62
7
  6
CONTINUOUS
 10
102.949461
 20
108.223986
 11
102.949461
 21
105.223986
  0
LINE
  8
1
 62
7
  6
CONTINUOUS
 10
101.229925
 20
133.223986
 11
97.177440
 21
133.223986
  0
LINE
  8
1
 62
7
  6
CONTINUOUS
 10
101.229925
 20
130.223986
 11
101.229925
 21
133.223986
  0
LINE
  8
1
 62
7
  6
CONTINUOUS
 10
103.958753
 20
130.223986
 11
102.949461
 21
130.223986
  0
LINE
  8
1
 62
7
  6
CONTINUOUS
 10
103.958753
 20
133.223986
 11
102.949461
 21
133.223986
  0
LINE
  8
1
 62
7
  6
CONTINUOUS
 10
103.958753
 20
133.223986
 11
103.958753
 21
130.223986
  0
LINE
  8
1
 62
7
  6
CONTINUOUS
 10
101.229925
 20
105.223986
 11
101.678499
 21
105.223986
  0
LINE
  8
1
 62
7
  6
CONTINUOUS
 10
101.229925
 20
108.223986
 11
101.229925
 21
105.223986
  0
LINE
  8
1
 62
7
  6
CONTINUOUS
 10
103.958753
 20
108.223986
 11
102.949461
 21
108.223986
  0
LINE
  8
1
 62
7
  6
CONTINUOUS
 10
103.958753
 20
105.223986
 11
105.077440
 21
105.223986
  0
LINE
  8
1
 62
7
  6
CONTINUOUS
 10
103.958753
 20
105.223986
 11
103.958753
 21
108.223986
  0
LINE
  8
1
 62
7
  6
CONTINUOUS
 10
105.077440
 20
111.273986
 11
105.077440
 21
113.273986
  0
LINE
  8
1
 62
7
  6
CONTINUOUS
 10
99.772057
 20
111.273986
 11
100.332776
 21
111.273986
  0
LINE
  8
1
 62
7
  6
CONTINUOUS
 10
99.772057
 20
113.273986
 11
99.772057
 21
111.273986
  0
LINE
  8
1
 62
7
  6
CONTINUOUS
 10
105.077440
 20
113.273986
 11
100.332776
 21
113.273986
  0
LINE
  8
1
 62
7
  6
CONTINUOUS
 10
105.077440
 20
113.273986
 11
105.077440
 21
125.173986
  0
LINE
  8
1
 62
7
  6
CONTINUOUS
 10
105.077440
 20
125.173986
 11
105.077440
 21
113.273986
  0
LINE
  8
1
 62
7
  6
CONTINUOUS
 10
105.077440
 20
125.173986
 11
105.077440
 21
127.173986
  0
LINE
  8
1
 62
7
  6
CONTINUOUS
 10
99.772057
 20
125.173986
 11
100.332776
 21
125.173986
  0
LINE
  8
1
 62
7
  6
CONTINUOUS
 10
99.772057
 20
127.173986
 11
99.772057
 21
125.173986
  0
LINE
  8
1
 62
7
  6
CONTINUOUS
 10
105.077440
 20
127.173986
 11
105.077440
 21
133.223986
  0
LINE
  8
1
 62
7
  6
CONTINUOUS
 10
105.077440
 20
127.173986
 11
100.332776
 21
127.173986
  0
LINE
  8
1
 62
7
  6
CONTINUOUS
 10
105.077440
 20
133.223986
 11
103.958753
 21
133.223986
  0
LINE
  8
1
 62
7
  6
CONTINUOUS
 10
105.077440
 20
105.223986
 11
105.077440
 21
111.273986
  0
LINE
  8
1
 62
7
  6
CONTINUOUS
 10
97.177440
 20
105.223986
 11
101.229925
 21
105.223986
  0
LINE
  8
1
 62
7
  6
CONTINUOUS
 10
97.177440
 20
133.223986
 11
97.177440
 21
105.223986
  0
LINE
  8
1
 62
7
  6
CONTINUOUS
 10
26.482124
 20
130.723986
 11
18.582124
 21
130.723986
  0
LINE
  8
1
 62
7
  6
CONTINUOUS
 10
18.582124
 20
107.723986
 11
26.482124
 21
107.723986
  0
LINE
  8
1
 62
7
  6
CONTINUOUS
 10
18.582124
 20
130.723986
 11
18.582124
 21
107.723986
  0
LINE
  8
1
 62
7
  6
CONTINUOUS
 10
77.177440
 20
114.723986
 11
61.365761
 21
114.723986
  0
LINE
  8
1
 62
7
  6
CONTINUOUS
 10
77.177440
 20
115.723986
 11
61.890992
 21
115.723986
  0
LINE
  8
1
 62
7
  6
CONTINUOUS
 10
77.177440
 20
116.723986
 11
62.119364
 21
116.723986
  0
LINE
  8
1
 62
7
  6
CONTINUOUS
 10
77.177440
 20
117.723986
 11
61.826663
 21
117.723986
  0
LINE
  8
1
 62
7
  6
CONTINUOUS
 10
77.177440
 20
120.723986
 11
60.145642
 21
120.723986
  0
LINE
  8
1
 62
7
  6
CONTINUOUS
 10
77.177440
 20
121.723986
 11
60.306395
 21
121.723986
  0
LINE
  8
1
 62
7
  6
CONTINUOUS
 10
77.177440
 20
122.723986
 11
60.877850
 21
122.723986
  0
LINE
  8
1
 62
7
  6
CONTINUOUS
 10
77.177440
 20
123.723986
 11
61.652848
 21
123.723986
  0
LINE
  8
1
 62
7
  6
CONTINUOUS
 10
60.791587
 20
123.723986
 11
46.482124
 21
123.723986
  0
LINE
  8
1
 62
7
  6
CONTINUOUS
 10
60.540386
 20
114.723986
 11
46.482124
 21
114.723986
  0
LINE
  8
1
 62
7
  6
CONTINUOUS
 10
60.195761
 20
122.723986
 11
46.482124
 21
122.723986
  0
LINE
  8
1
 62
7
  6
CONTINUOUS
 10
59.704931
 20
121.723986
 11
46.482124
 21
121.723986
  0
LINE
  8
1
 62
7
  6
CONTINUOUS
 10
59.436268
 20
120.723986
 11
46.482124
 21
120.723986
  0
LINE
  8
1
 62
7
  6
CONTINUOUS
 10
59.535582
 20
119.723986
 11
42.808571
 21
119.723986
  0
LINE
  8
1
 62
7
  6
CONTINUOUS
 10
60.132620
 20
118.675135
 11
41.786451
 21
118.623168
  0
LINE
  8
1
 62
7
  6
CONTINUOUS
 10
60.801067
 20
117.723986
 11
46.482124
 21
117.723986
  0
LINE
  8
1
 62
7
  6
CONTINUOUS
 10
61.186332
 20
116.723986
 11
46.482124
 21
116.723986
  0
LINE
  8
1
 62
7
  6
CONTINUOUS
 10
61.013223
 20
115.723986
 11
46.482124
 21
115.723986
  0
LINE
  8
1
 62
7
  6
CONTINUOUS
 10
19.316913
 20
69.407731
 11
21.798767
 21
69.407731
  0
LINE
  8
1
 62
7
  6
CONTINUOUS
 10
19.316913
 20
77.487731
 11
21.798767
 21
77.487731
  0
LINE
  8
1
 62
7
  6
CONTINUOUS
 10
18.957840
 20
76.477731
 11
18.957840
 21
70.417731
  0
LINE
  8
1
 62
7
  6
CONTINUOUS
 10
21.798767
 20
75.467731
 11
19.316913
 21
75.467731
  0
LINE
  8
1
 62
7
  6
CONTINUOUS
 10
21.798767
 20
71.427731
 11
19.316913
 21
71.427731
  0
LINE
  8
1
 62
7
  6
CONTINUOUS
 10
22.157788
 20
76.477731
 11
22.157788
 21
70.417731
  0
LINE
  8
1
 62
7
  6
CONTINUOUS
 10
24.112862
 20
73.447731
 11
17.768178
 21
73.447731
  0
LINE
  8
1
 62
7
  6
CONTINUOUS
 10
99.211176
 20
73.947731
 11
99.211176
 21
69.647731
  0
LINE
  8
1
 62
7
  6
CONTINUOUS
 10
94.477843
 20
75.047731
 11
98.877843
 21
75.047731
  0
LINE
  8
1
 62
7
  6
CONTINUOUS
 10
94.538449
 20
75.447731
 11
98.938449
 21
75.447731
  0
LINE
  8
1
 62
7
  6
CONTINUOUS
 10
100.711176
 20
71.847731
 11
100.544510
 21
71.847731
  0
LINE
  8
1
 62
7
  6
CONTINUOUS
 10
100.711176
 20
71.447731
 11
100.483904
 21
71.447731
  0
LINE
  8
1
 62
7
  6
CONTINUOUS
 10
31.403997
 20
71.447731
 11
30.711176
 21
71.847731
  0
LINE
  8
1
 62
7
  6
CONTINUOUS
 10
31.403997
 20
71.447731
 11
31.403997
 21
71.847731
  0
LINE
  8
1
 62
7
  6
CONTINUOUS
 10
30.711176
 20
75.047731
 11
31.403997
 21
75.447731
  0
LINE
  8
1
 62
7
  6
CONTINUOUS
 10
31.403997
 20
75.447731
 11
94.538449
 21
75.447731
  0
LINE
  8
1
 62
7
  6
CONTINUOUS
 10
31.403997
 20
71.847731
 11
31.403997
 21
75.047731
  0
LINE
  8
1
 62
7
  6
CONTINUOUS
 10
31.403997
 20
71.847731
 11
30.711176
 21
71.847731
  0
LINE
  8
1
 62
7
  6
CONTINUOUS
 10
30.711176
 20
71.847731
 11
30.711176
 21
75.047731
  0
LINE
  8
1
 62
7
  6
CONTINUOUS
 10
30.711176
 20
75.047731
 11
31.403997
 21
75.047731
  0
LINE
  8
1
 62
7
  6
CONTINUOUS
 10
31.403997
 20
75.047731
 11
31.403997
 21
75.447731
  0
LINE
  8
1
 62
7
  6
CONTINUOUS
 10
31.403997
 20
75.047731
 11
94.477843
 21
75.047731
  0
LINE
  8
1
 62
7
  6
CONTINUOUS
 10
104.711176
 20
73.447731
 11
29.043925
 21
73.447731
  0
LINE
  8
1
 62
7
  6
CONTINUOUS
 10
100.711176
 20
69.947731
 11
101.311176
 21
69.947731
  0
LINE
  8
1
 62
7
  6
CONTINUOUS
 10
103.311176
 20
71.947731
 11
103.311176
 21
74.947731
  0
LINE
  8
1
 62
7
  6
CONTINUOUS
 10
101.311176
 20
76.947731
 11
100.711176
 21
76.947731
  0
LINE
  8
1
 62
7
  6
CONTINUOUS
 10
100.711176
 20
76.947731
 11
100.711176
 21
69.947731
  0
LINE
  8
1
 62
7
  6
CONTINUOUS
 10
99.211176
 20
69.647731
 11
99.711176
 21
72.947731
  0
LINE
  8
1
 62
7
  6
CONTINUOUS
 10
99.711176
 20
72.947731
 11
100.711176
 21
72.947731
  0
LINE
  8
1
 62
7
  6
CONTINUOUS
 10
100.711176
 20
72.947731
 11
100.211176
 21
69.647731
  0
LINE
  8
1
 62
7
  6
CONTINUOUS
 10
100.211176
 20
69.647731
 11
99.211176
 21
69.647731
  0
LINE
  8
1
 62
7
  6
CONTINUOUS
 10
98.711176
 20
73.947731
 11
99.211176
 21
77.247731
  0
LINE
  8
1
 62
7
  6
CONTINUOUS
 10
99.211176
 20
77.247731
 11
100.211176
 21
77.247731
  0
LINE
  8
1
 62
7
  6
CONTINUOUS
 10
100.211176
 20
77.247731
 11
99.711176
 21
73.947731
  0
LINE
  8
1
 62
7
  6
CONTINUOUS
 10
99.711176
 20
73.947731
 11
98.711176
 21
73.947731
  0
LINE
  8
1
 62
7
  6
CONTINUOUS
 10
100.211176
 20
77.247731
 11
100.211176
 21
72.947731
  0
LINE
  8
1
 62
7
  6
CONTINUOUS
 10
100.211176
 20
75.447731
 11
100.711176
 21
75.447731
  0
LINE
  8
1
 62
7
  6
CONTINUOUS
 10
100.211176
 20
75.047731
 11
100.711176
 21
75.047731
  0
LINE
  8
1
 62
7
  6
CONTINUOUS
 10
99.211176
 20
71.847731
 11
31.403997
 21
71.847731
  0
LINE
  8
1
 62
7
  6
CONTINUOUS
 10
99.211176
 20
71.447731
 11
31.403997
 21
71.447731
  0
LINE
  8
1
 62
7
  6
CONTINUOUS
 10
125.087072
 20
106.145222
 11
125.087072
 21
104.124496
  0
LINE
  8
1
 62
7
  6
CONTINUOUS
 10
125.087072
 20
104.124496
 11
125.087072
 21
102.103770
  0
LINE
  8
1
 62
7
  6
CONTINUOUS
 10
125.087072
 20
102.103770
 11
128.587072
 21
100.083044
  0
LINE
  8
1
 62
7
  6
CONTINUOUS
 10
128.587072
 20
100.083044
 11
132.087072
 21
102.103770
  0
LINE
  8
1
 62
7
  6
CONTINUOUS
 10
132.087072
 20
102.103770
 11
132.087072
 21
106.145222
  0
LINE
  8
1
 62
7
  6
CONTINUOUS
 10
132.087072
 20
106.145222
 11
128.587072
 21
108.165947
  0
LINE
  8
1
 62
7
  6
CONTINUOUS
 10
128.587072
 20
108.165947
 11
125.087072
 21
106.145222
  0
LINE
  8
1
 62
7
  6
CONTINUOUS
 10
174.584547
 20
56.647747
 11
174.584547
 21
54.627021
  0
LINE
  8
1
 62
7
  6
CONTINUOUS
 10
174.584547
 20
54.627021
 11
174.584547
 21
52.606295
  0
LINE
  8
1
 62
7
  6
CONTINUOUS
 10
174.584547
 20
52.606295
 11
178.084547
 21
50.585569
  0
LINE
  8
1
 62
7
  6
CONTINUOUS
 10
178.084547
 20
50.585569
 11
181.584547
 21
52.606295
  0
LINE
  8
1
 62
7
  6
CONTINUOUS
 10
181.584547
 20
52.606295
 11
181.584547
 21
56.647747
  0
LINE
  8
1
 62
7
  6
CONTINUOUS
 10
181.584547
 20
56.647747
 11
178.084547
 21
58.668473
  0
LINE
  8
1
 62
7
  6
CONTINUOUS
 10
178.084547
 20
58.668473
 11
174.584547
 21
56.647747
  0
LINE
  8
1
 62
7
  6
CONTINUOUS
 10
128.587072
 20
54.627021
 11
125.112369
 21
51.152317
  0
LINE
  8
1
 62
7
  6
CONTINUOUS
 10
132.591702
 20
58.631651
 11
128.587072
 21
54.627021
  0
ARC
  8
1
 62
7
  6
CONTINUOUS
 10
277.214422
 20
51.597021
 40
1.600000
 50
-39.142406
 51
0.000000
  0
ARC
  8
1
 62
7
  6
CONTINUOUS
 10
277.214422
 20
57.657021
 40
1.600000
 50
-39.142406
 51
0.000000
  0
ARC
  8
1
 62
7
  6
CONTINUOUS
 10
153.335810
 20
79.375758
 40
35.000000
 50
-52.886003
 51
-45.000000
  0
ARC
  8
1
 62
7
  6
CONTINUOUS
 10
153.335810
 20
79.375758
 40
35.000000
 50
36.208274
 51
68.568492
  0
ARC
  8
1
 62
7
  6
CONTINUOUS
 10
153.335810
 20
79.375758
 40
35.000000
 50
-142.878965
 51
-116.719613
  0
ARC
  8
1
 62
7
  6
CONTINUOUS
 10
153.335810
 20
79.375758
 40
35.000000
 50
-142.878965
 51
-116.719613
  0
ARC
  8
1
 62
7
  6
CONTINUOUS
 10
153.335810
 20
79.375758
 40
35.000000
 50
127.113997
 51
143.631553
  0
ARC
  8
1
 62
7
  6
CONTINUOUS
 10
153.335810
 20
79.375758
 40
35.000000
 50
-45.000000
 51
-36.368447
  0
ARC
  8
1
 62
7
  6
CONTINUOUS
 10
272.953031
 20
54.627021
 40
5.861391
 50
-20.159096
 51
20.159096
  0
ARC
  8
1
 62
7
  6
CONTINUOUS
 10
277.214422
 20
51.597021
 40
1.600000
 50
0.000000
 51
39.142406
  0
ARC
  8
1
 62
7
  6
CONTINUOUS
 10
277.214422
 20
57.657021
 40
1.600000
 50
0.000000
 51
39.142406
  0
ARC
  8
1
 62
7
  6
CONTINUOUS
 10
281.475812
 20
54.627021
 40
5.861391
 50
159.840904
 51
-159.840904
  0
ARC
  8
1
 62
7
  6
CONTINUOUS
 10
277.214422
 20
51.597021
 40
1.600000
 50
140.857594
 51
-140.857594
  0
ARC
  8
1
 62
7
  6
CONTINUOUS
 10
277.214422
 20
57.657021
 40
1.600000
 50
140.857594
 51
-140.857594
  0
ARC
  8
1
 62
7
  6
CONTINUOUS
 10
259.814422
 20
107.375758
 40
15.000000
 50
-90.000000
 51
-68.960530
  0
ARC
  8
1
 62
7
  6
CONTINUOUS
 10
281.475812
 20
104.124496
 40
5.861391
 50
159.840904
 51
-159.840904
  0
ARC
  8
1
 62
7
  6
CONTINUOUS
 10
277.214422
 20
101.094496
 40
1.600000
 50
140.857594
 51
-140.857594
  0
ARC
  8
1
 62
7
  6
CONTINUOUS
 10
277.214422
 20
107.154496
 40
1.600000
 50
140.857594
 51
-140.857594
  0
ARC
  8
1
 62
7
  6
CONTINUOUS
 10
272.953031
 20
104.124496
 40
5.861391
 50
-20.159096
 51
20.159096
  0
ARC
  8
1
 62
7
  6
CONTINUOUS
 10
277.214422
 20
101.094496
 40
1.600000
 50
-39.142406
 51
39.142406
  0
ARC
  8
1
 62
7
  6
CONTINUOUS
 10
277.214422
 20
107.154496
 40
1.600000
 50
-39.142406
 51
39.142406
  0
ARC
  8
1
 62
7
  6
CONTINUOUS
 10
20.557840
 20
76.477731
 40
1.600000
 50
140.857594
 51
-140.857594
  0
ARC
  8
1
 62
7
  6
CONTINUOUS
 10
20.557840
 20
70.417731
 40
1.600000
 50
140.857594
 51
-140.857594
  0
ARC
  8
1
 62
7
  6
CONTINUOUS
 10
24.819230
 20
73.447731
 40
5.861391
 50
159.840904
 51
-159.840904
  0
ARC
  8
1
 62
7
  6
CONTINUOUS
 10
20.557840
 20
76.477731
 40
1.600000
 50
0.000000
 51
39.142406
  0
ARC
  8
1
 62
7
  6
CONTINUOUS
 10
20.557840
 20
70.417731
 40
1.600000
 50
0.000000
 51
39.142406
  0
ARC
  8
1
 62
7
  6
CONTINUOUS
 10
16.296449
 20
73.447731
 40
5.861391
 50
-20.159096
 51
20.159096
  0
ARC
  8
1
 62
7
  6
CONTINUOUS
 10
20.557840
 20
76.477731
 40
1.600000
 50
-39.142406
 51
0.000000
  0
ARC
  8
1
 62
7
  6
CONTINUOUS
 10
20.557840
 20
70.417731
 40
1.600000
 50
-39.142406
 51
0.000000
  0
CIRCLE
  8
1
 62
7
  6
CONTINUOUS
 10
153.335810
 20
79.375969
 40
35.000149
  0
CIRCLE
  8
1
 62
7
  6
CONTINUOUS
 10
178.084547
 20
54.627021
 40
5.752227
  0
CIRCLE
  8
1
 62
7
  6
CONTINUOUS
 10
128.587072
 20
104.124496
 40
5.753479
  0
CIRCLE
  8
1
 62
7
  6
CONTINUOUS
 10
128.587072
 20
54.627021
 40
5.754255
  0
CIRCLE
  8
1
 62
7
  6
CONTINUOUS
 10
178.084547
 20
104.124496
 40
5.778077
  0
CIRCLE
  8
1
 62
7
  6
CONTINUOUS
 10
153.335810
 20
89.375758
 40
4.000000
  0
CIRCLE
  8
1
 62
7
  6
CONTINUOUS
 10
128.587072
 20
54.627021
 40
1.400000
  0
CIRCLE
  8
1
 62
7
  6
CONTINUOUS
 10
128.587072
 20
54.627021
 40
2.000000
  0
CIRCLE
  8
1
 62
7
  6
CONTINUOUS
 10
128.587072
 20
54.627021
 40
3.500000
  0
CIRCLE
  8
1
 62
7
  6
CONTINUOUS
 10
178.084547
 20
104.124496
 40
1.400000
  0
CIRCLE
  8
1
 62
7
  6
CONTINUOUS
 10
178.084547
 20
104.124496
 40
2.000000
  0
CIRCLE
  8
1
 62
7
  6
CONTINUOUS
 10
178.084547
 20
104.124496
 40
3.500000
  0
CIRCLE
  8
1
 62
7
  6
CONTINUOUS
 10
153.335810
 20
89.375758
 40
12.500000
  0
CIRCLE
  8
1
 62
7
  6
CONTINUOUS
 10
128.587072
 20
104.124496
 40
1.400000
  0
CIRCLE
  8
1
 62
7
  6
CONTINUOUS
 10
128.587072
 20
104.124496
 40
2.000000
  0
CIRCLE
  8
1
 62
7
  6
CONTINUOUS
 10
128.587072
 20
104.124496
 40
3.500000
  0
CIRCLE
  8
1
 62
7
  6
CONTINUOUS
 10
178.084547
 20
54.627021
 40
1.400000
  0
CIRCLE
  8
1
 62
7
  6
CONTINUOUS
 10
178.084547
 20
54.627021
 40
2.000000
  0
CIRCLE
  8
1
 62
7
  6
CONTINUOUS
 10
178.084547
 20
54.627021
 40
3.500000
  0
ARC
  8
1
 62
7
  6
CONTINUOUS
 10
65.214151
 20
-39.848591
 40
159.344970
 50
83.734386
 51
83.998960
  0
ARC
  8
1
 62
7
  6
CONTINUOUS
 10
76.821689
 20
65.871152
 40
52.989909
 50
82.939614
 51
83.734586
  0
ARC
  8
1
 62
7
  6
CONTINUOUS
 10
79.442555
 20
87.030729
 40
31.668638
 50
81.611441
 51
82.939896
  0
ARC
  8
1
 62
7
  6
CONTINUOUS
 10
80.775755
 20
96.071295
 40
22.530298
 50
79.746748
 51
81.611565
  0
ARC
  8
1
 62
7
  6
CONTINUOUS
 10
81.685232
 20
101.095731
 40
17.424212
 50
75.722763
 51
79.748744
  0
ARC
  8
1
 62
7
  6
CONTINUOUS
 10
76.391441
 20
80.044875
 40
39.130458
 50
75.092070
 51
75.812300
  0
ARC
  8
1
 62
7
  6
CONTINUOUS
 10
-482.799007
 20
-2020.398174
 40
2212.734598
 50
75.079467
 51
75.092209
  0
ARC
  8
1
 62
7
  6
CONTINUOUS
 10
97.382705
 20
156.944152
 40
40.580831
 50
-104.920645
 51
-104.226065
  0
ARC
  8
1
 62
7
  6
CONTINUOUS
 10
92.340747
 20
137.056577
 40
20.064082
 50
-104.226065
 51
-102.822334
  0
ARC
  8
1
 62
7
  6
CONTINUOUS
 10
91.716834
 20
134.315360
 40
17.252758
 50
-102.822334
 51
-100.623294
  0
ARC
  8
1
 62
7
  6
CONTINUOUS
 10
97.402435
 20
164.627935
 40
48.093937
 50
-100.623294
 51
-99.834123
  0
ARC
  8
1
 62
7
  6
CONTINUOUS
 10
103.920757
 20
202.231462
 40
86.258236
 50
-99.834123
 51
-99.393799
  0
ARC
  8
1
 62
7
  6
CONTINUOUS
 10
80.873342
 20
63.687228
 40
54.190022
 50
79.772499
 51
80.473753
  0
ARC
  8
1
 62
7
  6
CONTINUOUS
 10
86.213839
 20
93.287367
 40
24.111970
 50
78.195463
 51
79.772318
  0
ARC
  8
1
 62
7
  6
CONTINUOUS
 10
85.676005
 20
91.071313
 40
26.391285
 50
76.734083
 51
78.036734
  0
ARC
  8
1
 62
7
  6
CONTINUOUS
 10
63.018234
 20
-5.036428
 40
125.133740
 50
76.459606
 51
76.734430
  0
ARC
  8
1
 62
7
  6
CONTINUOUS
 10
102.996412
 20
160.967681
 40
45.616424
 50
-103.540780
 51
-102.787748
  0
ARC
  8
1
 62
7
  6
CONTINUOUS
 10
97.143130
 20
135.178842
 40
19.171668
 50
-102.787748
 51
-101.000280
  0
ARC
  8
1
 62
7
  6
CONTINUOUS
 10
95.784789
 20
128.190963
 40
12.052992
 50
-101.000280
 51
-98.164012
  0
ARC
  8
1
 62
7
  6
CONTINUOUS
 10
95.542918
 20
126.504995
 40
10.349763
 50
-98.164012
 51
-94.737630
  0
ARC
  8
1
 62
7
  6
CONTINUOUS
 10
96.060837
 20
132.754312
 40
16.620505
 50
-94.737630
 51
-92.599677
  0
ARC
  8
1
 62
7
  6
CONTINUOUS
 10
96.110191
 20
133.841303
 40
17.708616
 50
-92.599677
 51
-90.586845
  0
ARC
  8
1
 62
7
  6
CONTINUOUS
 10
96.425054
 20
164.581452
 40
48.450378
 50
-90.586845
 51
-89.849128
  0
ARC
  8
1
 62
7
  6
CONTINUOUS
 10
96.403336
 20
172.829131
 40
56.698085
 50
-89.849128
 51
-89.217711
  0
ARC
  8
1
 62
7
  6
CONTINUOUS
 10
-1.866832
 20
-910.083071
 40
1033.123814
 50
85.391493
 51
85.407655
  0
ARC
  8
1
 62
7
  6
CONTINUOUS
 10
53.458902
 20
-223.723563
 40
344.538081
 50
85.343017
 51
85.391490
  0
ARC
  8
1
 62
7
  6
CONTINUOUS
 10
64.632150
 20
-86.559516
 40
206.919705
 50
85.262274
 51
85.343012
  0
ARC
  8
1
 62
7
  6
CONTINUOUS
 10
69.497601
 20
-27.853016
 40
148.011932
 50
85.149342
 51
85.262266
  0
ARC
  8
1
 62
7
  6
CONTINUOUS
 10
72.260098
 20
4.699739
 40
115.342172
 50
85.004329
 51
85.149331
  0
ARC
  8
1
 62
7
  6
CONTINUOUS
 10
77.174772
 20
60.404288
 40
59.421274
 50
84.399528
 51
85.047937
  0
ARC
  8
1
 62
7
  6
CONTINUOUS
 10
79.855261
 20
87.737930
 40
31.956515
 50
83.193849
 51
84.399840
  0
ARC
  8
1
 62
7
  6
CONTINUOUS
 10
81.062729
 20
97.853242
 40
21.769390
 50
81.425559
 51
83.194340
  0
ARC
  8
1
 62
7
  6
CONTINUOUS
 10
81.855182
 20
103.108379
 40
16.454840
 50
79.088749
 51
81.425856
  0
ARC
  8
1
 62
7
  6
CONTINUOUS
 10
82.449612
 20
106.198049
 40
13.308507
 50
74.121621
 51
79.083777
  0
ARC
  8
1
 62
7
  6
CONTINUOUS
 10
75.803267
 20
82.443031
 40
37.975708
 50
73.554789
 51
74.282353
  0
ARC
  8
1
 62
7
  6
CONTINUOUS
 10
111.988898
 20
205.034300
 40
89.844553
 50
-106.445163
 51
-106.137660
  0
ARC
  8
1
 62
7
  6
CONTINUOUS
 10
92.719893
 20
138.439582
 40
20.518144
 50
-106.137660
 51
-104.792916
  0
ARC
  8
1
 62
7
  6
CONTINUOUS
 10
90.421517
 20
129.736218
 40
11.516418
 50
-104.792916
 51
-102.401210
  0
ARC
  8
1
 62
7
  6
CONTINUOUS
 10
90.175598
 20
128.617828
 40
10.371309
 50
-102.401210
 51
-98.797199
  0
ARC
  8
1
 62
7
  6
CONTINUOUS
 10
93.649555
 20
151.065482
 40
33.086185
 50
-98.797199
 51
-97.665434
  0
ARC
  8
1
 62
7
  6
CONTINUOUS
 10
100.822740
 20
204.361645
 40
86.862904
 50
-97.665434
 51
-97.233648
  0
ARC
  8
1
 62
7
  6
CONTINUOUS
 10
86.812332
 20
94.699785
 40
23.690455
 50
80.963430
 51
82.546916
  0
ARC
  8
1
 62
7
  6
CONTINUOUS
 10
88.669704
 20
106.378953
 40
11.864518
 50
77.801427
 51
80.963105
  0
ARC
  8
1
 62
7
  6
CONTINUOUS
 10
88.449479
 20
105.655156
 40
12.618659
 50
74.712164
 51
77.518486
  0
ARC
  8
1
 62
7
  6
CONTINUOUS
 10
82.452750
 20
83.711678
 40
35.366780
 50
73.711185
 51
74.714228
  0
ARC
  8
1
 62
7
  6
CONTINUOUS
 10
104.959478
 20
160.732795
 40
44.875386
 50
-106.289424
 51
-105.500181
  0
ARC
  8
1
 62
7
  6
CONTINUOUS
 10
96.586801
 20
130.542271
 40
13.545377
 50
-105.500181
 51
-102.898891
  0
ARC
  8
1
 62
7
  6
CONTINUOUS
 10
95.311297
 20
124.972630
 40
7.831551
 50
-102.898891
 51
-98.426239
  0
ARC
  8
1
 62
7
  6
CONTINUOUS
 10
95.120131
 20
123.682149
 40
6.526988
 50
-98.426239
 51
-93.181031
  0
ARC
  8
1
 62
7
  6
CONTINUOUS
 10
95.358938
 20
127.979040
 40
10.830510
 50
-93.181031
 51
-90.005707
  0
ARC
  8
1
 62
7
  6
CONTINUOUS
 10
95.358985
 20
128.452776
 40
11.304246
 50
-90.005707
 51
-86.942028
  0
ARC
  8
1
 62
7
  6
CONTINUOUS
 10
94.173792
 20
150.638086
 40
33.521191
 50
-86.942028
 51
-85.902480
  0
ARC
  8
1
 62
7
  6
CONTINUOUS
 10
94.048889
 20
152.381633
 40
35.269206
 50
-85.902480
 51
-84.910895
  0
ARC
  8
1
 62
7
  6
CONTINUOUS
 10
97.293336
 20
247.437149
 40
141.213210
 50
-90.415491
 51
-90.047024
  0
ARC
  8
1
 62
7
  6
CONTINUOUS
 10
96.608457
 20
153.061916
 40
46.835492
 50
-91.524009
 51
-90.414895
  0
ARC
  8
1
 62
7
  6
CONTINUOUS
 10
96.103413
 20
134.095112
 40
27.861965
 50
-93.382250
 51
-91.523130
  0
ARC
  8
1
 62
7
  6
CONTINUOUS
 10
95.622995
 20
125.969125
 40
19.721789
 50
-96.000353
 51
-93.381750
  0
ARC
  8
1
 62
7
  6
CONTINUOUS
 10
95.157189
 20
121.535213
 40
15.263477
 50
-99.379262
 51
-96.001268
  0
ARC
  8
1
 62
7
  6
CONTINUOUS
 10
95.021759
 20
120.593245
 40
14.312044
 50
-101.961266
 51
-99.458896
  0
ARC
  8
1
 62
7
  6
CONTINUOUS
 10
95.288249
 20
121.851208
 40
15.597924
 50
-104.261541
 51
-101.961230
  0
ARC
  8
1
 62
7
  6
CONTINUOUS
 10
95.661997
 20
123.321898
 40
17.115362
 50
-106.362211
 51
-104.261298
  0
ARC
  8
1
 62
7
  6
CONTINUOUS
 10
96.166071
 20
125.039218
 40
18.905133
 50
-108.267842
 51
-106.361831
  0
ARC
  8
1
 62
7
  6
CONTINUOUS
 10
96.836055
 20
127.069007
 40
21.042637
 50
-112.963665
 51
-108.267738
  0
ARC
  8
1
 62
7
  6
CONTINUOUS
 10
95.256495
 20
123.296029
 40
16.952406
 50
-116.720706
 51
-113.023262
  0
ARC
  8
1
 62
7
  6
CONTINUOUS
 10
94.157704
 20
121.113866
 40
14.509216
 50
-121.034190
 51
-116.719687
  0
ARC
  8
1
 62
7
  6
CONTINUOUS
 10
93.217863
 20
119.551197
 40
12.685693
 50
-125.971900
 51
-121.035641
  0
ARC
  8
1
 62
7
  6
CONTINUOUS
 10
92.451612
 20
118.493662
 40
11.379738
 50
-131.504951
 51
-125.977201
  0
ARC
  8
1
 62
7
  6
CONTINUOUS
 10
95.220965
 20
121.487814
 40
15.457522
 50
-136.047542
 51
-131.837757
  0
ARC
  8
1
 62
7
  6
CONTINUOUS
 10
137.740010
 20
162.500170
 40
74.532750
 50
-136.912881
 51
-136.036297
  0
ARC
  8
1
 62
7
  6
CONTINUOUS
 10
64.006782
 20
93.539886
 40
26.423230
 50
43.076089
 51
45.524555
  0
ARC
  8
1
 62
7
  6
CONTINUOUS
 10
75.088605
 20
104.826503
 40
10.605692
 50
45.524555
 51
51.494793
  0
ARC
  8
1
 62
7
  6
CONTINUOUS
 10
77.794760
 20
108.227971
 40
6.259054
 50
51.494793
 51
61.412868
  0
ARC
  8
1
 62
7
  6
CONTINUOUS
 10
78.261518
 20
109.084525
 40
5.283580
 50
61.412868
 51
69.325349
  0
ARC
  8
1
 62
7
  6
CONTINUOUS
 10
76.732532
 20
105.032759
 40
9.614240
 50
69.325349
 51
73.740540
  0
ARC
  8
1
 62
7
  6
CONTINUOUS
 10
76.736807
 20
105.047418
 40
9.598970
 50
73.740540
 51
78.247314
  0
ARC
  8
1
 62
7
  6
CONTINUOUS
 10
71.450580
 20
79.638873
 40
35.551587
 50
78.247314
 51
79.483030
  0
ARC
  8
1
 62
7
  6
CONTINUOUS
 10
72.773970
 20
86.767466
 40
28.301194
 50
79.483030
 51
81.048806
  0
ARC
  8
1
 62
7
  6
CONTINUOUS
 10
97.293336
 20
248.437149
 40
141.213210
 50
-90.415491
 51
-90.047024
  0
ARC
  8
1
 62
7
  6
CONTINUOUS
 10
96.608457
 20
154.061916
 40
46.835492
 50
-91.524009
 51
-90.414895
  0
ARC
  8
1
 62
7
  6
CONTINUOUS
 10
96.103413
 20
135.095112
 40
27.861965
 50
-93.382250
 51
-91.523130
  0
ARC
  8
1
 62
7
  6
CONTINUOUS
 10
95.622995
 20
126.969125
 40
19.721789
 50
-96.000353
 51
-93.381750
  0
ARC
  8
1
 62
7
  6
CONTINUOUS
 10
95.157189
 20
122.535213
 40
15.263477
 50
-99.379262
 51
-96.001268
  0
ARC
  8
1
 62
7
  6
CONTINUOUS
 10
95.021759
 20
121.593245
 40
14.312044
 50
-101.961266
 51
-99.458896
  0
ARC
  8
1
 62
7
  6
CONTINUOUS
 10
95.288249
 20
122.851208
 40
15.597924
 50
-104.261541
 51
-101.961230
  0
ARC
  8
1
 62
7
  6
CONTINUOUS
 10
95.661997
 20
124.321898
 40
17.115362
 50
-106.362211
 51
-104.261298
  0
ARC
  8
1
 62
7
  6
CONTINUOUS
 10
96.166071
 20
126.039218
 40
18.905133
 50
-108.267842
 51
-106.361831
  0
ARC
  8
1
 62
7
  6
CONTINUOUS
 10
96.836055
 20
128.069007
 40
21.042637
 50
-112.963665
 51
-108.267738
  0
ARC
  8
1
 62
7
  6
CONTINUOUS
 10
95.256495
 20
124.296029
 40
16.952406
 50
-116.720706
 51
-113.023262
  0
ARC
  8
1
 62
7
  6
CONTINUOUS
 10
94.157704
 20
122.113866
 40
14.509216
 50
-121.034190
 51
-116.719687
  0
ARC
  8
1
 62
7
  6
CONTINUOUS
 10
93.217863
 20
120.551197
 40
12.685693
 50
-125.971900
 51
-121.035641
  0
ARC
  8
1
 62
7
  6
CONTINUOUS
 10
92.451612
 20
119.493662
 40
11.379738
 50
-131.504951
 51
-125.977201
  0
ARC
  8
1
 62
7
  6
CONTINUOUS
 10
95.220965
 20
122.487814
 40
15.457522
 50
-136.047542
 51
-131.837757
  0
ARC
  8
1
 62
7
  6
CONTINUOUS
 10
137.740010
 20
163.500170
 40
74.532750
 50
-136.912881
 51
-136.036297
  0
ARC
  8
1
 62
7
  6
CONTINUOUS
 10
64.006782
 20
94.539886
 40
26.423230
 50
43.076089
 51
45.524555
  0
ARC
  8
1
 62
7
  6
CONTINUOUS
 10
75.088605
 20
105.826503
 40
10.605692
 50
45.524555
 51
51.494793
  0
ARC
  8
1
 62
7
  6
CONTINUOUS
 10
77.794760
 20
109.227971
 40
6.259054
 50
51.494793
 51
61.412868
  0
ARC
  8
1
 62
7
  6
CONTINUOUS
 10
78.261518
 20
110.084525
 40
5.283580
 50
61.412868
 51
69.325349
  0
ARC
  8
1
 62
7
  6
CONTINUOUS
 10
76.732532
 20
106.032759
 40
9.614240
 50
69.325349
 51
73.740540
  0
ARC
  8
1
 62
7
  6
CONTINUOUS
 10
76.736807
 20
106.047418
 40
9.598970
 50
73.740540
 51
78.247314
  0
ARC
  8
1
 62
7
  6
CONTINUOUS
 10
71.450580
 20
80.638873
 40
35.551587
 50
78.247314
 51
79.483030
  0
ARC
  8
1
 62
7
  6
CONTINUOUS
 10
72.773970
 20
87.767466
 40
28.301194
 50
79.483030
 51
81.048806
  0
ARC
  8
1
 62
7
  6
CONTINUOUS
 10
90.789688
 20
206.197849
 40
97.682942
 50
-86.686685
 51
-86.250598
  0
ARC
  8
1
 62
7
  6
CONTINUOUS
 10
94.570757
 20
140.872918
 40
32.248677
 50
-88.002018
 51
-86.685312
  0
ARC
  8
1
 62
7
  6
CONTINUOUS
 10
95.031266
 20
127.650849
 40
19.018591
 50
-90.219677
 51
-87.999761
  0
ARC
  8
1
 62
7
  6
CONTINUOUS
 10
95.008899
 20
121.940362
 40
13.308060
 50
-93.368546
 51
-90.217640
  0
ARC
  8
1
 62
7
  6
CONTINUOUS
 10
94.824774
 20
118.812020
 40
10.174305
 50
-97.466632
 51
-93.368599
  0
ARC
  8
1
 62
7
  6
CONTINUOUS
 10
94.877147
 20
118.967099
 40
10.334923
 50
-101.919057
 51
-97.642799
  0
ARC
  8
1
 62
7
  6
CONTINUOUS
 10
95.699713
 20
122.861591
 40
14.315335
 50
-105.022459
 51
-101.921074
  0
ARC
  8
1
 62
7
  6
CONTINUOUS
 10
97.997867
 20
131.427548
 40
23.184221
 50
-106.950231
 51
-105.020820
  0
ARC
  8
1
 62
7
  6
CONTINUOUS
 10
107.990157
 20
164.221250
 40
57.466473
 50
-107.732204
 51
-106.947741
  0
ARC
  8
1
 62
7
  6
CONTINUOUS
 10
49.027494
 20
-20.190343
 40
136.141976
 50
72.269725
 51
72.603048
  0
ARC
  8
1
 62
7
  6
CONTINUOUS
 10
61.554951
 20
19.792275
 40
94.242729
 50
72.603048
 51
73.139587
  0
ARC
  8
1
 62
7
  6
CONTINUOUS
 10
96.882994
 20
135.958431
 40
27.176765
 50
-108.961104
 51
-107.106000
  0
ARC
  8
1
 62
7
  6
CONTINUOUS
 10
92.287625
 20
122.589368
 40
13.039960
 50
-112.779879
 51
-108.952039
  0
ARC
  8
1
 62
7
  6
CONTINUOUS
 10
90.470051
 20
118.263673
 40
8.347923
 50
-118.681264
 51
-112.773512
  0
ARC
  8
1
 62
7
  6
CONTINUOUS
 10
89.445587
 20
116.383817
 40
6.207043
 50
-135.360097
 51
-118.713067
  0
ARC
  8
1
 62
7
  6
CONTINUOUS
 10
96.794311
 20
123.912139
 40
16.726812
 50
-137.996058
 51
-134.698619
  0
ARC
  8
1
 62
7
  6
CONTINUOUS
 10
20.714395
 20
55.383556
 40
85.666158
 50
42.012113
 51
42.656844
  0
ARC
  8
1
 62
7
  6
CONTINUOUS
 10
75.176964
 20
105.564268
 40
11.610265
 50
42.656844
 51
47.325403
  0
ARC
  8
1
 62
7
  6
CONTINUOUS
 10
79.210216
 20
109.938951
 40
5.660058
 50
47.325403
 51
56.623805
  0
ARC
  8
1
 62
7
  6
CONTINUOUS
 10
79.893221
 20
110.975719
 40
4.418533
 50
56.623805
 51
69.696939
  0
ARC
  8
1
 62
7
  6
CONTINUOUS
 10
78.713531
 20
107.787127
 40
7.818354
 50
69.696939
 51
77.235328
  0
ARC
  8
1
 62
7
  6
CONTINUOUS
 10
78.519706
 20
106.931561
 40
8.695601
 50
77.235328
 51
84.257876
  0
ARC
  8
1
 62
7
  6
CONTINUOUS
 10
76.305887
 20
84.915747
 40
30.822441
 50
84.257876
 51
86.300706
  0
ARC
  8
1
 62
7
  6
CONTINUOUS
 10
76.474269
 20
87.520083
 40
28.212668
 50
86.300706
 51
88.571816
  0
ARC
  8
1
 62
7
  6
CONTINUOUS
 10
90.805672
 20
210.964902
 40
101.441226
 50
-86.818130
 51
-86.398743
  0
ARC
  8
1
 62
7
  6
CONTINUOUS
 10
94.574749
 20
143.152709
 40
33.524369
 50
-88.082355
 51
-86.816954
  0
ARC
  8
1
 62
7
  6
CONTINUOUS
 10
95.033035
 20
129.445315
 40
19.809316
 50
-90.211103
 51
-88.080446
  0
ARC
  8
1
 62
7
  6
CONTINUOUS
 10
95.010846
 20
123.532271
 40
13.896231
 50
-93.228585
 51
-90.209440
  0
ARC
  8
1
 62
7
  6
CONTINUOUS
 10
94.828110
 20
120.292094
 40
10.650905
 50
-97.148832
 51
-93.228801
  0
ARC
  8
1
 62
7
  6
CONTINUOUS
 10
94.854649
 20
120.272453
 40
10.634758
 50
-101.467155
 51
-97.303869
  0
ARC
  8
1
 62
7
  6
CONTINUOUS
 10
95.505562
 20
123.479139
 40
13.906841
 50
-104.665833
 51
-101.468850
  0
ARC
  8
1
 62
7
  6
CONTINUOUS
 10
97.060709
 20
129.423091
 40
20.050866
 50
-106.896803
 51
-104.664639
  0
ARC
  8
1
 62
7
  6
CONTINUOUS
 10
101.393281
 20
143.690398
 40
34.961508
 50
-108.183657
 51
-106.894768
  0
ARC
  8
1
 62
7
  6
CONTINUOUS
 10
128.846796
 20
227.282341
 40
122.946213
 50
-108.550526
 51
-108.182019
  0
ARC
  8
1
 62
7
  6
CONTINUOUS
 10
112.918729
 20
180.657927
 40
73.677359
 50
-109.038182
 51
-108.342603
  0
ARC
  8
1
 62
7
  6
CONTINUOUS
 10
96.131389
 20
132.013743
 40
22.217944
 50
-111.333674
 51
-109.034439
  0
ARC
  8
1
 62
7
  6
CONTINUOUS
 10
92.693124
 20
123.214209
 40
12.770538
 50
-115.295376
 51
-111.327360
  0
ARC
  8
1
 62
7
  6
CONTINUOUS
 10
91.003952
 20
119.640724
 40
8.817932
 50
-120.992770
 51
-115.293337
  0
ARC
  8
1
 62
7
  6
CONTINUOUS
 10
89.965328
 20
117.908502
 40
6.798198
 50
-128.392386
 51
-121.006520
  0
ARC
  8
1
 62
7
  6
CONTINUOUS
 10
90.923472
 20
119.004704
 40
8.252722
 50
-135.498206
 51
-128.879634
  0
ARC
  8
1
 62
7
  6
CONTINUOUS
 10
100.111297
 20
128.048900
 40
21.145106
 50
-138.087755
 51
-135.469643
  0
ARC
  8
1
 62
7
  6
CONTINUOUS
 10
49.656401
 20
82.758309
 40
46.655589
 50
41.912733
 51
43.095266
  0
ARC
  8
1
 62
7
  6
CONTINUOUS
 10
76.059407
 20
107.461713
 40
10.497922
 50
43.095266
 51
48.231127
  0
ARC
  8
1
 62
7
  6
CONTINUOUS
 10
79.486379
 20
111.298766
 40
5.353302
 50
48.231127
 51
57.989795
  0
ARC
  8
1
 62
7
  6
CONTINUOUS
 10
80.063202
 20
112.221510
 40
4.265101
 50
57.989795
 51
71.380119
  0
ARC
  8
1
 62
7
  6
CONTINUOUS
 10
79.002973
 20
109.074716
 40
7.585703
 50
71.380119
 51
79.086727
  0
ARC
  8
1
 62
7
  6
CONTINUOUS
 10
78.818766
 20
108.119337
 40
8.558678
 50
79.086727
 51
86.185868
  0
ARC
  8
1
 62
7
  6
CONTINUOUS
 10
77.369646
 20
86.382856
 40
30.343411
 50
86.185868
 51
88.255034
  0
ARC
  8
1
 62
7
  6
CONTINUOUS
 10
77.439194
 20
88.665773
 40
28.059434
 50
88.255034
 51
90.534495
  0
ARC
  8
1
 62
7
  6
CONTINUOUS
 10
93.261569
 20
224.158510
 40
113.002392
 50
-88.334830
 51
-88.014132
  0
ARC
  8
1
 62
7
  6
CONTINUOUS
 10
95.454541
 20
148.714429
 40
37.526445
 50
-89.298951
 51
-88.334443
  0
ARC
  8
1
 62
7
  6
CONTINUOUS
 10
95.639730
 20
133.561837
 40
22.372722
 50
-90.912765
 51
-89.298384
  0
ARC
  8
1
 62
7
  6
CONTINUOUS
 10
95.536109
 20
127.063373
 40
15.873432
 50
-93.182774
 51
-90.912451
  0
ARC
  8
1
 62
7
  6
CONTINUOUS
 10
95.337934
 20
123.497174
 40
12.301731
 50
-96.109432
 51
-93.183384
  0
ARC
  8
1
 62
7
  6
CONTINUOUS
 10
95.305121
 20
123.007270
 40
11.811133
 50
-99.881493
 51
-96.204090
  0
ARC
  8
1
 62
7
  6
CONTINUOUS
 10
95.611038
 20
124.764357
 40
13.594652
 50
-103.084285
 51
-99.880832
  0
ARC
  8
1
 62
7
  6
CONTINUOUS
 10
96.133639
 20
127.014624
 40
15.904807
 50
-105.827789
 51
-103.082874
  0
ARC
  8
1
 62
7
  6
CONTINUOUS
 10
96.962632
 20
129.940814
 40
18.946158
 50
-108.132847
 51
-105.826134
  0
ARC
  8
1
 62
7
  6
CONTINUOUS
 10
98.256753
 20
133.894494
 40
23.106246
 50
-110.020149
 51
-108.131316
  0
ARC
  8
1
 62
7
  6
CONTINUOUS
 10
101.442268
 20
142.630477
 40
32.404896
 50
-110.903860
 51
-110.024133
  0
ARC
  8
1
 62
7
  6
CONTINUOUS
 10
113.748185
 20
174.848712
 40
66.893304
 50
-111.329770
 51
-110.904246
  0
ARC
  8
1
 62
7
  6
CONTINUOUS
 10
-239.790926
 20
-730.538192
 40
905.071381
 50
68.670144
 51
68.701586
  0
ARC
  8
1
 62
7
  6
CONTINUOUS
 10
67.761839
 20
58.358389
 40
58.344436
 50
68.701586
 51
69.189789
  0
ARC
  8
1
 62
7
  6
CONTINUOUS
 10
77.711195
 20
84.536198
 40
30.339662
 50
69.189789
 51
70.130686
  0
ARC
  8
1
 62
7
  6
CONTINUOUS
 10
75.418628
 20
78.192440
 40
37.084967
 50
70.130686
 51
71.078679
  0
ARC
  8
1
 62
7
  6
CONTINUOUS
 10
98.335505
 20
144.731797
 40
33.290320
 50
-110.153295
 51
-109.096662
  0
ARC
  8
1
 62
7
  6
CONTINUOUS
 10
91.295049
 20
125.549818
 40
12.857103
 50
-112.878684
 51
-110.150746
  0
ARC
  8
1
 62
7
  6
CONTINUOUS
 10
89.365886
 20
120.978422
 40
7.895315
 50
-117.304543
 51
-112.877788
  0
ARC
  8
1
 62
7
  6
CONTINUOUS
 10
88.380208
 20
119.067125
 40
5.744824
 50
-123.405919
 51
-117.313475
  0
ARC
  8
1
 62
7
  6
CONTINUOUS
 10
89.158046
 20
120.138547
 40
7.067739
 50
-129.536096
 51
-123.887809
  0
ARC
  8
1
 62
7
  6
CONTINUOUS
 10
99.982915
 20
133.267823
 40
24.084074
 50
-131.187945
 51
-129.514134
  0
ARC
  8
1
 62
7
  6
CONTINUOUS
 10
72.110216
 20
101.419111
 40
18.238825
 50
48.804740
 51
51.001020
  0
ARC
  8
1
 62
7
  6
CONTINUOUS
 10
79.654849
 20
110.736297
 40
6.250021
 50
51.001020
 51
57.272292
  0
ARC
  8
1
 62
7
  6
CONTINUOUS
 10
81.130199
 20
113.031947
 40
3.521162
 50
57.272292
 51
68.167734
  0
ARC
  8
1
 62
7
  6
CONTINUOUS
 10
81.347523
 20
113.574410
 40
2.936787
 50
68.167734
 51
76.650875
  0
ARC
  8
1
 62
7
  6
CONTINUOUS
 10
80.737337
 20
111.002989
 40
5.579613
 50
76.650875
 51
81.189746
  0
ARC
  8
1
 62
7
  6
CONTINUOUS
 10
80.765555
 20
111.185056
 40
5.395372
 50
81.189746
 51
85.970403
  0
ARC
  8
1
 62
7
  6
CONTINUOUS
 10
79.536125
 20
93.732946
 40
22.890732
 50
85.970403
 51
87.110929
  0
ARC
  8
1
 62
7
  6
CONTINUOUS
 10
79.892154
 20
100.787685
 40
15.827016
 50
87.110929
 51
88.764438
  0
ARC
  8
1
 62
7
  6
CONTINUOUS
 10
88.874468
 20
381.569976
 40
265.099822
 50
-92.002213
 51
-91.867910
  0
ARC
  8
1
 62
7
  6
CONTINUOUS
 10
91.150488
 20
446.649547
 40
330.219181
 50
-92.109051
 51
-92.002365
  0
ARC
  8
1
 62
7
  6
CONTINUOUS
 10
95.609654
 20
567.709690
 40
451.361421
 50
-92.186602
 51
-92.109171
  0
ARC
  8
1
 62
7
  6
CONTINUOUS
 10
106.633857
 20
856.409957
 40
740.272094
 50
-92.233644
 51
-92.186685
  0
ARC
  8
1
 62
7
  6
CONTINUOUS
 10
163.643425
 20
2317.994682
 40
2202.968234
 50
-92.249424
 51
-92.233686
  0
ARC
  8
1
 62
7
  6
CONTINUOUS
 10
93.216014
 20
222.230551
 40
110.077868
 50
-88.267066
 51
-87.937624
  0
ARC
  8
1
 62
7
  6
CONTINUOUS
 10
95.439702
 20
148.721810
 40
36.535501
 50
-89.257775
 51
-88.266610
  0
ARC
  8
1
 62
7
  6
CONTINUOUS
 10
95.630845
 20
133.947255
 40
21.759710
 50
-90.917215
 51
-89.257086
  0
ARC
  8
1
 62
7
  6
CONTINUOUS
 10
95.529195
 20
127.605676
 40
15.417316
 50
-93.253564
 51
-90.916763
  0
ARC
  8
1
 62
7
  6
CONTINUOUS
 10
95.331389
 20
124.124113
 40
11.930139
 50
-96.268860
 51
-93.254082
  0
ARC
  8
1
 62
7
  6
CONTINUOUS
 10
95.315076
 20
123.779942
 40
11.586264
 50
-100.118876
 51
-96.374517
  0
ARC
  8
1
 62
7
  6
CONTINUOUS
 10
95.699552
 20
125.934649
 40
13.775004
 50
-103.276923
 51
-100.118598
  0
ARC
  8
1
 62
7
  6
CONTINUOUS
 10
96.412717
 20
128.958662
 40
16.881973
 50
-105.860536
 51
-103.275617
  0
ARC
  8
1
 62
7
  6
CONTINUOUS
 10
97.681918
 20
133.428068
 40
21.528097
 50
-107.889624
 51
-105.858961
  0
ARC
  8
1
 62
7
  6
CONTINUOUS
 10
100.046988
 20
140.757160
 40
29.229340
 50
-109.383004
 51
-107.888325
  0
ARC
  8
1
 62
7
  6
CONTINUOUS
 10
102.991184
 20
149.193686
 40
38.164824
 50
-110.097121
 51
-109.349070
  0
ARC
  8
1
 62
7
  6
CONTINUOUS
 10
105.454289
 20
155.925066
 40
45.332694
 50
-110.725999
 51
-110.097304
  0
ARC
  8
1
 62
7
  6
CONTINUOUS
 10
109.267266
 20
166.001628
 40
56.106546
 50
-111.233618
 51
-110.726128
  0
ARC
  8
1
 62
7
  6
CONTINUOUS
 10
115.723390
 20
182.617296
 40
73.932426
 50
-111.618735
 51
-111.233699
  0
ARC
  8
1
 62
7
  6
CONTINUOUS
 10
128.550503
 20
214.983765
 40
108.747984
 50
-111.880649
 51
-111.618773
  0
ARC
  8
1
 62
7
  6
CONTINUOUS
 10
107.217658
 20
162.067833
 40
51.693851
 50
-112.490131
 51
-111.796789
  0
ARC
  8
1
 62
7
  6
CONTINUOUS
 10
96.134373
 20
135.297611
 40
22.720001
 50
-114.067691
 51
-112.489901
  0
ARC
  8
1
 62
7
  6
CONTINUOUS
 10
92.800365
 20
127.833022
 40
14.544691
 50
-116.532205
 51
-114.067740
  0
ARC
  8
1
 62
7
  6
CONTINUOUS
 10
91.098524
 20
124.423789
 40
10.734293
 50
-119.877531
 51
-116.533797
  0
ARC
  8
1
 62
7
  6
CONTINUOUS
 10
90.041992
 20
122.583295
 40
8.612106
 50
-124.071177
 51
-119.882369
  0
ARC
  8
1
 62
7
  6
CONTINUOUS
 10
91.792517
 20
125.053874
 40
11.639460
 50
-127.736486
 51
-124.395871
  0
ARC
  8
1
 62
7
  6
CONTINUOUS
 10
156.008230
 20
208.056990
 40
116.583137
 50
-128.063096
 51
-127.728379
  0
ARC
  8
1
 62
7
  6
CONTINUOUS
 10
75.239559
 20
104.916372
 40
14.419021
 50
51.926527
 51
54.608950
  0
ARC
  8
1
 62
7
  6
CONTINUOUS
 10
79.840478
 20
111.392636
 40
6.474813
 50
54.608950
 51
60.474341
  0
ARC
  8
1
 62
7
  6
CONTINUOUS
 10
81.062187
 20
113.549745
 40
3.995763
 50
60.474341
 51
69.834067
  0
ARC
  8
1
 62
7
  6
CONTINUOUS
 10
81.254909
 20
114.074512
 40
3.436725
 50
69.834067
 51
77.120936
  0
ARC
  8
1
 62
7
  6
CONTINUOUS
 10
80.653647
 20
111.444848
 40
6.134251
 50
77.120936
 51
81.257210
  0
ARC
  8
1
 62
7
  6
CONTINUOUS
 10
80.653125
 20
111.441453
 40
6.137686
 50
81.257210
 51
85.451042
  0
ARC
  8
1
 62
7
  6
CONTINUOUS
 10
79.494210
 20
96.875182
 40
20.749988
 50
85.451042
 51
86.703465
  0
ARC
  8
1
 62
7
  6
CONTINUOUS
 10
79.689946
 20
100.273442
 40
17.346095
 50
86.703465
 51
88.204524
  0
ARC
  8
1
 62
7
  6
CONTINUOUS
 10
65.115289
 20
-260.346995
 40
378.260254
 50
87.709417
 51
87.803235
  0
ARC
  8
1
 62
7
  6
CONTINUOUS
 10
61.477412
 20
-355.183214
 40
473.166221
 50
87.803235
 51
87.877609
  0
ARC
  8
1
 62
7
  6
CONTINUOUS
 10
54.858105
 20
-533.795371
 40
651.900991
 50
87.877609
 51
87.931250
  0
ARC
  8
1
 62
7
  6
CONTINUOUS
 10
39.845072
 20
-949.413392
 40
1067.790075
 50
87.931250
 51
87.963860
  0
ARC
  8
1
 62
7
  6
CONTINUOUS
 10
-36.615942
 20
-3100.075947
 40
3219.811383
 50
87.963860
 51
87.974652
  0
ARC
  8
1
 62
7
  6
CONTINUOUS
 10
92.219935
 20
230.030288
 40
116.411909
 50
-87.870535
 51
-87.559270
  0
ARC
  8
1
 62
7
  6
CONTINUOUS
 10
95.108710
 20
152.333434
 40
38.661371
 50
-88.806261
 51
-87.870166
  0
ARC
  8
1
 62
7
  6
CONTINUOUS
 10
95.433702
 20
136.726472
 40
23.051026
 50
-90.372458
 51
-88.805712
  0
ARC
  8
1
 62
7
  6
CONTINUOUS
 10
95.390071
 20
130.029344
 40
16.353756
 50
-92.575540
 51
-90.372124
  0
ARC
  8
1
 62
7
  6
CONTINUOUS
 10
95.224602
 20
126.348352
 40
12.669046
 50
-95.416585
 51
-92.576035
  0
ARC
  8
1
 62
7
  6
CONTINUOUS
 10
95.193709
 20
125.810422
 40
12.130619
 50
-99.453778
 51
-95.511162
  0
ARC
  8
1
 62
7
  6
CONTINUOUS
 10
95.483289
 20
127.550253
 40
13.894384
 50
-102.905118
 51
-99.453267
  0
ARC
  8
1
 62
7
  6
CONTINUOUS
 10
95.988640
 20
129.757702
 40
16.158940
 50
-105.880391
 51
-102.903632
  0
ARC
  8
1
 62
7
  6
CONTINUOUS
 10
96.789279
 20
132.574299
 40
19.087120
 50
-108.402758
 51
-105.878522
  0
ARC
  8
1
 62
7
  6
CONTINUOUS
 10
98.016407
 20
136.264901
 40
22.976385
 50
-110.496324
 51
-108.400938
  0
ARC
  8
1
 62
7
  6
CONTINUOUS
 10
100.853744
 20
143.858905
 40
31.083134
 50
-111.353704
 51
-110.493925
  0
ARC
  8
1
 62
7
  6
CONTINUOUS
 10
109.986151
 20
167.216979
 40
56.163016
 50
-111.829001
 51
-111.353936
  0
ARC
  8
1
 62
7
  6
CONTINUOUS
 10
201.491142
 20
395.658355
 40
302.249639
 50
-111.917309
 51
-111.829143
  0
ARC
  8
1
 62
7
  6
CONTINUOUS
 10
55.554865
 20
32.947466
 40
88.719140
 50
68.082607
 51
68.382688
  0
ARC
  8
1
 62
7
  6
CONTINUOUS
 10
74.011398
 20
79.522227
 40
38.620717
 50
68.382688
 51
69.071607
  0
ARC
  8
1
 62
7
  6
CONTINUOUS
 10
76.614155
 20
86.328051
 40
31.334182
 50
69.071607
 51
69.977298
  0
ARC
  8
1
 62
7
  6
CONTINUOUS
 10
61.024692
 20
43.549099
 40
76.865162
 50
69.977298
 51
70.346697
  0
ARC
  8
1
 62
7
  6
CONTINUOUS
 10
54.505500
 20
25.294839
 40
96.248605
 50
70.346697
 51
70.642007
  0
ARC
  8
1
 62
7
  6
CONTINUOUS
 10
162.510006
 20
332.012270
 40
228.929159
 50
-109.540168
 51
-109.415831
  0
ARC
  8
1
 62
7
  6
CONTINUOUS
 10
108.284773
 20
179.224840
 40
66.804593
 50
-109.967209
 51
-109.540337
  0
ARC
  8
1
 62
7
  6
CONTINUOUS
 10
126.575600
 20
228.932972
 40
119.770870
 50
-110.403850
 51
-110.070962
  0
ARC
  8
1
 62
7
  6
CONTINUOUS
 10
61.981116
 20
55.279544
 40
65.507192
 50
69.596092
 51
70.204855
  0
ARC
  8
1
 62
7
  6
CONTINUOUS
 10
75.511922
 20
92.872800
 40
25.553023
 50
70.204855
 51
71.761348
  0
ARC
  8
1
 62
7
  6
CONTINUOUS
 10
78.609843
 20
102.273800
 40
15.654745
 50
71.761348
 51
74.290414
  0
ARC
  8
1
 62
7
  6
CONTINUOUS
 10
79.817326
 20
106.566800
 40
11.195164
 50
74.290414
 51
77.810346
  0
ARC
  8
1
 62
7
  6
CONTINUOUS
 10
80.034843
 20
107.573737
 40
10.165000
 50
77.810346
 51
83.408466
  0
ARC
  8
1
 62
7
  6
CONTINUOUS
 10
79.419770
 20
102.250932
 40
15.523224
 50
83.408466
 51
87.089302
  0
ARC
  8
1
 62
7
  6
CONTINUOUS
 10
79.292696
 20
99.751675
 40
18.025711
 50
87.089302
 51
90.282748
  0
ARC
  8
1
 62
7
  6
CONTINUOUS
 10
79.420009
 20
73.953159
 40
43.824541
 50
90.282748
 51
91.605223
  0
ARC
  8
1
 62
7
  6
CONTINUOUS
 10
79.982558
 20
53.879156
 40
63.906424
 50
91.605223
 51
92.515757
  0
ARC
  8
1
 62
7
  6
CONTINUOUS
 10
92.218044
 20
230.666562
 40
116.048595
 50
-87.862945
 51
-87.550690
  0
ARC
  8
1
 62
7
  6
CONTINUOUS
 10
95.108119
 20
153.211020
 40
38.539154
 50
-88.801668
 51
-87.862570
  0
ARC
  8
1
 62
7
  6
CONTINUOUS
 10
95.433363
 20
137.651717
 40
22.976452
 50
-90.372960
 51
-88.801110
  0
ARC
  8
1
 62
7
  6
CONTINUOUS
 10
95.389802
 20
130.974722
 40
16.299314
 50
-92.583349
 51
-90.372617
  0
ARC
  8
1
 62
7
  6
CONTINUOUS
 10
95.224331
 20
127.304844
 40
12.625708
 50
-95.433999
 51
-92.583841
  0
ARC
  8
1
 62
7
  6
CONTINUOUS
 10
95.195211
 20
126.784920
 40
12.105380
 50
-99.480406
 51
-95.529831
  0
ARC
  8
1
 62
7
  6
CONTINUOUS
 10
95.492926
 20
128.568473
 40
13.913610
 50
-102.926841
 51
-99.479910
  0
ARC
  8
1
 62
7
  6
CONTINUOUS
 10
96.016520
 20
130.851589
 40
16.255995
 50
-105.884295
 51
-102.925343
  0
ARC
  8
1
 62
7
  6
CONTINUOUS
 10
96.854842
 20
133.799922
 40
19.321195
 50
-108.376067
 51
-105.882417
  0
ARC
  8
1
 62
7
  6
CONTINUOUS
 10
98.159473
 20
137.729609
 40
23.461787
 50
-110.426219
 51
-108.374261
  0
ARC
  8
1
 62
7
  6
CONTINUOUS
 10
100.954863
 20
145.245582
 40
31.480767
 50
-111.268764
 51
-110.419924
  0
ARC
  8
1
 62
7
  6
CONTINUOUS
 10
108.972183
 20
165.841526
 40
53.582132
 50
-111.766890
 51
-111.268992
  0
ARC
  8
1
 62
7
  6
CONTINUOUS
 10
157.331769
 20
286.950878
 40
183.989665
 50
-111.911852
 51
-111.767024
  0
ARC
  8
1
 62
7
  6
CONTINUOUS
 10
41.237443
 20
-1.669874
 40
127.104904
 50
68.088077
 51
68.297544
  0
ARC
  8
1
 62
7
  6
CONTINUOUS
 10
70.798398
 20
72.604260
 40
47.164319
 50
68.297544
 51
68.861777
  0
ARC
  8
1
 62
7
  6
CONTINUOUS
 10
74.946010
 20
83.331733
 40
35.662956
 50
68.861777
 51
69.657761
  0
ARC
  8
1
 62
7
  6
CONTINUOUS
 10
65.896362
 20
58.922674
 40
61.695595
 50
69.657761
 51
70.118098
  0
ARC
  8
1
 62
7
  6
CONTINUOUS
 10
66.277071
 20
59.975410
 40
60.576134
 50
70.118098
 51
70.587365
  0
ARC
  8
1
 62
7
  6
CONTINUOUS
 10
15.547754
 20
-83.976962
 40
213.205584
 50
70.587365
 51
70.720859
  0
ARC
  8
1
 62
7
  6
CONTINUOUS
 10
20.157114
 20
-70.799319
 40
199.245052
 50
70.720859
 51
70.863926
  0
ARC
  8
1
 62
7
  6
CONTINUOUS
 10
-82.451282
 20
-366.512423
 40
512.254193
 50
70.863926
 51
70.941016
  0
ARC
  8
1
 62
7
  6
CONTINUOUS
 10
74.063909
 20
86.525090
 40
32.942193
 50
70.941016
 51
72.139807
  0
ARC
  8
1
 62
7
  6
CONTINUOUS
 10
75.710698
 20
91.635784
 40
27.572733
 50
72.139807
 51
73.569068
  0
ARC
  8
1
 62
7
  6
CONTINUOUS
 10
79.193236
 20
103.444891
 40
15.260825
 50
73.569068
 51
76.142823
  0
ARC
  8
1
 62
7
  6
CONTINUOUS
 10
79.535886
 20
104.833928
 40
13.830149
 50
76.142823
 51
78.973147
  0
ARC
  8
1
 62
7
  6
CONTINUOUS
 10
79.994925
 20
107.189583
 40
11.430185
 50
78.973147
 51
83.964434
  0
ARC
  8
1
 62
7
  6
CONTINUOUS
 10
79.163429
 20
99.325390
 40
19.338213
 50
83.964434
 51
86.923009
  0
ARC
  8
1
 62
7
  6
CONTINUOUS
 10
79.155330
 20
99.174716
 40
19.489105
 50
86.923009
 51
89.874572
  0
ARC
  8
1
 62
7
  6
CONTINUOUS
 10
79.064308
 20
57.596108
 40
61.067813
 50
89.874572
 51
90.821196
  0
ARC
  8
1
 62
7
  6
CONTINUOUS
 10
79.031240
 20
59.903170
 40
58.760514
 50
90.821196
 51
91.807889
  0
ARC
  8
1
 62
7
  6
CONTINUOUS
 10
91.739096
 20
202.582958
 40
84.035128
 50
-86.722415
 51
-86.289503
  0
ARC
  8
1
 62
7
  6
CONTINUOUS
 10
94.953084
 20
146.451709
 40
27.811941
 50
-88.026374
 51
-86.721413
  0
ARC
  8
1
 62
7
  6
CONTINUOUS
 10
95.342795
 20
135.130050
 40
16.483576
 50
-90.217723
 51
-88.024873
  0
ARC
  8
1
 62
7
  6
CONTINUOUS
 10
95.324127
 20
130.266146
 40
11.619636
 50
-93.314020
 51
-90.216809
  0
ARC
  8
1
 62
7
  6
CONTINUOUS
 10
95.177431
 20
127.703535
 40
9.052830
 50
-102.520640
 51
-93.324713
  0
ARC
  8
1
 62
7
  6
CONTINUOUS
 10
98.021732
 20
141.122590
 40
22.769758
 50
-104.278365
 51
-102.187287
  0
ARC
  8
1
 62
7
  6
CONTINUOUS
 10
58.942626
 20
-12.457426
 40
135.704208
 50
75.724170
 51
76.075794
  0
ARC
  8
1
 62
7
  6
CONTINUOUS
 10
87.504850
 20
102.748426
 40
17.010531
 50
76.075794
 51
78.871930
  0
ARC
  8
1
 62
7
  6
CONTINUOUS
 10
89.068589
 20
110.698250
 40
8.908372
 50
78.871930
 51
84.184149
  0
ARC
  8
1
 62
7
  6
CONTINUOUS
 10
89.256650
 20
112.544600
 40
7.052469
 50
84.184149
 51
87.689798
  0
ARC
  8
1
 62
7
  6
CONTINUOUS
 10
88.770314
 20
100.489412
 40
19.117463
 50
87.689798
 51
88.986204
  0
ARC
  8
1
 62
7
  6
CONTINUOUS
 10
88.807336
 20
102.581555
 40
17.024992
 50
88.986204
 51
90.445654
  0
ARC
  8
1
 62
7
  6
CONTINUOUS
 10
88.201890
 20
299.644156
 40
180.038745
 50
-89.987639
 51
-89.849464
  0
ARC
  8
1
 62
7
  6
CONTINUOUS
 10
88.235918
 20
141.305310
 40
21.699896
 50
-91.133227
 51
-89.987288
  0
ARC
  8
1
 62
7
  6
CONTINUOUS
 10
88.199069
 20
137.394994
 40
17.789662
 50
-92.771542
 51
-91.263647
  0
ARC
  8
1
 62
7
  6
CONTINUOUS
 10
88.701355
 20
147.767831
 40
28.174653
 50
-93.723218
 51
-92.771814
  0
ARC
  8
1
 62
7
  6
CONTINUOUS
 10
91.298171
 20
187.672138
 40
68.163365
 50
-94.116418
 51
-93.723287
  0
ARC
  8
1
 62
7
  6
CONTINUOUS
 10
74.796296
 20
-41.618274
 40
161.720094
 50
85.883549
 51
86.049211
  0
ARC
  8
1
 62
7
  6
CONTINUOUS
 10
83.392518
 20
82.849618
 40
36.955711
 50
86.049211
 51
86.773996
  0
ARC
  8
1
 62
7
  6
CONTINUOUS
 10
83.976133
 20
93.204029
 40
26.584865
 50
86.773996
 51
88.191986
  0
ARC
  8
1
 62
7
  6
CONTINUOUS
 10
83.455376
 20
76.706775
 40
43.090337
 50
88.191986
 51
89.067107
  0
ARC
  8
1
 62
7
  6
CONTINUOUS
 10
83.461810
 20
77.101847
 40
42.695213
 50
89.067107
 51
89.950724
  0
ARC
  8
1
 62
7
  6
CONTINUOUS
 10
83.403577
 20
9.391214
 40
110.405870
 50
89.950724
 51
90.292543
  0
ARC
  8
1
 62
7
  6
CONTINUOUS
 10
83.387904
 20
12.460765
 40
107.336279
 50
90.292543
 51
90.644167
  0
ARC
  8
1
 62
7
  6
CONTINUOUS
 10
87.188116
 20
-396.888277
 40
516.702797
 50
90.555216
 51
90.666246
  0
ARC
  8
1
 62
7
  6
CONTINUOUS
 10
88.897034
 20
-543.845119
 40
663.669576
 50
90.666246
 51
90.752663
  0
ARC
  8
1
 62
7
  6
CONTINUOUS
 10
92.377439
 20
-808.772566
 40
928.619883
 50
90.752663
 51
90.814409
  0
ARC
  8
1
 62
7
  6
CONTINUOUS
 10
101.162885
 20
-1426.809529
 40
1546.719285
 50
90.814409
 51
90.851475
  0
ARC
  8
1
 62
7
  6
CONTINUOUS
 10
147.149506
 20
-4521.021788
 40
4641.273255
 50
90.851475
 51
90.863827
  0
ARC
  8
1
 62
7
  6
CONTINUOUS
 10
91.739096
 20
203.582958
 40
84.035128
 50
-86.722415
 51
-86.289503
  0
ARC
  8
1
 62
7
  6
CONTINUOUS
 10
94.953084
 20
147.451709
 40
27.811941
 50
-88.026374
 51
-86.721413
  0
ARC
  8
1
 62
7
  6
CONTINUOUS
 10
95.342795
 20
136.130050
 40
16.483576
 50
-90.217723
 51
-88.024873
  0
ARC
  8
1
 62
7
  6
CONTINUOUS
 10
95.324127
 20
131.266146
 40
11.619636
 50
-93.314020
 51
-90.216809
  0
ARC
  8
1
 62
7
  6
CONTINUOUS
 10
95.177431
 20
128.703535
 40
9.052830
 50
-102.520640
 51
-93.324713
  0
ARC
  8
1
 62
7
  6
CONTINUOUS
 10
98.021732
 20
142.122590
 40
22.769758
 50
-104.278365
 51
-102.187287
  0
ARC
  8
1
 62
7
  6
CONTINUOUS
 10
58.942626
 20
-11.457426
 40
135.704208
 50
75.724170
 51
76.075794
  0
ARC
  8
1
 62
7
  6
CONTINUOUS
 10
87.504850
 20
103.748426
 40
17.010531
 50
76.075794
 51
78.871930
  0
ARC
  8
1
 62
7
  6
CONTINUOUS
 10
89.068589
 20
111.698250
 40
8.908372
 50
78.871930
 51
84.184149
  0
ARC
  8
1
 62
7
  6
CONTINUOUS
 10
89.256650
 20
113.544600
 40
7.052469
 50
84.184149
 51
87.689798
  0
ARC
  8
1
 62
7
  6
CONTINUOUS
 10
88.770314
 20
101.489412
 40
19.117463
 50
87.689798
 51
88.986204
  0
ARC
  8
1
 62
7
  6
CONTINUOUS
 10
88.807336
 20
103.581555
 40
17.024992
 50
88.986204
 51
90.445654
  0
ARC
  8
1
 62
7
  6
CONTINUOUS
 10
88.201890
 20
300.644156
 40
180.038745
 50
-89.987639
 51
-89.849464
  0
ARC
  8
1
 62
7
  6
CONTINUOUS
 10
88.235918
 20
142.305310
 40
21.699896
 50
-91.133227
 51
-89.987288
  0
ARC
  8
1
 62
7
  6
CONTINUOUS
 10
88.199069
 20
138.394994
 40
17.789662
 50
-92.771542
 51
-91.263647
  0
ARC
  8
1
 62
7
  6
CONTINUOUS
 10
88.701355
 20
148.767831
 40
28.174653
 50
-93.723218
 51
-92.771814
  0
ARC
  8
1
 62
7
  6
CONTINUOUS
 10
91.298171
 20
188.672138
 40
68.163365
 50
-94.116418
 51
-93.723287
  0
ARC
  8
1
 62
7
  6
CONTINUOUS
 10
74.796296
 20
-40.618274
 40
161.720094
 50
85.883549
 51
86.049211
  0
ARC
  8
1
 62
7
  6
CONTINUOUS
 10
83.392518
 20
83.849618
 40
36.955711
 50
86.049211
 51
86.773996
  0
ARC
  8
1
 62
7
  6
CONTINUOUS
 10
83.976133
 20
94.204029
 40
26.584865
 50
86.773996
 51
88.191986
  0
ARC
  8
1
 62
7
  6
CONTINUOUS
 10
83.455376
 20
77.706775
 40
43.090337
 50
88.191986
 51
89.067107
  0
ARC
  8
1
 62
7
  6
CONTINUOUS
 10
83.461810
 20
78.101847
 40
42.695213
 50
89.067107
 51
89.950724
  0
ARC
  8
1
 62
7
  6
CONTINUOUS
 10
83.403577
 20
10.391214
 40
110.405870
 50
89.950724
 51
90.292543
  0
ARC
  8
1
 62
7
  6
CONTINUOUS
 10
83.387904
 20
13.460765
 40
107.336279
 50
90.292543
 51
90.644167
  0
ARC
  8
1
 62
7
  6
CONTINUOUS
 10
87.188116
 20
-395.888277
 40
516.702797
 50
90.555216
 51
90.666246
  0
ARC
  8
1
 62
7
  6
CONTINUOUS
 10
88.897034
 20
-542.845119
 40
663.669576
 50
90.666246
 51
90.752663
  0
ARC
  8
1
 62
7
  6
CONTINUOUS
 10
92.377439
 20
-807.772567
 40
928.619884
 50
90.752663
 51
90.814409
  0
ARC
  8
1
 62
7
  6
CONTINUOUS
 10
101.162885
 20
-1425.809529
 40
1546.719285
 50
90.814409
 51
90.851475
  0
ARC
  8
1
 62
7
  6
CONTINUOUS
 10
147.149506
 20
-4520.021788
 40
4641.273255
 50
90.851475
 51
90.863827
  0
ARC
  8
1
 62
7
  6
CONTINUOUS
 10
92.090306
 20
277.121418
 40
155.980409
 50
-88.363008
 51
-88.131028
  0
ARC
  8
1
 62
7
  6
CONTINUOUS
 10
95.064310
 20
173.051936
 40
51.868442
 50
-89.059887
 51
-88.362827
  0
ARC
  8
1
 62
7
  6
CONTINUOUS
 10
95.406720
 20
152.176083
 40
30.989781
 50
-90.224655
 51
-89.059604
  0
ARC
  8
1
 62
7
  6
CONTINUOUS
 10
95.371496
 20
143.214613
 40
22.028241
 50
-91.860811
 51
-90.224432
  0
ARC
  8
1
 62
7
  6
CONTINUOUS
 10
95.206821
 20
138.170306
 40
16.981247
 50
-96.475793
 51
-91.858140
  0
ARC
  8
1
 62
7
  6
CONTINUOUS
 10
96.889264
 20
153.531635
 40
32.434374
 50
-97.677750
 51
-96.368398
  0
ARC
  8
1
 62
7
  6
CONTINUOUS
 10
109.031866
 20
243.610961
 40
123.328420
 50
-98.022149
 51
-97.677298
  0
ARC
  8
1
 62
7
  6
CONTINUOUS
 10
82.172535
 20
53.029989
 40
69.135941
 50
81.978024
 51
82.593699
  0
ARC
  8
1
 62
7
  6
CONTINUOUS
 10
87.600928
 20
94.790344
 40
27.024248
 50
82.593699
 51
84.169275
  0
ARC
  8
1
 62
7
  6
CONTINUOUS
 10
88.537316
 20
103.959995
 40
17.806910
 50
84.169275
 51
85.668293
  0
ARC
  8
1
 62
7
  6
CONTINUOUS
 10
88.427806
 20
102.514258
 40
19.256788
 50
85.668293
 51
87.054098
  0
ARC
  8
1
 62
7
  6
CONTINUOUS
 10
88.661933
 20
107.063858
 40
14.701168
 50
87.054098
 51
88.868117
  0
ARC
  8
1
 62
7
  6
CONTINUOUS
 10
88.644018
 20
106.157100
 40
15.608104
 50
88.868117
 51
90.575180
  0
ARC
  8
1
 62
7
  6
CONTINUOUS
 10
88.617164
 20
108.831948
 40
12.933121
 50
90.575180
 51
95.135553
  0
ARC
  8
1
 62
7
  6
CONTINUOUS
 10
89.345469
 20
100.728255
 40
21.069475
 50
95.135553
 51
96.672261
  0
ARC
  8
1
 62
7
  6
CONTINUOUS
 10
89.261385
 20
101.447025
 40
20.345803
 50
96.672261
 51
98.265469
  0
ARC
  8
1
 62
7
  6
CONTINUOUS
 10
94.595567
 20
64.727627
 40
57.450624
 50
98.265469
 51
98.830208
  0
ARC
  8
1
 62
7
  6
CONTINUOUS
 10
93.716351
 20
70.387278
 40
51.723088
 50
98.830208
 51
99.457639
  0
ARC
  8
1
 62
7
  6
CONTINUOUS
 10
-84.423300
 20
1156.688600
 40
1049.087831
 50
-80.724952
 51
-80.694245
  0
ARC
  8
1
 62
7
  6
CONTINUOUS
 10
68.506045
 20
220.247164
 40
100.241190
 50
-81.046044
 51
-80.724899
  0
ARC
  8
1
 62
7
  6
CONTINUOUS
 10
75.928883
 20
173.135948
 40
52.548788
 50
-81.658185
 51
-81.046000
  0
ARC
  8
1
 62
7
  6
CONTINUOUS
 10
78.390156
 20
156.350293
 40
35.583645
 50
-82.561744
 51
-81.658182
  0
ARC
  8
1
 62
7
  6
CONTINUOUS
 10
79.512975
 20
147.750353
 40
26.910716
 50
-83.756369
 51
-82.561833
  0
ARC
  8
1
 62
7
  6
CONTINUOUS
 10
79.644569
 20
146.700053
 40
25.852340
 50
-84.773211
 51
-83.793132
  0
ARC
  8
1
 62
7
  6
CONTINUOUS
 10
79.215576
 20
151.389471
 40
30.561340
 50
-85.602589
 51
-84.773188
  0
ARC
  8
1
 62
7
  6
CONTINUOUS
 10
78.696039
 20
158.145128
 40
37.336944
 50
-86.281695
 51
-85.602551
  0
ARC
  8
1
 62
7
  6
CONTINUOUS
 10
78.010299
 20
168.696418
 40
47.910495
 50
-86.811046
 51
-86.281655
  0
ARC
  8
1
 62
7
  6
CONTINUOUS
 10
76.963197
 20
187.489561
 40
66.732785
 50
-87.191100
 51
-86.811015
  0
ARC
  8
1
 62
7
  6
CONTINUOUS
 10
75.707125
 20
212.912749
 40
92.186983
 50
-87.565948
 51
-87.185692
  0
ARC
  8
1
 62
7
  6
CONTINUOUS
 10
74.592011
 20
239.146521
 40
118.444444
 50
-87.861851
 51
-87.565960
  0
ARC
  8
1
 62
7
  6
CONTINUOUS
 10
72.827184
 20
286.417006
 40
165.747862
 50
-88.073272
 51
-87.861858
  0
ARC
  8
1
 62
7
  6
CONTINUOUS
 10
69.114559
 20
396.779574
 40
276.172860
 50
-88.200146
 51
-88.073276
  0
ARC
  8
1
 62
7
  6
CONTINUOUS
 10
51.769609
 20
948.750613
 40
828.416352
 50
-88.242442
 51
-88.200148
  0
ARC
  8
1
 62
7
  6
CONTINUOUS
 10
92.090306
 20
278.121418
 40
155.980409
 50
-88.363008
 51
-88.131028
  0
ARC
  8
1
 62
7
  6
CONTINUOUS
 10
95.064310
 20
174.051936
 40
51.868442
 50
-89.059887
 51
-88.362827
  0
ARC
  8
1
 62
7
  6
CONTINUOUS
 10
95.406720
 20
153.176083
 40
30.989781
 50
-90.224655
 51
-89.059604
  0
ARC
  8
1
 62
7
  6
CONTINUOUS
 10
95.371496
 20
144.214613
 40
22.028241
 50
-91.860811
 51
-90.224432
  0
ARC
  8
1
 62
7
  6
CONTINUOUS
 10
95.206821
 20
139.170306
 40
16.981247
 50
-96.475793
 51
-91.858140
  0
ARC
  8
1
 62
7
  6
CONTINUOUS
 10
96.889264
 20
154.531635
 40
32.434374
 50
-97.677750
 51
-96.368398
  0
ARC
  8
1
 62
7
  6
CONTINUOUS
 10
109.031866
 20
244.610961
 40
123.328420
 50
-98.022149
 51
-97.677298
  0
ARC
  8
1
 62
7
  6
CONTINUOUS
 10
82.172535
 20
54.029989
 40
69.135941
 50
81.978024
 51
82.593699
  0
ARC
  8
1
 62
7
  6
CONTINUOUS
 10
87.600928
 20
95.790344
 40
27.024248
 50
82.593699
 51
84.169275
  0
ARC
  8
1
 62
7
  6
CONTINUOUS
 10
88.537316
 20
104.959995
 40
17.806910
 50
84.169275
 51
85.668293
  0
ARC
  8
1
 62
7
  6
CONTINUOUS
 10
88.427806
 20
103.514258
 40
19.256788
 50
85.668293
 51
87.054098
  0
ARC
  8
1
 62
7
  6
CONTINUOUS
 10
88.661933
 20
108.063858
 40
14.701168
 50
87.054098
 51
88.868117
  0
ARC
  8
1
 62
7
  6
CONTINUOUS
 10
88.644018
 20
107.157100
 40
15.608104
 50
88.868117
 51
90.575180
  0
ARC
  8
1
 62
7
  6
CONTINUOUS
 10
88.617164
 20
109.831948
 40
12.933121
 50
90.575180
 51
95.135553
  0
ARC
  8
1
 62
7
  6
CONTINUOUS
 10
89.345469
 20
101.728255
 40
21.069475
 50
95.135553
 51
96.672261
  0
ARC
  8
1
 62
7
  6
CONTINUOUS
 10
89.261385
 20
102.447025
 40
20.345803
 50
96.672261
 51
98.265469
  0
ARC
  8
1
 62
7
  6
CONTINUOUS
 10
94.595567
 20
65.727627
 40
57.450624
 50
98.265469
 51
98.830208
  0
ARC
  8
1
 62
7
  6
CONTINUOUS
 10
93.716351
 20
71.387278
 40
51.723088
 50
98.830208
 51
99.457639
  0
ARC
  8
1
 62
7
  6
CONTINUOUS
 10
-84.423300
 20
1157.688601
 40
1049.087832
 50
-80.724952
 51
-80.694245
  0
ARC
  8
1
 62
7
  6
CONTINUOUS
 10
68.506045
 20
221.247164
 40
100.241190
 50
-81.046044
 51
-80.724899
  0
ARC
  8
1
 62
7
  6
CONTINUOUS
 10
75.928883
 20
174.135948
 40
52.548788
 50
-81.658185
 51
-81.046000
  0
ARC
  8
1
 62
7
  6
CONTINUOUS
 10
78.390156
 20
157.350293
 40
35.583645
 50
-82.561744
 51
-81.658182
  0
ARC
  8
1
 62
7
  6
CONTINUOUS
 10
79.512975
 20
148.750353
 40
26.910716
 50
-83.756369
 51
-82.561833
  0
ARC
  8
1
 62
7
  6
CONTINUOUS
 10
79.644569
 20
147.700053
 40
25.852340
 50
-84.773211
 51
-83.793132
  0
ARC
  8
1
 62
7
  6
CONTINUOUS
 10
79.215576
 20
152.389471
 40
30.561340
 50
-85.602589
 51
-84.773188
  0
ARC
  8
1
 62
7
  6
CONTINUOUS
 10
78.696039
 20
159.145128
 40
37.336944
 50
-86.281695
 51
-85.602551
  0
ARC
  8
1
 62
7
  6
CONTINUOUS
 10
78.010299
 20
169.696418
 40
47.910495
 50
-86.811046
 51
-86.281655
  0
ARC
  8
1
 62
7
  6
CONTINUOUS
 10
76.963197
 20
188.489561
 40
66.732785
 50
-87.191100
 51
-86.811015
  0
ARC
  8
1
 62
7
  6
CONTINUOUS
 10
75.707125
 20
213.912749
 40
92.186983
 50
-87.565948
 51
-87.185692
  0
ARC
  8
1
 62
7
  6
CONTINUOUS
 10
74.592011
 20
240.146521
 40
118.444444
 50
-87.861851
 51
-87.565960
  0
ARC
  8
1
 62
7
  6
CONTINUOUS
 10
72.827184
 20
287.417006
 40
165.747862
 50
-88.073272
 51
-87.861858
  0
ARC
  8
1
 62
7
  6
CONTINUOUS
 10
69.114559
 20
397.779574
 40
276.172860
 50
-88.200146
 51
-88.073276
  0
ARC
  8
1
 62
7
  6
CONTINUOUS
 10
51.769609
 20
949.750612
 40
828.416351
 50
-88.242442
 51
-88.200148
  0
ARC
  8
1
 62
7
  6
CONTINUOUS
 10
90.735301
 20
48.752834
 40
77.738541
 50
85.246487
 51
85.796873
  0
ARC
  8
1
 62
7
  6
CONTINUOUS
 10
94.553782
 20
100.711825
 40
25.639427
 50
85.796873
 51
87.458156
  0
ARC
  8
1
 62
7
  6
CONTINUOUS
 10
95.025930
 20
111.347531
 40
14.993246
 50
87.458156
 51
90.276690
  0
ARC
  8
1
 62
7
  6
CONTINUOUS
 10
95.003842
 20
115.921325
 40
10.419399
 50
90.276690
 51
94.296065
  0
ARC
  8
1
 62
7
  6
CONTINUOUS
 10
94.817378
 20
118.403488
 40
7.930243
 50
94.296065
 51
99.543045
  0
ARC
  8
1
 62
7
  6
CONTINUOUS
 10
94.749075
 20
118.809781
 40
7.518248
 50
99.543045
 51
105.554956
  0
ARC
  8
1
 62
7
  6
CONTINUOUS
 10
96.208352
 20
113.567327
 40
12.960014
 50
105.554956
 51
109.069091
  0
ARC
  8
1
 62
7
  6
CONTINUOUS
 10
97.161175
 20
110.810930
 40
15.876449
 50
109.069091
 51
111.962877
  0
ARC
  8
1
 62
7
  6
CONTINUOUS
 10
124.812580
 20
42.243428
 40
89.809544
 50
111.962877
 51
112.477105
  0
ARC
  8
1
 62
7
  6
CONTINUOUS
 10
52.594386
 20
215.764606
 40
98.140470
 50
-67.764224
 51
-67.293844
  0
ARC
  8
1
 62
7
  6
CONTINUOUS
 10
72.676111
 20
166.964830
 40
45.370574
 50
-68.999222
 51
-67.917764
  0
ARC
  8
1
 62
7
  6
CONTINUOUS
 10
63.064391
 20
192.006603
 40
72.193616
 50
-69.676790
 51
-69.000190
  0
ARC
  8
1
 62
7
  6
CONTINUOUS
 10
23.807424
 20
298.004487
 40
185.227508
 50
-69.940390
 51
-69.677272
  0
ARC
  8
1
 62
7
  6
CONTINUOUS
 10
196.227368
 20
-174.187024
 40
317.458736
 50
110.059565
 51
110.213063
  0
ARC
  8
1
 62
7
  6
CONTINUOUS
 10
116.196202
 20
43.178374
 40
85.828203
 50
110.213063
 51
110.781905
  0
ARC
  8
1
 62
7
  6
CONTINUOUS
 10
118.267256
 20
37.721096
 40
91.665253
 50
110.781905
 51
111.235431
  0
ARC
  8
1
 62
7
  6
CONTINUOUS
 10
58.068975
 20
193.002842
 40
74.876860
 50
-69.421614
 51
-68.865875
  0
ARC
  8
1
 62
7
  6
CONTINUOUS
 10
73.703786
 20
151.358179
 40
30.393995
 50
-70.787953
 51
-69.420800
  0
ARC
  8
1
 62
7
  6
CONTINUOUS
 10
77.485130
 20
140.505747
 40
18.901657
 50
-72.978377
 51
-70.786718
  0
ARC
  8
1
 62
7
  6
CONTINUOUS
 10
79.028914
 20
135.462497
 40
13.627413
 50
-76.007272
 51
-72.977678
  0
ARC
  8
1
 62
7
  6
CONTINUOUS
 10
79.151378
 20
135.117415
 40
13.263007
 50
-80.602952
 51
-76.160157
  0
ARC
  8
1
 62
7
  6
CONTINUOUS
 10
78.509427
 20
139.000179
 40
17.198480
 50
-84.040770
 51
-80.605023
  0
ARC
  8
1
 62
7
  6
CONTINUOUS
 10
77.755418
 20
146.218804
 40
24.456378
 50
-86.468247
 51
-84.039620
  0
ARC
  8
1
 62
7
  6
CONTINUOUS
 10
76.712547
 20
163.092735
 40
41.362505
 50
-87.909240
 51
-86.466270
  0
ARC
  8
1
 62
7
  6
CONTINUOUS
 10
73.652662
 20
246.830104
 40
125.155761
 50
-88.386158
 51
-87.907915
  0
ARC
  8
1
 62
7
  6
CONTINUOUS
 10
90.735301
 20
49.752834
 40
77.738541
 50
85.246487
 51
85.796873
  0
ARC
  8
1
 62
7
  6
CONTINUOUS
 10
94.553782
 20
101.711825
 40
25.639427
 50
85.796873
 51
87.458156
  0
ARC
  8
1
 62
7
  6
CONTINUOUS
 10
95.025930
 20
112.347531
 40
14.993246
 50
87.458156
 51
90.276690
  0
ARC
  8
1
 62
7
  6
CONTINUOUS
 10
95.003842
 20
116.921325
 40
10.419399
 50
90.276690
 51
94.296065
  0
ARC
  8
1
 62
7
  6
CONTINUOUS
 10
94.817378
 20
119.403488
 40
7.930243
 50
94.296065
 51
99.543045
  0
ARC
  8
1
 62
7
  6
CONTINUOUS
 10
94.749075
 20
119.809781
 40
7.518248
 50
99.543045
 51
105.554956
  0
ARC
  8
1
 62
7
  6
CONTINUOUS
 10
96.208352
 20
114.567327
 40
12.960014
 50
105.554956
 51
109.069091
  0
ARC
  8
1
 62
7
  6
CONTINUOUS
 10
97.161175
 20
111.810930
 40
15.876449
 50
109.069091
 51
111.962877
  0
ARC
  8
1
 62
7
  6
CONTINUOUS
 10
124.812580
 20
43.243428
 40
89.809544
 50
111.962877
 51
112.477105
  0
ARC
  8
1
 62
7
  6
CONTINUOUS
 10
52.594386
 20
216.764606
 40
98.140470
 50
-67.764224
 51
-67.293844
  0
ARC
  8
1
 62
7
  6
CONTINUOUS
 10
72.676111
 20
167.964830
 40
45.370574
 50
-68.999222
 51
-67.917764
  0
ARC
  8
1
 62
7
  6
CONTINUOUS
 10
63.064391
 20
193.006603
 40
72.193616
 50
-69.676790
 51
-69.000190
  0
ARC
  8
1
 62
7
  6
CONTINUOUS
 10
23.807424
 20
299.004487
 40
185.227508
 50
-69.940390
 51
-69.677272
  0
ARC
  8
1
 62
7
  6
CONTINUOUS
 10
196.227368
 20
-173.187024
 40
317.458736
 50
110.059565
 51
110.213063
  0
ARC
  8
1
 62
7
  6
CONTINUOUS
 10
116.196202
 20
44.178374
 40
85.828203
 50
110.213063
 51
110.781905
  0
ARC
  8
1
 62
7
  6
CONTINUOUS
 10
118.267256
 20
38.721096
 40
91.665253
 50
110.781905
 51
111.235431
  0
ARC
  8
1
 62
7
  6
CONTINUOUS
 10
58.068975
 20
194.002842
 40
74.876860
 50
-69.421614
 51
-68.865875
  0
ARC
  8
1
 62
7
  6
CONTINUOUS
 10
73.703786
 20
152.358179
 40
30.393995
 50
-70.787953
 51
-69.420800
  0
ARC
  8
1
 62
7
  6
CONTINUOUS
 10
77.485130
 20
141.505747
 40
18.901657
 50
-72.978377
 51
-70.786718
  0
ARC
  8
1
 62
7
  6
CONTINUOUS
 10
79.028914
 20
136.462497
 40
13.627413
 50
-76.007272
 51
-72.977678
  0
ARC
  8
1
 62
7
  6
CONTINUOUS
 10
79.151378
 20
136.117415
 40
13.263007
 50
-80.602952
 51
-76.160157
  0
ARC
  8
1
 62
7
  6
CONTINUOUS
 10
78.509427
 20
140.000179
 40
17.198480
 50
-84.040770
 51
-80.605023
  0
ARC
  8
1
 62
7
  6
CONTINUOUS
 10
77.755418
 20
147.218804
 40
24.456378
 50
-86.468247
 51
-84.039620
  0
ARC
  8
1
 62
7
  6
CONTINUOUS
 10
76.712547
 20
164.092735
 40
41.362505
 50
-87.909240
 51
-86.466270
  0
ARC
  8
1
 62
7
  6
CONTINUOUS
 10
73.652662
 20
247.830104
 40
125.155761
 50
-88.386158
 51
-87.907915
  0
ARC
  8
1
 62
7
  6
CONTINUOUS
 10
96.952540
 20
75.638114
 40
55.586327
 50
89.768183
 51
90.767124
  0
ARC
  8
1
 62
7
  6
CONTINUOUS
 10
96.446840
 20
113.406111
 40
17.814945
 50
90.767124
 51
93.832459
  0
ARC
  8
1
 62
7
  6
CONTINUOUS
 10
95.904583
 20
121.500834
 40
9.702080
 50
93.832459
 51
99.294151
  0
ARC
  8
1
 62
7
  6
CONTINUOUS
 10
95.342468
 20
124.935668
 40
6.221554
 50
99.294151
 51
107.516439
  0
ARC
  8
1
 62
7
  6
CONTINUOUS
 10
94.810412
 20
126.621445
 40
4.453808
 50
107.516439
 51
118.727452
  0
ARC
  8
1
 62
7
  6
CONTINUOUS
 10
94.756607
 20
126.719611
 40
4.341863
 50
118.727452
 51
129.208308
  0
ARC
  8
1
 62
7
  6
CONTINUOUS
 10
98.123756
 20
122.592300
 40
9.668437
 50
129.208308
 51
134.045468
  0
ARC
  8
1
 62
7
  6
CONTINUOUS
 10
100.519890
 20
120.114968
 40
13.114977
 50
134.045468
 51
137.707871
  0
ARC
  8
1
 62
7
  6
CONTINUOUS
 10
-51.856617
 20
261.064603
 40
194.455737
 50
-43.051570
 51
-42.801271
  0
ARC
  8
1
 62
7
  6
CONTINUOUS
 10
78.937994
 20
138.873280
 40
15.464258
 50
-46.182350
 51
-43.043186
  0
ARC
  8
1
 62
7
  6
CONTINUOUS
 10
82.050939
 20
135.716678
 40
11.031492
 50
-52.352536
 51
-46.497170
  0
ARC
  8
1
 62
7
  6
CONTINUOUS
 10
80.829100
 20
137.305096
 40
13.035477
 50
-57.276528
 51
-52.364736
  0
ARC
  8
1
 62
7
  6
CONTINUOUS
 10
78.967617
 20
140.204427
 40
16.480943
 50
-61.160635
 51
-57.281009
  0
ARC
  8
1
 62
7
  6
CONTINUOUS
 10
75.988388
 20
145.614856
 40
22.657394
 50
-63.988251
 51
-61.160682
  0
ARC
  8
1
 62
7
  6
CONTINUOUS
 10
70.175409
 20
157.524959
 40
35.910367
 50
-65.774567
 51
-63.986803
  0
ARC
  8
1
 62
7
  6
CONTINUOUS
 10
67.966861
 20
162.217040
 40
41.095578
 50
-66.879719
 51
-65.650807
  0
ARC
  8
1
 62
7
  6
CONTINUOUS
 10
72.374653
 20
151.892278
 40
29.869299
 50
-68.567267
 51
-66.878991
  0
ARC
  8
1
 62
7
  6
CONTINUOUS
 10
74.767950
 20
145.794728
 40
23.318881
 50
-70.723611
 51
-68.566521
  0
ARC
  8
1
 62
7
  6
CONTINUOUS
 10
76.178921
 20
141.759866
 40
19.044427
 50
-73.357223
 51
-70.723181
  0
ARC
  8
1
 62
7
  6
CONTINUOUS
 10
77.071053
 20
138.768188
 40
15.922564
 50
-79.117316
 51
-73.349781
  0
ARC
  8
1
 62
7
  6
CONTINUOUS
 10
76.008362
 20
144.206544
 40
21.463757
 50
-81.021471
 51
-79.072403
  0
ARC
  8
1
 62
7
  6
CONTINUOUS
 10
74.636807
 20
152.886033
 40
30.250946
 50
-82.407090
 51
-81.021110
  0
ARC
  8
1
 62
7
  6
CONTINUOUS
 10
71.932500
 20
173.169903
 40
50.714295
 50
-83.234967
 51
-82.406625
  0
ARC
  8
1
 62
7
  6
CONTINUOUS
 10
59.923648
 20
274.397868
 40
152.652087
 50
-83.510167
 51
-83.234669
  0
ARC
  8
1
 62
7
  6
CONTINUOUS
 10
96.952540
 20
76.638114
 40
55.586327
 50
89.768183
 51
90.767124
  0
ARC
  8
1
 62
7
  6
CONTINUOUS
 10
96.446840
 20
114.406111
 40
17.814945
 50
90.767124
 51
93.832459
  0
ARC
  8
1
 62
7
  6
CONTINUOUS
 10
95.904583
 20
122.500834
 40
9.702080
 50
93.832459
 51
99.294151
  0
ARC
  8
1
 62
7
  6
CONTINUOUS
 10
95.342468
 20
125.935668
 40
6.221554
 50
99.294151
 51
107.516439
  0
ARC
  8
1
 62
7
  6
CONTINUOUS
 10
94.810412
 20
127.621445
 40
4.453808
 50
107.516439
 51
118.727452
  0
ARC
  8
1
 62
7
  6
CONTINUOUS
 10
94.756607
 20
127.719611
 40
4.341863
 50
118.727452
 51
129.208308
  0
ARC
  8
1
 62
7
  6
CONTINUOUS
 10
98.123756
 20
123.592300
 40
9.668437
 50
129.208308
 51
134.045468
  0
ARC
  8
1
 62
7
  6
CONTINUOUS
 10
100.519890
 20
121.114968
 40
13.114977
 50
134.045468
 51
137.707871
  0
ARC
  8
1
 62
7
  6
CONTINUOUS
 10
-51.856617
 20
262.064603
 40
194.455737
 50
-43.051570
 51
-42.801271
  0
ARC
  8
1
 62
7
  6
CONTINUOUS
 10
78.937994
 20
139.873280
 40
15.464258
 50
-46.182350
 51
-43.043186
  0
ARC
  8
1
 62
7
  6
CONTINUOUS
 10
82.050939
 20
136.716678
 40
11.031492
 50
-52.352536
 51
-46.497170
  0
ARC
  8
1
 62
7
  6
CONTINUOUS
 10
80.829100
 20
138.305096
 40
13.035477
 50
-57.276528
 51
-52.364736
  0
ARC
  8
1
 62
7
  6
CONTINUOUS
 10
78.967617
 20
141.204427
 40
16.480943
 50
-61.160635
 51
-57.281009
  0
ARC
  8
1
 62
7
  6
CONTINUOUS
 10
75.988388
 20
146.614856
 40
22.657394
 50
-63.988251
 51
-61.160682
  0
ARC
  8
1
 62
7
  6
CONTINUOUS
 10
70.175409
 20
158.524959
 40
35.910367
 50
-65.774567
 51
-63.986803
  0
ARC
  8
1
 62
7
  6
CONTINUOUS
 10
67.966861
 20
163.217040
 40
41.095578
 50
-66.879719
 51
-65.650807
  0
ARC
  8
1
 62
7
  6
CONTINUOUS
 10
72.374653
 20
152.892278
 40
29.869299
 50
-68.567267
 51
-66.878991
  0
ARC
  8
1
 62
7
  6
CONTINUOUS
 10
74.767950
 20
146.794728
 40
23.318881
 50
-70.723611
 51
-68.566521
  0
ARC
  8
1
 62
7
  6
CONTINUOUS
 10
76.178921
 20
142.759866
 40
19.044427
 50
-73.357223
 51
-70.723181
  0
ARC
  8
1
 62
7
  6
CONTINUOUS
 10
77.071053
 20
139.768188
 40
15.922564
 50
-79.117316
 51
-73.349781
  0
ARC
  8
1
 62
7
  6
CONTINUOUS
 10
76.008362
 20
145.206544
 40
21.463757
 50
-81.021471
 51
-79.072403
  0
ARC
  8
1
 62
7
  6
CONTINUOUS
 10
74.636807
 20
153.886033
 40
30.250946
 50
-82.407090
 51
-81.021110
  0
ARC
  8
1
 62
7
  6
CONTINUOUS
 10
71.932500
 20
174.169903
 40
50.714295
 50
-83.234967
 51
-82.406625
  0
ARC
  8
1
 62
7
  6
CONTINUOUS
 10
59.923648
 20
275.397868
 40
152.652087
 50
-83.510167
 51
-83.234669
  0
ARC
  8
1
 62
7
  6
CONTINUOUS
 10
-53.565521
 20
732.590346
 40
621.327364
 50
-81.239684
 51
-81.172221
  0
ARC
  8
1
 62
7
  6
CONTINUOUS
 10
9.447739
 20
323.677558
 40
207.587906
 50
-81.441813
 51
-81.239736
  0
ARC
  8
1
 62
7
  6
CONTINUOUS
 10
21.718117
 20
242.142603
 40
125.134822
 50
-81.777669
 51
-81.441918
  0
ARC
  8
1
 62
7
  6
CONTINUOUS
 10
26.740419
 20
207.387972
 40
90.019187
 50
-82.245661
 51
-81.777830
  0
ARC
  8
1
 62
7
  6
CONTINUOUS
 10
29.347964
 20
188.240962
 40
70.695437
 50
-82.843512
 51
-82.245881
  0
ARC
  8
1
 62
7
  6
CONTINUOUS
 10
33.923717
 20
151.542630
 40
33.712969
 50
-83.606747
 51
-82.789531
  0
ARC
  8
1
 62
7
  6
CONTINUOUS
 10
35.759571
 20
135.155041
 40
17.222868
 50
-85.203882
 51
-83.605571
  0
ARC
  8
1
 62
7
  6
CONTINUOUS
 10
36.243143
 20
129.387091
 40
11.434682
 50
-87.600825
 51
-85.201974
  0
ARC
  8
1
 62
7
  6
CONTINUOUS
 10
36.366992
 20
126.425304
 40
8.470307
 50
-90.822018
 51
-87.599171
  0
ARC
  8
1
 62
7
  6
CONTINUOUS
 10
36.341740
 20
124.657555
 40
6.702377
 50
-100.531523
 51
-90.822978
  0
ARC
  8
1
 62
7
  6
CONTINUOUS
 10
37.439259
 20
130.885503
 40
13.026148
 50
-103.194154
 51
-100.270725
  0
ARC
  8
1
 62
7
  6
CONTINUOUS
 10
45.968290
 20
167.282023
 40
50.408644
 50
-103.948931
 51
-103.189973
  0
ARC
  8
1
 62
7
  6
CONTINUOUS
 10
27.128945
 20
91.434020
 40
27.744030
 50
76.050857
 51
77.430249
  0
ARC
  8
1
 62
7
  6
CONTINUOUS
 10
30.820310
 20
107.989289
 40
10.782217
 50
77.430249
 51
80.967537
  0
ARC
  8
1
 62
7
  6
CONTINUOUS
 10
31.262064
 20
110.768225
 40
7.968388
 50
80.967537
 51
85.172986
  0
ARC
  8
1
 62
7
  6
CONTINUOUS
 10
30.767438
 20
104.911001
 40
13.846459
 50
85.172986
 51
87.595044
  0
ARC
  8
1
 62
7
  6
CONTINUOUS
 10
30.813571
 20
106.009419
 40
12.747073
 50
87.595044
 51
90.232202
  0
ARC
  8
1
 62
7
  6
CONTINUOUS
 10
30.919622
 20
79.841488
 40
38.915219
 50
90.232202
 51
91.097650
  0
ARC
  8
1
 62
7
  6
CONTINUOUS
 10
30.759541
 20
88.196488
 40
30.558685
 50
91.097650
 51
92.200136
  0
ARC
  8
1
 62
7
  6
CONTINUOUS
 10
35.097128
 20
-48.171352
 40
166.994949
 50
91.891072
 51
92.104785
  0
ARC
  8
1
 62
7
  6
CONTINUOUS
 10
36.806669
 20
-94.687001
 40
213.542002
 50
92.104785
 51
92.271637
  0
ARC
  8
1
 62
7
  6
CONTINUOUS
 10
40.156010
 20
-179.120611
 40
298.042017
 50
92.271637
 51
92.391036
  0
ARC
  8
1
 62
7
  6
CONTINUOUS
 10
48.373877
 20
-375.928889
 40
495.021792
 50
92.391036
 51
92.462865
  0
ARC
  8
1
 62
7
  6
CONTINUOUS
 10
90.997659
 20
-1366.912549
 40
1486.921686
 50
92.462865
 51
92.486768
  0
ARC
  8
1
 62
7
  6
CONTINUOUS
 10
59.444964
 20
-111.482865
 40
231.804611
 50
94.115601
 51
94.187764
  0
ARC
  8
1
 62
7
  6
CONTINUOUS
 10
48.156071
 20
42.693385
 40
77.215623
 50
94.187764
 51
94.404337
  0
ARC
  8
1
 62
7
  6
CONTINUOUS
 10
45.777849
 20
73.570578
 40
46.246978
 50
94.404337
 51
94.765732
  0
ARC
  8
1
 62
7
  6
CONTINUOUS
 10
44.673587
 20
86.815887
 40
32.955718
 50
94.765732
 51
95.272476
  0
ARC
  8
1
 62
7
  6
CONTINUOUS
 10
43.993593
 20
94.184477
 40
25.555818
 50
95.272476
 51
95.925315
  0
ARC
  8
1
 62
7
  6
CONTINUOUS
 10
43.911725
 20
94.973295
 40
24.762763
 50
95.925315
 51
97.473747
  0
ARC
  8
1
 62
7
  6
CONTINUOUS
 10
46.199469
 20
77.534413
 40
42.351066
 50
97.473747
 51
98.378926
  0
ARC
  8
1
 62
7
  6
CONTINUOUS
 10
48.686648
 20
60.648295
 40
59.419371
 50
98.378926
 51
99.025148
  0
ARC
  8
1
 62
7
  6
CONTINUOUS
 10
101.154396
 20
-271.829529
 40
396.011633
 50
98.976398
 51
99.073666
  0
ARC
  8
1
 62
7
  6
CONTINUOUS
 10
21.263826
 20
228.422837
 40
110.579852
 50
-81.276794
 51
-80.926882
  0
ARC
  8
1
 62
7
  6
CONTINUOUS
 10
33.354168
 20
149.471941
 40
30.708591
 50
-82.110795
 51
-81.233323
  0
ARC
  8
1
 62
7
  6
CONTINUOUS
 10
35.572639
 20
133.458676
 40
14.542383
 50
-83.960069
 51
-82.108929
  0
ARC
  8
1
 62
7
  6
CONTINUOUS
 10
36.115610
 20
128.322035
 40
9.377124
 50
-86.813809
 51
-83.956844
  0
ARC
  8
1
 62
7
  6
CONTINUOUS
 10
36.257422
 20
125.768590
 40
6.819745
 50
-90.713526
 51
-86.811038
  0
ARC
  8
1
 62
7
  6
CONTINUOUS
 10
36.239713
 20
124.301273
 40
5.352321
 50
-102.717895
 51
-90.719575
  0
ARC
  8
1
 62
7
  6
CONTINUOUS
 10
37.491625
 20
130.182822
 40
11.365419
 50
-105.695107
 51
-102.346699
  0
ARC
  8
1
 62
7
  6
CONTINUOUS
 10
56.407099
 20
197.537512
 40
81.325760
 50
-106.158252
 51
-105.687735
  0
ARC
  8
1
 62
7
  6
CONTINUOUS
 10
29.315622
 20
104.037490
 40
16.020026
 50
73.838063
 51
76.220874
  0
ARC
  8
1
 62
7
  6
CONTINUOUS
 10
31.431466
 20
112.665231
 40
7.136631
 50
76.220874
 51
81.527964
  0
ARC
  8
1
 62
7
  6
CONTINUOUS
 10
31.667571
 20
114.250343
 40
5.534032
 50
81.527964
 51
87.673778
  0
ARC
  8
1
 62
7
  6
CONTINUOUS
 10
31.421591
 20
108.195076
 40
11.594293
 50
87.673778
 51
90.618317
  0
ARC
  8
1
 62
7
  6
CONTINUOUS
 10
31.424440
 20
107.931117
 40
11.858267
 50
90.618317
 51
93.515080
  0
ARC
  8
1
 62
7
  6
CONTINUOUS
 10
34.121851
 20
57.008653
 40
62.851781
 50
93.123286
 51
93.671905
  0
ARC
  8
1
 62
7
  6
CONTINUOUS
 10
27.901910
 20
153.927564
 40
34.266513
 50
-87.333833
 51
-86.327765
  0
ARC
  8
1
 62
7
  6
CONTINUOUS
 10
28.565909
 20
140.938785
 40
21.260988
 50
-89.123660
 51
-87.493063
  0
ARC
  8
1
 62
7
  6
CONTINUOUS
 10
28.476665
 20
146.793477
 40
27.116360
 50
-90.399376
 51
-89.124317
  0
ARC
  8
1
 62
7
  6
CONTINUOUS
 10
28.551248
 20
157.458806
 40
37.781950
 50
-91.313397
 51
-90.399739
  0
ARC
  8
1
 62
7
  6
CONTINUOUS
 10
29.125062
 20
182.477993
 40
62.807716
 50
-91.862712
 51
-91.313576
  0
ARC
  8
1
 62
7
  6
CONTINUOUS
 10
33.201614
 20
307.818731
 40
188.214730
 50
-92.045962
 51
-91.862782
  0
ARC
  8
1
 62
7
  6
CONTINUOUS
 10
-48.551736
 20
1589.169615
 40
1482.345891
 50
-87.098544
 51
-87.063695
  0
ARC
  8
1
 62
7
  6
CONTINUOUS
 10
2.049153
 20
602.664815
 40
494.544205
 50
-87.063695
 51
-86.959201
  0
ARC
  8
1
 62
7
  6
CONTINUOUS
 10
12.505909
 20
405.820077
 40
297.421921
 50
-86.959201
 51
-86.785320
  0
ARC
  8
1
 62
7
  6
CONTINUOUS
 10
17.231504
 20
321.683388
 40
213.152629
 50
-86.785320
 51
-86.542422
  0
ARC
  8
1
 62
7
  6
CONTINUOUS
 10
20.041833
 20
275.169754
 40
166.554173
 50
-86.542422
 51
-86.231091
  0
ARC
  8
1
 62
7
  6
CONTINUOUS
 10
25.635668
 20
190.253740
 40
81.454112
 50
-86.231091
 51
-85.801116
  0
ARC
  8
1
 62
7
  6
CONTINUOUS
 10
29.375331
 20
139.315639
 40
30.378920
 50
-85.801116
 51
-84.648687
  0
ARC
  8
1
 62
7
  6
CONTINUOUS
 10
30.112848
 20
131.442119
 40
22.470933
 50
-84.648687
 51
-83.093348
  0
ARC
  8
1
 62
7
  6
CONTINUOUS
 10
30.986050
 20
124.233381
 40
15.209502
 50
-83.093348
 51
-80.800737
  0
ARC
  8
1
 62
7
  6
CONTINUOUS
 10
31.363526
 20
121.902588
 40
12.848341
 50
-80.800737
 51
-78.092049
  0
ARC
  8
1
 62
7
  6
CONTINUOUS
 10
31.678736
 20
120.407838
 40
11.320717
 50
-78.092049
 51
-72.912714
  0
ARC
  8
1
 62
7
  6
CONTINUOUS
 10
30.761016
 20
123.393290
 40
14.444037
 50
-72.912714
 51
-68.840949
  0
ARC
  8
1
 62
7
  6
CONTINUOUS
 10
30.714227
 20
123.514176
 40
14.573662
 50
-68.840949
 51
-64.786188
  0
ARC
  8
1
 62
7
  6
CONTINUOUS
 10
28.463240
 20
128.294774
 40
19.857700
 50
-64.786188
 51
-61.797754
  0
ARC
  8
1
 62
7
  6
CONTINUOUS
 10
28.592210
 20
128.054269
 40
19.584798
 50
-61.797754
 51
-58.760774
  0
ARC
  8
1
 62
7
  6
CONTINUOUS
 10
19.508160
 20
143.030669
 40
37.100862
 50
-58.760774
 51
-57.269449
  0
ARC
  8
1
 62
7
  6
CONTINUOUS
 10
-333.127093
 20
691.672806
 40
689.297011
 50
-57.269449
 51
-57.189411
  0
ARC
  8
1
 62
7
  6
CONTINUOUS
 10
58.912356
 20
83.550354
 40
34.241417
 50
121.169392
 51
122.771471
  0
ARC
  8
1
 62
7
  6
CONTINUOUS
 10
49.887239
 20
98.472538
 40
16.802257
 50
117.931795
 51
121.172856
  0
ARC
  8
1
 62
7
  6
CONTINUOUS
 10
47.191507
 20
103.556610
 40
11.047715
 50
113.027839
 51
117.930690
  0
ARC
  8
1
 62
7
  6
CONTINUOUS
 10
46.967027
 20
103.983151
 40
10.567425
 50
108.786075
 51
112.812376
  0
ARC
  8
1
 62
7
  6
CONTINUOUS
 10
48.011104
 20
100.913672
 40
13.809616
 50
105.688324
 51
108.785971
  0
ARC
  8
1
 62
7
  6
CONTINUOUS
 10
49.609074
 20
95.226673
 40
19.716855
 50
103.506457
 51
105.690219
  0
ARC
  8
1
 62
7
  6
CONTINUOUS
 10
52.807942
 20
81.914337
 40
33.408131
 50
102.212681
 51
103.508578
  0
ARC
  8
1
 62
7
  6
CONTINUOUS
 10
67.141380
 20
15.701339
 40
101.154780
 50
101.784668
 51
102.213977
  0
ARC
  8
1
 62
7
  6
CONTINUOUS
 10
-48.551736
 20
1590.169615
 40
1482.345891
 50
-87.098544
 51
-87.063695
  0
ARC
  8
1
 62
7
  6
CONTINUOUS
 10
2.049153
 20
603.664815
 40
494.544205
 50
-87.063695
 51
-86.959201
  0
ARC
  8
1
 62
7
  6
CONTINUOUS
 10
12.505909
 20
406.820077
 40
297.421921
 50
-86.959201
 51
-86.785320
  0
ARC
  8
1
 62
7
  6
CONTINUOUS
 10
17.231504
 20
322.683388
 40
213.152629
 50
-86.785320
 51
-86.542422
  0
ARC
  8
1
 62
7
  6
CONTINUOUS
 10
20.041833
 20
276.169754
 40
166.554173
 50
-86.542422
 51
-86.231091
  0
ARC
  8
1
 62
7
  6
CONTINUOUS
 10
25.635668
 20
191.253740
 40
81.454112
 50
-86.231091
 51
-85.801116
  0
ARC
  8
1
 62
7
  6
CONTINUOUS
 10
29.375331
 20
140.315639
 40
30.378920
 50
-85.801116
 51
-84.648687
  0
ARC
  8
1
 62
7
  6
CONTINUOUS
 10
30.112848
 20
132.442119
 40
22.470933
 50
-84.648687
 51
-83.093348
  0
ARC
  8
1
 62
7
  6
CONTINUOUS
 10
30.986050
 20
125.233381
 40
15.209502
 50
-83.093348
 51
-80.800737
  0
ARC
  8
1
 62
7
  6
CONTINUOUS
 10
31.363526
 20
122.902588
 40
12.848341
 50
-80.800737
 51
-78.092049
  0
ARC
  8
1
 62
7
  6
CONTINUOUS
 10
31.678736
 20
121.407838
 40
11.320717
 50
-78.092049
 51
-72.912714
  0
ARC
  8
1
 62
7
  6
CONTINUOUS
 10
30.761016
 20
124.393290
 40
14.444037
 50
-72.912714
 51
-68.840949
  0
ARC
  8
1
 62
7
  6
CONTINUOUS
 10
30.714227
 20
124.514176
 40
14.573662
 50
-68.840949
 51
-64.786188
  0
ARC
  8
1
 62
7
  6
CONTINUOUS
 10
28.463240
 20
129.294774
 40
19.857700
 50
-64.786188
 51
-61.797754
  0
ARC
  8
1
 62
7
  6
CONTINUOUS
 10
28.592210
 20
129.054269
 40
19.584798
 50
-61.797754
 51
-58.760774
  0
ARC
  8
1
 62
7
  6
CONTINUOUS
 10
19.508160
 20
144.030669
 40
37.100862
 50
-58.760774
 51
-57.269449
  0
ARC
  8
1
 62
7
  6
CONTINUOUS
 10
-333.127093
 20
692.672806
 40
689.297011
 50
-57.269449
 51
-57.189411
  0
ARC
  8
1
 62
7
  6
CONTINUOUS
 10
58.912356
 20
84.550354
 40
34.241417
 50
121.169392
 51
122.771471
  0
ARC
  8
1
 62
7
  6
CONTINUOUS
 10
49.887239
 20
99.472538
 40
16.802257
 50
117.931795
 51
121.172856
  0
ARC
  8
1
 62
7
  6
CONTINUOUS
 10
47.191507
 20
104.556610
 40
11.047715
 50
113.027839
 51
117.930690
  0
ARC
  8
1
 62
7
  6
CONTINUOUS
 10
46.967027
 20
104.983151
 40
10.567425
 50
108.786075
 51
112.812376
  0
ARC
  8
1
 62
7
  6
CONTINUOUS
 10
48.011104
 20
101.913672
 40
13.809616
 50
105.688324
 51
108.785971
  0
ARC
  8
1
 62
7
  6
CONTINUOUS
 10
49.609074
 20
96.226673
 40
19.716855
 50
103.506457
 51
105.690219
  0
ARC
  8
1
 62
7
  6
CONTINUOUS
 10
52.807942
 20
82.914337
 40
33.408131
 50
102.212681
 51
103.508578
  0
ARC
  8
1
 62
7
  6
CONTINUOUS
 10
67.141380
 20
16.701339
 40
101.154780
 50
101.784668
 51
102.213977
  0
ARC
  8
1
 62
7
  6
CONTINUOUS
 10
32.790500
 20
258.808359
 40
147.719135
 50
-92.447572
 51
-92.161060
  0
ARC
  8
1
 62
7
  6
CONTINUOUS
 10
29.070843
 20
160.236582
 40
49.077200
 50
-92.161060
 51
-91.299887
  0
ARC
  8
1
 62
7
  6
CONTINUOUS
 10
28.620108
 20
140.372730
 40
29.208235
 50
-91.299887
 51
-89.856522
  0
ARC
  8
1
 62
7
  6
CONTINUOUS
 10
28.641478
 20
131.839088
 40
20.674567
 50
-89.856522
 51
-87.823515
  0
ARC
  8
1
 62
7
  6
CONTINUOUS
 10
28.821033
 20
127.114584
 40
15.946652
 50
-87.823515
 51
-85.194541
  0
ARC
  8
1
 62
7
  6
CONTINUOUS
 10
28.888819
 20
126.308263
 40
15.137486
 50
-85.194541
 51
-82.318920
  0
ARC
  8
1
 62
7
  6
CONTINUOUS
 10
27.300731
 20
138.083299
 40
27.019132
 50
-82.318920
 51
-80.704916
  0
ARC
  8
1
 62
7
  6
CONTINUOUS
 10
26.116061
 20
145.321543
 40
34.353681
 50
-80.704916
 51
-79.431288
  0
ARC
  8
1
 62
7
  6
CONTINUOUS
 10
-350.795729
 20
2165.432213
 40
2089.325608
 50
-79.431288
 51
-79.410269
  0
ARC
  8
1
 62
7
  6
CONTINUOUS
 10
48.560213
 20
30.277919
 40
82.855260
 50
100.172482
 51
100.704428
  0
ARC
  8
1
 62
7
  6
CONTINUOUS
 10
63.860985
 20
-58.128182
 40
172.574853
 50
99.713454
 51
99.988774
  0
ARC
  8
1
 62
7
  6
CONTINUOUS
 10
27.794100
 20
152.577736
 40
41.195594
 50
-80.287453
 51
-79.135296
  0
ARC
  8
1
 62
7
  6
CONTINUOUS
 10
32.137815
 20
129.946068
 40
18.150850
 50
-79.135296
 51
-76.534077
  0
ARC
  8
1
 62
7
  6
CONTINUOUS
 10
33.709557
 20
123.382098
 40
11.401326
 50
-76.534077
 51
-72.421994
  0
ARC
  8
1
 62
7
  6
CONTINUOUS
 10
34.662645
 20
120.373579
 40
8.245448
 50
-72.421994
 51
-61.366018
  0
ARC
  8
1
 62
7
  6
CONTINUOUS
 10
27.582591
 20
133.341011
 40
23.019799
 50
-61.366018
 51
-59.420249
  0
ARC
  8
1
 62
7
  6
CONTINUOUS
 10
7.646025
 20
167.079108
 40
62.208138
 50
-59.420249
 51
-58.697858
  0
ARC
  8
1
 62
7
  6
CONTINUOUS
 10
51.017552
 20
95.563923
 40
21.431199
 50
118.951852
 51
121.041615
  0
ARC
  8
1
 62
7
  6
CONTINUOUS
 10
45.480925
 20
105.574697
 40
9.991363
 50
114.512702
 51
118.959095
  0
ARC
  8
1
 62
7
  6
CONTINUOUS
 10
44.877325
 20
106.779730
 40
8.644651
 50
107.297553
 51
114.186376
  0
ARC
  8
1
 62
7
  6
CONTINUOUS
 10
45.658044
 20
104.266652
 40
11.276205
 50
101.982335
 51
107.288337
  0
ARC
  8
1
 62
7
  6
CONTINUOUS
 10
46.704297
 20
99.341431
 40
16.311327
 50
98.277649
 51
101.985605
  0
ARC
  8
1
 62
7
  6
CONTINUOUS
 10
48.398705
 20
87.716923
 40
28.058675
 50
96.105879
 51
98.284129
  0
ARC
  8
1
 62
7
  6
CONTINUOUS
 10
54.542037
 20
30.349069
 40
85.754526
 50
95.393087
 51
96.110213
  0
ARC
  8
1
 62
7
  6
CONTINUOUS
 10
32.778496
 20
272.134950
 40
160.034873
 50
-92.254813
 51
-91.990610
  0
ARC
  8
1
 62
7
  6
CONTINUOUS
 10
29.067590
 20
165.366838
 40
53.202291
 50
-91.990610
 51
-91.196779
  0
ARC
  8
1
 62
7
  6
CONTINUOUS
 10
28.618763
 20
143.882376
 40
31.713141
 50
-91.196779
 51
-89.867723
  0
ARC
  8
1
 62
7
  6
CONTINUOUS
 10
28.640057
 20
134.658802
 40
22.489543
 50
-89.867723
 51
-87.998049
  0
ARC
  8
1
 62
7
  6
CONTINUOUS
 10
28.818547
 20
129.552493
 40
17.380115
 50
-87.998049
 51
-85.583482
  0
ARC
  8
1
 62
7
  6
CONTINUOUS
 10
28.913035
 20
128.329131
 40
16.153110
 50
-85.583482
 51
-82.885122
  0
ARC
  8
1
 62
7
  6
CONTINUOUS
 10
27.876649
 20
136.632156
 40
24.520566
 50
-82.885122
 51
-81.104853
  0
ARC
  8
1
 62
7
  6
CONTINUOUS
 10
27.402810
 20
139.659705
 40
27.584970
 50
-81.104853
 51
-79.518071
  0
ARC
  8
1
 62
7
  6
CONTINUOUS
 10
20.551640
 20
176.690485
 40
65.244195
 50
-79.518071
 51
-78.845189
  0
ARC
  8
1
 62
7
  6
CONTINUOUS
 10
15.786431
 20
200.856565
 40
89.875610
 50
-78.845189
 51
-78.355388
  0
ARC
  8
1
 62
7
  6
CONTINUOUS
 10
-47.992776
 20
510.341056
 40
405.863644
 50
-78.355388
 51
-78.237306
  0
ARC
  8
1
 62
7
  6
CONTINUOUS
 10
30.004592
 20
135.770514
 40
23.258521
 50
-78.237306
 51
-76.179257
  0
ARC
  8
1
 62
7
  6
CONTINUOUS
 10
30.477214
 20
133.849346
 40
21.280072
 50
-76.179257
 51
-73.938483
  0
ARC
  8
1
 62
7
  6
CONTINUOUS
 10
33.258273
 20
124.189795
 40
11.228147
 50
-73.938483
 51
-69.709376
  0
ARC
  8
1
 62
7
  6
CONTINUOUS
 10
33.598258
 20
123.270232
 40
10.247746
 50
-69.709376
 51
-60.725091
  0
ARC
  8
1
 62
7
  6
CONTINUOUS
 10
24.448380
 20
139.591868
 40
28.959135
 50
-60.725091
 51
-59.175314
  0
ARC
  8
1
 62
7
  6
CONTINUOUS
 10
99.754056
 20
13.813110
 40
117.639816
 50
120.548955
 51
120.930510
  0
ARC
  8
1
 62
7
  6
CONTINUOUS
 10
48.845429
 20
100.073392
 40
17.477325
 50
118.001355
 51
120.554285
  0
ARC
  8
1
 62
7
  6
CONTINUOUS
 10
44.960489
 20
107.381719
 40
9.200588
 50
113.202936
 51
118.007889
  0
ARC
  8
1
 62
7
  6
CONTINUOUS
 10
44.518820
 20
108.293956
 40
8.188256
 50
105.673280
 51
112.877328
  0
ARC
  8
1
 62
7
  6
CONTINUOUS
 10
45.208340
 20
105.830181
 40
10.746697
 50
100.138109
 51
105.664161
  0
ARC
  8
1
 62
7
  6
CONTINUOUS
 10
46.071827
 20
101.008578
 40
15.645010
 50
96.297578
 51
100.142866
  0
ARC
  8
1
 62
7
  6
CONTINUOUS
 10
47.326071
 20
89.677424
 40
27.045368
 50
94.053982
 51
96.305491
  0
ARC
  8
1
 62
7
  6
CONTINUOUS
 10
51.280380
 20
33.988517
 40
82.874490
 50
93.319159
 51
94.059108
  0
ARC
  8
1
 62
7
  6
CONTINUOUS
 10
35.155409
 20
-139.945550
 40
253.817769
 50
91.816216
 51
91.958253
  0
ARC
  8
1
 62
7
  6
CONTINUOUS
 10
29.794012
 20
29.131290
 40
84.655945
 50
91.390242
 51
91.816186
  0
ARC
  8
1
 62
7
  6
CONTINUOUS
 10
28.974108
 20
62.912423
 40
50.864864
 50
90.680920
 51
91.390165
  0
ARC
  8
1
 62
7
  6
CONTINUOUS
 10
28.802445
 20
77.347677
 40
36.428590
 50
89.689569
 51
90.680760
  0
ARC
  8
1
 62
7
  6
CONTINUOUS
 10
28.845457
 20
85.313342
 40
28.462808
 50
88.418747
 51
89.689274
  0
ARC
  8
1
 62
7
  6
CONTINUOUS
 10
28.413090
 20
72.879721
 40
40.903723
 50
87.257855
 51
88.293939
  0
ARC
  8
1
 62
7
  6
CONTINUOUS
 10
41.706614
 20
350.466187
 40
237.000873
 50
-92.741718
 51
-92.562826
  0
ARC
  8
1
 62
7
  6
CONTINUOUS
 10
32.463761
 20
143.966276
 40
30.294212
 50
-92.562826
 51
-91.166498
  0
ARC
  8
1
 62
7
  6
CONTINUOUS
 10
32.172163
 20
129.645611
 40
15.970578
 50
-91.166498
 51
-88.528797
  0
ARC
  8
1
 62
7
  6
CONTINUOUS
 10
32.305751
 20
124.444195
 40
10.767448
 50
-88.528797
 51
-84.631052
  0
ARC
  8
1
 62
7
  6
CONTINUOUS
 10
32.430153
 20
123.120509
 40
9.437929
 50
-84.631052
 51
-81.787729
  0
ARC
  8
1
 62
7
  6
CONTINUOUS
 10
31.001238
 20
133.021469
 40
19.441468
 50
-81.787729
 51
-80.404127
  0
ARC
  8
1
 62
7
  6
CONTINUOUS
 10
30.729157
 20
134.630815
 40
21.073652
 50
-80.404127
 51
-79.123155
  0
ARC
  8
1
 62
7
  6
CONTINUOUS
 10
5.548795
 20
268.136441
 40
156.933042
 50
-79.292679
 51
-79.120035
  0
ARC
  8
1
 62
7
  6
CONTINUOUS
 10
43.869823
 20
68.760023
 40
46.092714
 50
100.289507
 51
100.879328
  0
ARC
  8
1
 62
7
  6
CONTINUOUS
 10
49.806497
 20
34.543427
 40
80.819904
 50
99.684021
 51
100.097642
  0
ARC
  8
1
 62
7
  6
CONTINUOUS
 10
31.243223
 20
143.328214
 40
29.537357
 50
-80.316795
 51
-79.186127
  0
ARC
  8
1
 62
7
  6
CONTINUOUS
 10
34.473982
 20
126.414232
 40
12.317583
 50
-79.186127
 51
-76.489063
  0
ARC
  8
1
 62
7
  6
CONTINUOUS
 10
35.570858
 20
121.849255
 40
7.622676
 50
-76.489063
 51
-72.160704
  0
ARC
  8
1
 62
7
  6
CONTINUOUS
 10
36.209980
 20
119.863304
 40
5.536417
 50
-72.160704
 51
-59.683609
  0
ARC
  8
1
 62
7
  6
CONTINUOUS
 10
25.426349
 20
138.305163
 40
26.899676
 50
-59.683609
 51
-58.325727
  0
ARC
  8
1
 62
7
  6
CONTINUOUS
 10
-1372.867591
 20
2404.611517
 40
2689.862394
 50
-58.325727
 51
-58.312134
  0
ARC
  8
1
 62
7
  6
CONTINUOUS
 10
44.542736
 20
108.411301
 40
8.579550
 50
117.010934
 51
121.232482
  0
ARC
  8
1
 62
7
  6
CONTINUOUS
 10
42.760494
 20
111.908958
 40
4.653994
 50
109.331365
 51
117.019098
  0
ARC
  8
1
 62
7
  6
CONTINUOUS
 10
42.591601
 20
112.298993
 40
4.230149
 50
102.960588
 51
108.921537
  0
ARC
  8
1
 62
7
  6
CONTINUOUS
 10
42.887594
 20
111.012640
 40
5.550117
 50
98.378579
 51
102.960056
  0
ARC
  8
1
 62
7
  6
CONTINUOUS
 10
43.233412
 20
108.669773
 40
7.918369
 50
95.139967
 51
98.383935
  0
ARC
  8
1
 62
7
  6
CONTINUOUS
 10
43.696968
 20
103.530689
 40
13.078317
 50
93.167173
 51
95.145602
  0
ARC
  8
1
 62
7
  6
CONTINUOUS
 10
44.845035
 20
82.812948
 40
33.827844
 50
92.403966
 51
93.170002
  0
ARC
  8
1
 62
7
  6
CONTINUOUS
 10
50.860647
 20
-53.650381
 40
170.423639
 50
92.292652
 51
92.500249
  0
ARC
  8
1
 62
7
  6
CONTINUOUS
 10
52.642267
 20
-98.164660
 40
214.973558
 50
92.128976
 51
92.292508
  0
ARC
  8
1
 62
7
  6
CONTINUOUS
 10
55.676562
 20
-179.802570
 40
296.667837
 50
92.010932
 51
92.128865
  0
ARC
  8
1
 62
7
  6
CONTINUOUS
 10
62.450050
 20
-372.732906
 40
489.717040
 50
91.939642
 51
92.010857
  0
ARC
  8
1
 62
7
  6
CONTINUOUS
 10
95.360857
 20
-1344.554418
 40
1462.095656
 50
91.915789
 51
91.939604
  0
ARC
  8
1
 62
7
  6
CONTINUOUS
 10
35.461390
 20
-161.896616
 40
276.766300
 50
91.728882
 51
91.859202
  0
ARC
  8
1
 62
7
  6
CONTINUOUS
 10
29.895393
 20
22.505902
 40
92.279799
 50
91.337979
 51
91.728869
  0
ARC
  8
1
 62
7
  6
CONTINUOUS
 10
29.034385
 20
59.368210
 40
55.407437
 50
90.686765
 51
91.337940
  0
ARC
  8
1
 62
7
  6
CONTINUOUS
 10
28.845303
 20
75.136950
 40
39.637564
 50
89.775956
 51
90.686671
  0
ARC
  8
1
 62
7
  6
CONTINUOUS
 10
28.879292
 20
83.855340
 40
30.919107
 50
88.607113
 51
89.775766
  0
ARC
  8
1
 62
7
  6
CONTINUOUS
 10
28.481894
 20
71.050913
 40
43.729496
 50
87.526683
 51
88.494394
  0
ARC
  8
1
 62
7
  6
CONTINUOUS
 10
45.020212
 20
453.972925
 40
339.549493
 50
-92.473022
 51
-92.348349
  0
ARC
  8
1
 62
7
  6
CONTINUOUS
 10
32.528829
 20
149.374850
 40
34.695394
 50
-92.348349
 51
-91.130094
  0
ARC
  8
1
 62
7
  6
CONTINUOUS
 10
32.201964
 20
132.804924
 40
18.122245
 50
-91.130094
 51
-88.804088
  0
ARC
  8
1
 62
7
  6
CONTINUOUS
 10
32.325233
 20
126.900028
 40
12.216062
 50
-88.804088
 51
-85.360943
  0
ARC
  8
1
 62
7
  6
CONTINUOUS
 10
32.478281
 20
125.013899
 40
10.323733
 50
-85.360943
 51
-82.753991
  0
ARC
  8
1
 62
7
  6
CONTINUOUS
 10
31.787166
 20
130.449531
 40
15.803125
 50
-82.753991
 51
-81.047996
  0
ARC
  8
1
 62
7
  6
CONTINUOUS
 10
31.923029
 20
129.587048
 40
14.930007
 50
-81.047996
 51
-79.238288
  0
ARC
  8
1
 62
7
  6
CONTINUOUS
 10
29.193013
 20
143.950438
 40
29.550539
 50
-79.238288
 51
-78.322206
  0
ARC
  8
1
 62
7
  6
CONTINUOUS
 10
29.845874
 20
140.791723
 40
26.325061
 50
-78.322206
 51
-77.292614
  0
ARC
  8
1
 62
7
  6
CONTINUOUS
 10
23.907471
 20
167.126669
 40
53.321246
 50
-77.292614
 51
-76.659059
  0
ARC
  8
1
 62
7
  6
CONTINUOUS
 10
32.562593
 20
130.629430
 40
15.811786
 50
-76.659059
 51
-74.525078
  0
ARC
  8
1
 62
7
  6
CONTINUOUS
 10
32.179793
 20
132.012115
 40
17.246482
 50
-74.525078
 51
-72.572339
  0
ARC
  8
1
 62
7
  6
CONTINUOUS
 10
34.438209
 20
124.817673
 40
9.705896
 50
-72.572339
 51
-69.106729
  0
ARC
  8
1
 62
7
  6
CONTINUOUS
 10
34.236893
 20
125.345053
 40
10.270394
 50
-69.106729
 51
-65.828731
  0
ARC
  8
1
 62
7
  6
CONTINUOUS
 10
34.783853
 20
124.126377
 40
8.934604
 50
-65.828731
 51
-61.860926
  0
ARC
  8
1
 62
7
  6
CONTINUOUS
 10
18.434984
 20
155.445169
 40
44.263444
 50
-62.318949
 51
-61.515784
  0
ARC
  8
1
 62
7
  6
CONTINUOUS
 10
51.298478
 20
94.880149
 40
24.643239
 50
117.047426
 51
118.486201
  0
ARC
  8
1
 62
7
  6
CONTINUOUS
 10
44.373646
 20
108.445584
 40
9.412535
 50
113.315898
 51
117.054214
  0
ARC
  8
1
 62
7
  6
CONTINUOUS
 10
42.914643
 20
111.830952
 40
5.726154
 50
107.215670
 51
113.316643
  0
ARC
  8
1
 62
7
  6
CONTINUOUS
 10
42.770650
 20
112.206972
 40
5.324428
 50
102.179599
 51
106.933175
  0
ARC
  8
1
 62
7
  6
CONTINUOUS
 10
43.084673
 20
110.752187
 40
6.812719
 50
98.441987
 51
102.179838
  0
ARC
  8
1
 62
7
  6
CONTINUOUS
 10
43.454935
 20
108.260729
 40
9.331539
 50
95.697043
 51
98.444963
  0
ARC
  8
1
 62
7
  6
CONTINUOUS
 10
43.952032
 20
103.285845
 40
14.331197
 50
93.902117
 51
95.700215
  0
ARC
  8
1
 62
7
  6
CONTINUOUS
 10
44.973191
 20
88.328825
 40
29.323035
 50
93.024281
 51
93.903942
  0
ARC
  8
1
 62
7
  6
CONTINUOUS
 10
47.024008
 20
50.979308
 40
66.728779
 50
92.562157
 51
93.090767
  0
ARC
  8
1
 62
7
  6
CONTINUOUS
 10
47.825828
 20
33.052138
 40
84.673870
 50
92.147138
 51
92.561897
  0
ARC
  8
1
 62
7
  6
CONTINUOUS
 10
49.051243
 20
0.356987
 40
117.391978
 50
91.848754
 51
92.146944
  0
ARC
  8
1
 62
7
  6
CONTINUOUS
 10
51.534970
 20
-76.604460
 40
194.393492
 50
91.668939
 51
91.848625
  0
ARC
  8
1
 62
7
  6
CONTINUOUS
 10
62.802963
 20
-463.355155
 40
581.308299
 50
91.608850
 51
91.668874
  0
ARC
  8
1
 62
7
  6
CONTINUOUS
 10
34.330640
 20
-545.525153
 40
661.795681
 50
90.625006
 51
90.679511
  0
ARC
  8
1
 62
7
  6
CONTINUOUS
 10
29.518490
 20
-104.403225
 40
220.647505
 50
90.461513
 51
90.625002
  0
ARC
  8
1
 62
7
  6
CONTINUOUS
 10
28.808066
 20
-16.210143
 40
132.451563
 50
90.189108
 51
90.461504
  0
ARC
  8
1
 62
7
  6
CONTINUOUS
 10
28.683383
 20
21.557663
 40
94.683551
 50
89.807939
 51
90.189091
  0
ARC
  8
1
 62
7
  6
CONTINUOUS
 10
28.753580
 20
42.509025
 40
73.732071
 50
89.318255
 51
89.807912
  0
ARC
  8
1
 62
7
  6
CONTINUOUS
 10
28.231972
 20
7.381480
 40
108.863385
 50
88.836153
 51
89.263724
  0
ARC
  8
1
 62
7
  6
CONTINUOUS
 10
38.466511
 20
511.169188
 40
395.028270
 50
-91.163805
 51
-91.045962
  0
ARC
  8
1
 62
7
  6
CONTINUOUS
 10
32.535233
 20
186.301225
 40
70.106167
 50
-91.045962
 51
-90.382343
  0
ARC
  8
1
 62
7
  6
CONTINUOUS
 10
32.323221
 20
154.530754
 40
38.334989
 50
-90.382343
 51
-89.170065
  0
ARC
  8
1
 62
7
  6
CONTINUOUS
 10
32.497217
 20
142.519534
 40
26.322508
 50
-89.170065
 51
-87.406555
  0
ARC
  8
1
 62
7
  6
CONTINUOUS
 10
32.561476
 20
141.100858
 40
24.902377
 50
-87.406555
 51
-86.411104
  0
ARC
  8
1
 62
7
  6
CONTINUOUS
 10
10.435201
 20
493.878907
 40
378.373626
 50
-86.411104
 51
-86.345558
  0
ARC
  8
1
 62
7
  6
CONTINUOUS
 10
39.827931
 20
35.718352
 40
80.728874
 50
93.439442
 51
93.746960
  0
ARC
  8
1
 62
7
  6
CONTINUOUS
 10
36.712418
 20
87.553104
 40
28.800578
 50
92.575834
 51
93.439141
  0
ARC
  8
1
 62
7
  6
CONTINUOUS
 10
36.210059
 20
98.715733
 40
17.626650
 50
91.161322
 51
92.575234
  0
ARC
  8
1
 62
7
  6
CONTINUOUS
 10
36.273417
 20
92.230702
 40
24.111730
 50
89.881892
 51
90.999522
  0
ARC
  8
1
 62
7
  6
CONTINUOUS
 10
36.527615
 20
216.029508
 40
99.687337
 50
-90.117534
 51
-89.847089
  0
ARC
  8
1
 62
7
  6
CONTINUOUS
 10
36.750562
 20
132.491097
 40
16.148628
 50
-89.847089
 51
-88.183324
  0
ARC
  8
1
 62
7
  6
CONTINUOUS
 10
36.989241
 20
124.965961
 40
8.619708
 50
-88.183324
 51
-85.085289
  0
ARC
  8
1
 62
7
  6
CONTINUOUS
 10
37.229384
 20
122.173247
 40
5.816689
 50
-85.085289
 51
-80.520351
  0
ARC
  8
1
 62
7
  6
CONTINUOUS
 10
37.286142
 20
121.833332
 40
5.472067
 50
-80.520351
 51
-73.328076
  0
ARC
  8
1
 62
7
  6
CONTINUOUS
 10
35.139471
 20
129.001318
 40
12.954595
 50
-73.328076
 51
-70.264968
  0
ARC
  8
1
 62
7
  6
CONTINUOUS
 10
32.191866
 20
137.217825
 40
21.683820
 50
-70.264968
 51
-68.422014
  0
ARC
  8
1
 62
7
  6
CONTINUOUS
 10
50.348596
 20
90.845926
 40
28.116202
 50
109.811104
 51
111.231961
  0
ARC
  8
1
 62
7
  6
CONTINUOUS
 10
44.137955
 20
108.090474
 40
9.787358
 50
105.767465
 51
109.819658
  0
ARC
  8
1
 62
7
  6
CONTINUOUS
 10
43.612511
 20
109.771470
 40
8.026982
 50
98.326593
 51
105.418499
  0
ARC
  8
1
 62
7
  6
CONTINUOUS
 10
43.954742
 20
107.418037
 40
10.405167
 50
92.829298
 51
98.314530
  0
ARC
  8
1
 62
7
  6
CONTINUOUS
 10
44.182301
 20
102.824804
 40
15.004034
 50
88.990190
 51
92.831428
  0
ARC
  8
1
 62
7
  6
CONTINUOUS
 10
43.995280
 20
92.054885
 40
25.775576
 50
86.737902
 51
88.996442
  0
ARC
  8
1
 62
7
  6
CONTINUOUS
 10
40.987278
 20
39.173624
 40
78.742319
 50
85.998498
 51
86.742272
  0
ARC
  8
1
 62
7
  6
CONTINUOUS
 10
34.376849
 20
-556.649659
 40
673.919889
 50
90.617688
 51
90.671214
  0
ARC
  8
1
 62
7
  6
CONTINUOUS
 10
29.533844
 20
-107.438912
 40
224.683036
 50
90.457127
 51
90.617685
  0
ARC
  8
1
 62
7
  6
CONTINUOUS
 10
28.817237
 20
-17.624489
 40
134.865754
 50
90.189596
 51
90.457119
  0
ARC
  8
1
 62
7
  6
CONTINUOUS
 10
28.689928
 20
20.840862
 40
96.400193
 50
89.815225
 51
90.189582
  0
ARC
  8
1
 62
7
  6
CONTINUOUS
 10
28.758721
 20
42.181986
 40
75.058958
 50
89.334231
 51
89.815201
  0
ARC
  8
1
 62
7
  6
CONTINUOUS
 10
28.242748
 20
6.655142
 40
110.589447
 50
88.859952
 51
89.280800
  0
ARC
  8
1
 62
7
  6
CONTINUOUS
 10
38.615385
 20
527.901038
 40
410.759645
 50
-91.140011
 51
-91.026694
  0
ARC
  8
1
 62
7
  6
CONTINUOUS
 10
32.542081
 20
189.010066
 40
71.814257
 50
-91.026694
 51
-90.378902
  0
ARC
  8
1
 62
7
  6
CONTINUOUS
 10
32.326576
 20
156.422890
 40
39.226369
 50
-90.378902
 51
-89.194107
  0
ARC
  8
1
 62
7
  6
CONTINUOUS
 10
32.499491
 20
144.130160
 40
26.932422
 50
-89.194107
 51
-87.470166
  0
ARC
  8
1
 62
7
  6
CONTINUOUS
 10
32.570129
 20
142.531380
 40
25.332083
 50
-87.470166
 51
-86.491289
  0
ARC
  8
1
 62
7
  6
CONTINUOUS
 10
17.907092
 20
381.673224
 40
264.923039
 50
-86.491289
 51
-86.397647
  0
ARC
  8
1
 62
7
  6
CONTINUOUS
 10
40.786517
 20
20.646250
 40
96.828265
 50
93.434899
 51
93.691320
  0
ARC
  8
1
 62
7
  6
CONTINUOUS
 10
36.887987
 20
85.595644
 40
31.761974
 50
92.651988
 51
93.434676
  0
ARC
  8
1
 62
7
  6
CONTINUOUS
 10
36.301232
 20
98.260127
 40
19.083905
 50
91.346423
 51
92.651542
  0
ARC
  8
1
 62
7
  6
CONTINUOUS
 10
36.389144
 20
91.674437
 40
25.669929
 50
90.148692
 51
91.197194
  0
ARC
  8
1
 62
7
  6
CONTINUOUS
 10
36.000264
 20
241.146471
 40
123.802610
 50
-89.850857
 51
-89.633374
  0
ARC
  8
1
 62
7
  6
CONTINUOUS
 10
36.676917
 20
135.401563
 40
18.055537
 50
-89.633374
 51
-88.146289
  0
ARC
  8
1
 62
7
  6
CONTINUOUS
 10
36.950835
 20
126.938044
 40
9.587587
 50
-88.146289
 51
-85.359625
  0
ARC
  8
1
 62
7
  6
CONTINUOUS
 10
37.203043
 20
123.830792
 40
6.470116
 50
-85.359625
 51
-81.249305
  0
ARC
  8
1
 62
7
  6
CONTINUOUS
 10
37.262834
 20
123.442354
 40
6.077103
 50
-81.249305
 51
-74.819785
  0
ARC
  8
1
 62
7
  6
CONTINUOUS
 10
35.129964
 20
131.303348
 40
14.222309
 50
-74.819785
 51
-72.054288
  0
ARC
  8
1
 62
7
  6
CONTINUOUS
 10
32.229576
 20
140.258687
 40
23.635615
 50
-72.054288
 51
-70.380616
  0
ARC
  8
1
 62
7
  6
CONTINUOUS
 10
50.653101
 20
88.065395
 40
31.714071
 50
108.063241
 51
109.310396
  0
ARC
  8
1
 62
7
  6
CONTINUOUS
 10
44.215630
 20
107.807469
 40
10.948944
 50
104.477490
 51
108.069303
  0
ARC
  8
1
 62
7
  6
CONTINUOUS
 10
43.682754
 20
109.675569
 40
9.007079
 50
97.834104
 51
104.166229
  0
ARC
  8
1
 62
7
  6
CONTINUOUS
 10
44.041641
 20
107.054243
 40
11.652858
 50
92.921344
 51
97.825433
  0
ARC
  8
1
 62
7
  6
CONTINUOUS
 10
44.299303
 20
102.013290
 40
16.700391
 50
89.474352
 51
92.922768
  0
ARC
  8
1
 62
7
  6
CONTINUOUS
 10
44.193128
 20
90.199167
 40
28.514991
 50
87.442926
 51
89.478800
  0
ARC
  8
1
 62
7
  6
CONTINUOUS
 10
41.597630
 20
31.973887
 40
86.798092
 50
86.774021
 51
87.446082
  0
ARC
  8
1
 62
7
  6
CONTINUOUS
 10
32.978197
 20
12.848648
 40
108.538746
 50
93.096510
 51
93.431218
  0
ARC
  8
1
 62
7
  6
CONTINUOUS
 10
29.058846
 20
85.306308
 40
35.975162
 50
92.089196
 51
93.097128
  0
ARC
  8
1
 62
7
  6
CONTINUOUS
 10
28.526704
 20
99.903999
 40
21.367775
 50
90.398926
 51
92.090203
  0
ARC
  8
1
 62
7
  6
CONTINUOUS
 10
28.483159
 20
106.192282
 40
15.079341
 50
88.012844
 51
90.399830
  0
ARC
  8
1
 62
7
  6
CONTINUOUS
 10
28.603488
 20
109.660273
 40
11.609263
 50
84.922842
 51
88.012855
  0
ARC
  8
1
 62
7
  6
CONTINUOUS
 10
28.617172
 20
110.064190
 40
11.205742
 50
80.565377
 51
84.809763
  0
ARC
  8
1
 62
7
  6
CONTINUOUS
 10
28.269558
 20
107.975022
 40
13.323632
 50
76.982552
 51
80.563438
  0
ARC
  8
1
 62
7
  6
CONTINUOUS
 10
27.559817
 20
104.904599
 40
16.475017
 50
74.070455
 51
76.982914
  0
ARC
  8
1
 62
7
  6
CONTINUOUS
 10
26.212401
 20
100.181677
 40
21.386384
 50
71.814123
 51
74.071942
  0
ARC
  8
1
 62
7
  6
CONTINUOUS
 10
23.557044
 20
92.095771
 40
29.897130
 50
70.191973
 51
71.815844
  0
ARC
  8
1
 62
7
  6
CONTINUOUS
 10
-229.159531
 20
-607.156026
 40
773.414929
 50
70.098176
 51
70.132048
  0
ARC
  8
1
 62
7
  6
CONTINUOUS
 10
40.842217
 20
138.639329
 40
19.750663
 50
-109.903872
 51
-108.582148
  0
ARC
  8
1
 62
7
  6
CONTINUOUS
 10
37.592553
 20
128.973187
 40
9.552888
 50
-108.582148
 51
-105.871543
  0
ARC
  8
1
 62
7
  6
CONTINUOUS
 10
36.656467
 20
125.680825
 40
6.130037
 50
-105.871543
 51
-101.690264
  0
ARC
  8
1
 62
7
  6
CONTINUOUS
 10
36.322403
 20
124.066310
 40
4.481324
 50
-101.690264
 51
-96.015001
  0
ARC
  8
1
 62
7
  6
CONTINUOUS
 10
36.292235
 20
123.779999
 40
4.193427
 50
-96.015001
 51
-89.707041
  0
ARC
  8
1
 62
7
  6
CONTINUOUS
 10
36.273496
 20
127.444893
 40
7.858369
 50
-89.707041
 51
-86.312316
  0
ARC
  8
1
 62
7
  6
CONTINUOUS
 10
36.143859
 20
129.456281
 40
9.873931
 50
-86.312316
 51
-83.584180
  0
ARC
  8
1
 62
7
  6
CONTINUOUS
 10
31.455405
 20
173.465201
 40
54.131748
 50
-83.857909
 51
-83.357391
  0
ARC
  8
1
 62
7
  6
CONTINUOUS
 10
40.408396
 20
96.589283
 40
23.263747
 50
95.478446
 51
96.643106
  0
ARC
  8
1
 62
7
  6
CONTINUOUS
 10
39.566385
 20
104.857901
 40
14.952591
 50
92.754637
 51
95.291646
  0
ARC
  8
1
 62
7
  6
CONTINUOUS
 10
39.780494
 20
100.393593
 40
19.422031
 50
90.808093
 51
92.752605
  0
ARC
  8
1
 62
7
  6
CONTINUOUS
 10
39.904217
 20
91.587975
 40
28.228517
 50
89.472149
 51
90.807122
  0
ARC
  8
1
 62
7
  6
CONTINUOUS
 10
39.680760
 20
67.369629
 40
52.447894
 50
88.753851
 51
89.471785
  0
ARC
  8
1
 62
7
  6
CONTINUOUS
 10
32.511883
 20
-262.171953
 40
382.067443
 50
88.655236
 51
88.753789
  0
ARC
  8
1
 62
7
  6
CONTINUOUS
 10
45.937404
 20
318.153533
 40
198.413382
 50
-91.287734
 51
-90.999027
  0
ARC
  8
1
 62
7
  6
CONTINUOUS
 10
46.935941
 20
375.415435
 40
255.683990
 50
-90.999027
 51
-90.774831
  0
ARC
  8
1
 62
7
  6
CONTINUOUS
 10
48.325535
 20
478.164213
 40
358.442164
 50
-90.774831
 51
-90.614823
  0
ARC
  8
1
 62
7
  6
CONTINUOUS
 10
50.899205
 20
717.997080
 40
598.288840
 50
-90.614823
 51
-90.518925
  0
ARC
  8
1
 62
7
  6
CONTINUOUS
 10
61.729384
 20
1913.750421
 40
1794.091226
 50
-90.518925
 51
-90.486940
  0
ARC
  8
1
 62
7
  6
CONTINUOUS
 10
31.899607
 20
8.702943
 40
113.650237
 50
92.412751
 51
92.732212
  0
ARC
  8
1
 62
7
  6
CONTINUOUS
 10
28.702063
 20
84.598821
 40
37.687031
 50
91.451575
 51
92.413292
  0
ARC
  8
1
 62
7
  6
CONTINUOUS
 10
28.315236
 20
99.877799
 40
22.403158
 50
89.839623
 51
91.452457
  0
ARC
  8
1
 62
7
  6
CONTINUOUS
 10
28.333868
 20
106.455594
 40
15.825337
 50
87.565617
 51
89.840420
  0
ARC
  8
1
 62
7
  6
CONTINUOUS
 10
28.488169
 20
110.084899
 40
12.192752
 50
84.622340
 51
87.565647
  0
ARC
  8
1
 62
7
  6
CONTINUOUS
 10
28.510161
 20
110.548274
 40
11.729376
 50
80.460430
 51
84.517157
  0
ARC
  8
1
 62
7
  6
CONTINUOUS
 10
28.164035
 20
108.491287
 40
13.815280
 50
77.004695
 51
80.458616
  0
ARC
  8
1
 62
7
  6
CONTINUOUS
 10
27.479355
 20
105.524289
 40
16.860255
 50
74.159686
 51
77.004858
  0
ARC
  8
1
 62
7
  6
CONTINUOUS
 10
26.219257
 20
101.081483
 40
21.478303
 50
71.913881
 51
74.160883
  0
ARC
  8
1
 62
7
  6
CONTINUOUS
 10
23.847139
 20
93.815571
 40
29.121628
 50
70.249054
 51
71.915376
  0
ARC
  8
1
 62
7
  6
CONTINUOUS
 10
-101.540919
 20
-254.061530
 40
398.906197
 50
70.118383
 51
70.184040
  0
ARC
  8
1
 62
7
  6
CONTINUOUS
 10
40.952506
 20
139.965144
 40
20.094275
 50
-109.883586
 51
-108.584536
  0
ARC
  8
1
 62
7
  6
CONTINUOUS
 10
37.608964
 20
130.021133
 40
9.603202
 50
-108.584536
 51
-105.887996
  0
ARC
  8
1
 62
7
  6
CONTINUOUS
 10
36.660395
 20
126.688506
 40
6.138207
 50
-105.887996
 51
-101.711937
  0
ARC
  8
1
 62
7
  6
CONTINUOUS
 10
36.323336
 20
125.062616
 40
4.477747
 50
-101.711937
 51
-96.031828
  0
ARC
  8
1
 62
7
  6
CONTINUOUS
 10
36.292654
 20
124.772248
 40
4.185763
 50
-96.031828
 51
-89.712240
  0
ARC
  8
1
 62
7
  6
CONTINUOUS
 10
36.274264
 20
128.433979
 40
7.847540
 50
-89.712240
 51
-86.312834
  0
ARC
  8
1
 62
7
  6
CONTINUOUS
 10
36.145382
 20
130.433941
 40
9.851651
 50
-86.312834
 51
-83.578516
  0
ARC
  8
1
 62
7
  6
CONTINUOUS
 10
31.468363
 20
174.304206
 40
53.970382
 50
-83.853309
 51
-83.351289
  0
ARC
  8
1
 62
7
  6
CONTINUOUS
 10
40.408570
 20
97.609148
 40
23.243991
 50
95.483546
 51
96.649208
  0
ARC
  8
1
 62
7
  6
CONTINUOUS
 10
39.566098
 20
105.874665
 40
14.935872
 50
92.756620
 51
95.296479
  0
ARC
  8
1
 62
7
  6
CONTINUOUS
 10
39.780154
 20
101.414637
 40
19.401034
 50
90.807966
 51
92.754583
  0
ARC
  8
1
 62
7
  6
CONTINUOUS
 10
39.903759
 20
92.615994
 40
28.200545
 50
89.470695
 51
90.806993
  0
ARC
  8
1
 62
7
  6
CONTINUOUS
 10
39.679788
 20
68.408514
 40
52.409061
 50
88.751865
 51
89.470331
  0
ARC
  8
1
 62
7
  6
CONTINUOUS
 10
32.476616
 20
-262.182536
 40
383.078575
 50
88.653510
 51
88.751803
  0
ARC
  8
1
 62
7
  6
CONTINUOUS
 10
45.929268
 20
318.539182
 40
197.799004
 50
-91.289378
 51
-90.999773
  0
ARC
  8
1
 62
7
  6
CONTINUOUS
 10
46.925452
 20
375.623430
 40
254.891944
 50
-90.999773
 51
-90.774881
  0
ARC
  8
1
 62
7
  6
CONTINUOUS
 10
48.310828
 20
478.053798
 40
357.331680
 50
-90.774881
 51
-90.614375
  0
ARC
  8
1
 62
7
  6
CONTINUOUS
 10
50.874652
 20
717.143259
 40
596.434887
 50
-90.614375
 51
-90.518180
  0
ARC
  8
1
 62
7
  6
CONTINUOUS
 10
61.655773
 20
1909.192997
 40
1788.533378
 50
-90.518180
 51
-90.486095
  0
ARC
  8
1
 62
7
  6
CONTINUOUS
 10
32.087329
 20
17.524685
 40
106.341169
 50
92.680451
 51
93.021440
  0
ARC
  8
1
 62
7
  6
CONTINUOUS
 10
28.765050
 20
88.494270
 40
35.293864
 50
91.654994
 51
92.680927
  0
ARC
  8
1
 62
7
  6
CONTINUOUS
 10
28.353073
 20
102.761843
 40
21.020345
 50
89.937341
 51
91.655698
  0
ARC
  8
1
 62
7
  6
CONTINUOUS
 10
28.359876
 20
108.885369
 40
14.896814
 50
87.519350
 51
89.937750
  0
ARC
  8
1
 62
7
  6
CONTINUOUS
 10
28.505219
 20
112.243517
 40
11.535523
 50
84.400064
 51
87.518650
  0
ARC
  8
1
 62
7
  6
CONTINUOUS
 10
28.570941
 20
113.065098
 40
10.711460
 50
80.246555
 51
84.321098
  0
ARC
  8
1
 62
7
  6
CONTINUOUS
 10
28.451460
 20
112.369487
 40
11.417258
 50
76.413441
 51
80.247000
  0
ARC
  8
1
 62
7
  6
CONTINUOUS
 10
28.272817
 20
111.629357
 40
12.178642
 50
72.808515
 51
76.414490
  0
ARC
  8
1
 62
7
  6
CONTINUOUS
 10
28.039857
 20
110.875270
 40
12.967893
 50
69.412838
 51
72.809976
  0
ARC
  8
1
 62
7
  6
CONTINUOUS
 10
27.764143
 20
110.140068
 40
13.753093
 50
66.204059
 51
69.414565
  0
ARC
  8
1
 62
7
  6
CONTINUOUS
 10
24.353710
 20
102.510553
 40
22.110093
 50
64.775681
 51
66.094841
  0
ARC
  8
1
 62
7
  6
CONTINUOUS
 10
108.280490
 20
280.665492
 40
174.823619
 50
-115.224630
 51
-115.058151
  0
ARC
  8
1
 62
7
  6
CONTINUOUS
 10
41.598125
 20
138.042795
 40
17.382291
 50
-115.058151
 51
-113.392881
  0
ARC
  8
1
 62
7
  6
CONTINUOUS
 10
38.244532
 20
130.290456
 40
8.935674
 50
-113.392881
 51
-110.177856
  0
ARC
  8
1
 62
7
  6
CONTINUOUS
 10
37.216325
 20
127.492535
 40
5.954806
 50
-110.177856
 51
-105.383437
  0
ARC
  8
1
 62
7
  6
CONTINUOUS
 10
37.072046
 20
126.968141
 40
5.410926
 50
-105.383437
 51
-99.459902
  0
ARC
  8
1
 62
7
  6
CONTINUOUS
 10
37.952800
 20
132.254044
 40
10.769704
 50
-99.459902
 51
-96.462654
  0
ARC
  8
1
 62
7
  6
CONTINUOUS
 10
38.289705
 20
135.228257
 40
13.762938
 50
-96.462654
 51
-94.098601
  0
ARC
  8
1
 62
7
  6
CONTINUOUS
 10
59.853144
 20
415.957971
 40
295.319427
 50
-94.378693
 51
-94.268053
  0
ARC
  8
1
 62
7
  6
CONTINUOUS
 10
36.335352
 20
100.825295
 40
20.689576
 50
84.155176
 51
85.733200
  0
ARC
  8
1
 62
7
  6
CONTINUOUS
 10
36.722290
 20
105.204155
 40
16.294190
 50
81.958468
 51
83.940705
  0
ARC
  8
1
 62
7
  6
CONTINUOUS
 10
34.910261
 20
92.382574
 40
29.243182
 50
80.855930
 51
81.957314
  0
ARC
  8
1
 62
7
  6
CONTINUOUS
 10
15.377837
 20
-28.956458
 40
152.144266
 50
80.644112
 51
80.855438
  0
ARC
  8
1
 62
7
  6
CONTINUOUS
 10
47.755395
 20
167.558168
 40
47.019749
 50
-99.356124
 51
-98.673136
  0
ARC
  8
1
 62
7
  6
CONTINUOUS
 10
43.731674
 20
141.180326
 40
20.336779
 50
-98.673136
 51
-97.094721
  0
ARC
  8
1
 62
7
  6
CONTINUOUS
 10
43.116016
 20
136.233811
 40
15.352098
 50
-97.094721
 51
-95.445918
  0
ARC
  8
1
 62
7
  6
CONTINUOUS
 10
44.126787
 20
146.835956
 40
26.002315
 50
-95.445918
 51
-94.471400
  0
ARC
  8
1
 62
7
  6
CONTINUOUS
 10
43.922023
 20
144.217472
 40
23.375837
 50
-94.471400
 51
-93.386291
  0
ARC
  8
1
 62
7
  6
CONTINUOUS
 10
46.158661
 20
182.017129
 40
61.241609
 50
-93.386291
 51
-92.971840
  0
ARC
  8
1
 62
7
  6
CONTINUOUS
 10
45.474514
 20
168.838911
 40
48.045644
 50
-92.971840
 51
-92.443493
  0
ARC
  8
1
 62
7
  6
CONTINUOUS
 10
220.956623
 20
4281.102674
 40
4164.051866
 50
-92.443493
 51
-92.435070
  0
ARC
  8
1
 62
7
  6
CONTINUOUS
 10
47.573860
 20
203.964060
 40
83.228315
 50
-92.435070
 51
-92.013903
  0
ARC
  8
1
 62
7
  6
CONTINUOUS
 10
54.337722
 20
381.231963
 40
260.624959
 50
-92.130448
 51
-91.996009
  0
ARC
  8
1
 62
7
  6
CONTINUOUS
 10
60.373905
 20
554.431513
 40
433.929661
 50
-91.996009
 51
-91.915286
  0
ARC
  8
1
 62
7
  6
CONTINUOUS
 10
89.381893
 20
1421.882291
 40
1301.865325
 50
-91.915286
 51
-91.888383
  0
ARC
  8
1
 62
7
  6
CONTINUOUS
 10
32.087329
 20
18.524685
 40
106.341169
 50
92.680451
 51
93.021440
  0
ARC
  8
1
 62
7
  6
CONTINUOUS
 10
28.765050
 20
89.494270
 40
35.293864
 50
91.654994
 51
92.680927
  0
ARC
  8
1
 62
7
  6
CONTINUOUS
 10
28.353073
 20
103.761843
 40
21.020345
 50
89.937341
 51
91.655698
  0
ARC
  8
1
 62
7
  6
CONTINUOUS
 10
28.359876
 20
109.885369
 40
14.896814
 50
87.519350
 51
89.937750
  0
ARC
  8
1
 62
7
  6
CONTINUOUS
 10
28.505219
 20
113.243517
 40
11.535523
 50
84.400064
 51
87.518650
  0
ARC
  8
1
 62
7
  6
CONTINUOUS
 10
28.570941
 20
114.065098
 40
10.711460
 50
80.246555
 51
84.321098
  0
ARC
  8
1
 62
7
  6
CONTINUOUS
 10
28.451460
 20
113.369487
 40
11.417258
 50
76.413441
 51
80.247000
  0
ARC
  8
1
 62
7
  6
CONTINUOUS
 10
28.272817
 20
112.629357
 40
12.178642
 50
72.808515
 51
76.414490
  0
ARC
  8
1
 62
7
  6
CONTINUOUS
 10
28.039857
 20
111.875270
 40
12.967893
 50
69.412838
 51
72.809976
  0
ARC
  8
1
 62
7
  6
CONTINUOUS
 10
27.764143
 20
111.140068
 40
13.753093
 50
66.204059
 51
69.414565
  0
ARC
  8
1
 62
7
  6
CONTINUOUS
 10
24.353710
 20
103.510553
 40
22.110093
 50
64.775681
 51
66.094841
  0
ARC
  8
1
 62
7
  6
CONTINUOUS
 10
108.280490
 20
281.665492
 40
174.823619
 50
-115.224630
 51
-115.058151
  0
ARC
  8
1
 62
7
  6
CONTINUOUS
 10
41.598125
 20
139.042795
 40
17.382291
 50
-115.058151
 51
-113.392881
  0
ARC
  8
1
 62
7
  6
CONTINUOUS
 10
38.244532
 20
131.290456
 40
8.935674
 50
-113.392881
 51
-110.177856
  0
ARC
  8
1
 62
7
  6
CONTINUOUS
 10
37.216325
 20
128.492535
 40
5.954806
 50
-110.177856
 51
-105.383437
  0
ARC
  8
1
 62
7
  6
CONTINUOUS
 10
37.072046
 20
127.968141
 40
5.410926
 50
-105.383437
 51
-99.459902
  0
ARC
  8
1
 62
7
  6
CONTINUOUS
 10
37.952800
 20
133.254044
 40
10.769704
 50
-99.459902
 51
-96.462654
  0
ARC
  8
1
 62
7
  6
CONTINUOUS
 10
38.289705
 20
136.228257
 40
13.762938
 50
-96.462654
 51
-94.098601
  0
ARC
  8
1
 62
7
  6
CONTINUOUS
 10
59.853144
 20
416.957971
 40
295.319427
 50
-94.378693
 51
-94.268053
  0
ARC
  8
1
 62
7
  6
CONTINUOUS
 10
36.335352
 20
101.825295
 40
20.689576
 50
84.155176
 51
85.733200
  0
ARC
  8
1
 62
7
  6
CONTINUOUS
 10
36.722290
 20
106.204155
 40
16.294190
 50
81.958468
 51
83.940705
  0
ARC
  8
1
 62
7
  6
CONTINUOUS
 10
34.910261
 20
93.382574
 40
29.243182
 50
80.855930
 51
81.957314
  0
ARC
  8
1
 62
7
  6
CONTINUOUS
 10
15.377837
 20
-27.956458
 40
152.144266
 50
80.644112
 51
80.855438
  0
ARC
  8
1
 62
7
  6
CONTINUOUS
 10
47.755395
 20
168.558168
 40
47.019749
 50
-99.356124
 51
-98.673136
  0
ARC
  8
1
 62
7
  6
CONTINUOUS
 10
43.731674
 20
142.180326
 40
20.336779
 50
-98.673136
 51
-97.094721
  0
ARC
  8
1
 62
7
  6
CONTINUOUS
 10
43.116016
 20
137.233811
 40
15.352098
 50
-97.094721
 51
-95.445918
  0
ARC
  8
1
 62
7
  6
CONTINUOUS
 10
44.126787
 20
147.835956
 40
26.002315
 50
-95.445918
 51
-94.471400
  0
ARC
  8
1
 62
7
  6
CONTINUOUS
 10
43.922023
 20
145.217472
 40
23.375837
 50
-94.471400
 51
-93.386291
  0
ARC
  8
1
 62
7
  6
CONTINUOUS
 10
46.158661
 20
183.017129
 40
61.241609
 50
-93.386291
 51
-92.971840
  0
ARC
  8
1
 62
7
  6
CONTINUOUS
 10
45.474514
 20
169.838911
 40
48.045644
 50
-92.971840
 51
-92.443493
  0
ARC
  8
1
 62
7
  6
CONTINUOUS
 10
220.956621
 20
4282.102631
 40
4164.051824
 50
-92.443493
 51
-92.435070
  0
ARC
  8
1
 62
7
  6
CONTINUOUS
 10
47.573860
 20
204.964060
 40
83.228315
 50
-92.435070
 51
-92.013903
  0
ARC
  8
1
 62
7
  6
CONTINUOUS
 10
54.337722
 20
382.231963
 40
260.624959
 50
-92.130448
 51
-91.996009
  0
ARC
  8
1
 62
7
  6
CONTINUOUS
 10
60.373905
 20
555.431513
 40
433.929661
 50
-91.996009
 51
-91.915286
  0
ARC
  8
1
 62
7
  6
CONTINUOUS
 10
89.381893
 20
1422.882292
 40
1301.865326
 50
-91.915286
 51
-91.888383
  0
ARC
  8
1
 62
7
  6
CONTINUOUS
 10
32.924263
 20
48.752834
 40
77.738541
 50
94.203127
 51
94.753513
  0
ARC
  8
1
 62
7
  6
CONTINUOUS
 10
29.101379
 20
100.786536
 40
25.564595
 50
92.539413
 51
94.205559
  0
ARC
  8
1
 62
7
  6
CONTINUOUS
 10
28.633329
 20
111.362988
 40
14.977791
 50
89.721855
 51
92.543299
  0
ARC
  8
1
 62
7
  6
CONTINUOUS
 10
28.656052
 20
115.929582
 40
10.411141
 50
85.702341
 51
89.724904
  0
ARC
  8
1
 62
7
  6
CONTINUOUS
 10
28.840955
 20
118.393350
 40
7.940444
 50
80.460328
 51
85.700562
  0
ARC
  8
1
 62
7
  6
CONTINUOUS
 10
28.775091
 20
118.201501
 40
8.140623
 50
74.675046
 51
80.226954
  0
ARC
  8
1
 62
7
  6
CONTINUOUS
 10
27.898422
 20
115.002092
 40
11.457967
 50
70.700485
 51
74.675469
  0
ARC
  8
1
 62
7
  6
CONTINUOUS
 10
25.472826
 20
108.070269
 40
18.801922
 50
68.262288
 51
70.705743
  0
ARC
  8
1
 62
7
  6
CONTINUOUS
 10
14.857003
 20
81.435687
 40
47.474150
 50
67.293608
 51
68.266410
  0
ARC
  8
1
 62
7
  6
CONTINUOUS
 10
71.065178
 20
215.764606
 40
98.140470
 50
-112.706156
 51
-112.235776
  0
ARC
  8
1
 62
7
  6
CONTINUOUS
 10
47.299183
 20
157.631599
 40
35.337054
 50
-112.235776
 51
-110.847238
  0
ARC
  8
1
 62
7
  6
CONTINUOUS
 10
81.521072
 20
247.498098
 40
131.499028
 50
-110.847238
 51
-110.475783
  0
ARC
  8
1
 62
7
  6
CONTINUOUS
 10
65.471826
 20
204.517065
 40
85.619322
 50
-110.475783
 51
-109.906555
  0
ARC
  8
1
 62
7
  6
CONTINUOUS
 10
-72.567804
 20
-174.187024
 40
317.458736
 50
69.786937
 51
69.940435
  0
ARC
  8
1
 62
7
  6
CONTINUOUS
 10
7.422339
 20
43.068638
 40
85.945355
 50
69.218483
 51
69.786549
  0
ARC
  8
1
 62
7
  6
CONTINUOUS
 10
-21.099406
 20
-31.260987
 40
165.559037
 50
68.865780
 51
69.116884
  0
ARC
  8
1
 62
7
  6
CONTINUOUS
 10
65.590589
 20
193.002842
 40
74.876860
 50
-111.134125
 51
-110.578386
  0
ARC
  8
1
 62
7
  6
CONTINUOUS
 10
49.968118
 20
151.392275
 40
30.430252
 50
-110.578386
 51
-109.212862
  0
ARC
  8
1
 62
7
  6
CONTINUOUS
 10
46.176689
 20
140.512640
 40
18.908907
 50
-109.212862
 51
-107.022043
  0
ARC
  8
1
 62
7
  6
CONTINUOUS
 10
44.631322
 20
135.464919
 40
13.629926
 50
-107.022043
 51
-103.993008
  0
ARC
  8
1
 62
7
  6
CONTINUOUS
 10
44.335846
 20
134.279213
 40
12.407958
 50
-103.993008
 51
-99.243884
  0
ARC
  8
1
 62
7
  6
CONTINUOUS
 10
45.371729
 20
140.644054
 40
18.856544
 50
-99.243884
 51
-96.110323
  0
ARC
  8
1
 62
7
  6
CONTINUOUS
 10
45.681724
 20
143.539809
 40
21.768844
 50
-96.110323
 51
-93.381809
  0
ARC
  8
1
 62
7
  6
CONTINUOUS
 10
47.488324
 20
174.112299
 40
52.394665
 50
-93.381809
 51
-92.242680
  0
ARC
  8
1
 62
7
  6
CONTINUOUS
 10
48.443094
 20
198.492216
 40
76.793271
 50
-92.242680
 51
-91.463247
  0
ARC
  8
1
 62
7
  6
CONTINUOUS
 10
32.924263
 20
49.752834
 40
77.738541
 50
94.203127
 51
94.753513
  0
ARC
  8
1
 62
7
  6
CONTINUOUS
 10
29.101379
 20
101.786536
 40
25.564595
 50
92.539413
 51
94.205559
  0
ARC
  8
1
 62
7
  6
CONTINUOUS
 10
28.633329
 20
112.362988
 40
14.977791
 50
89.721855
 51
92.543299
  0
ARC
  8
1
 62
7
  6
CONTINUOUS
 10
28.656052
 20
116.929582
 40
10.411141
 50
85.702341
 51
89.724904
  0
ARC
  8
1
 62
7
  6
CONTINUOUS
 10
28.840955
 20
119.393350
 40
7.940444
 50
80.460328
 51
85.700562
  0
ARC
  8
1
 62
7
  6
CONTINUOUS
 10
28.775091
 20
119.201501
 40
8.140623
 50
74.675046
 51
80.226954
  0
ARC
  8
1
 62
7
  6
CONTINUOUS
 10
27.898422
 20
116.002092
 40
11.457967
 50
70.700485
 51
74.675469
  0
ARC
  8
1
 62
7
  6
CONTINUOUS
 10
25.472826
 20
109.070269
 40
18.801922
 50
68.262288
 51
70.705743
  0
ARC
  8
1
 62
7
  6
CONTINUOUS
 10
14.857003
 20
82.435687
 40
47.474150
 50
67.293608
 51
68.266410
  0
ARC
  8
1
 62
7
  6
CONTINUOUS
 10
71.065178
 20
216.764606
 40
98.140470
 50
-112.706156
 51
-112.235776
  0
ARC
  8
1
 62
7
  6
CONTINUOUS
 10
47.299183
 20
158.631599
 40
35.337054
 50
-112.235776
 51
-110.847238
  0
ARC
  8
1
 62
7
  6
CONTINUOUS
 10
81.521072
 20
248.498098
 40
131.499028
 50
-110.847238
 51
-110.475783
  0
ARC
  8
1
 62
7
  6
CONTINUOUS
 10
65.471826
 20
205.517065
 40
85.619322
 50
-110.475783
 51
-109.906555
  0
ARC
  8
1
 62
7
  6
CONTINUOUS
 10
-72.567804
 20
-173.187024
 40
317.458736
 50
69.786937
 51
69.940435
  0
ARC
  8
1
 62
7
  6
CONTINUOUS
 10
7.422339
 20
44.068638
 40
85.945355
 50
69.218483
 51
69.786549
  0
ARC
  8
1
 62
7
  6
CONTINUOUS
 10
-21.099406
 20
-30.260987
 40
165.559037
 50
68.865780
 51
69.116884
  0
ARC
  8
1
 62
7
  6
CONTINUOUS
 10
65.590589
 20
194.002842
 40
74.876860
 50
-111.134125
 51
-110.578386
  0
ARC
  8
1
 62
7
  6
CONTINUOUS
 10
49.968118
 20
152.392275
 40
30.430252
 50
-110.578386
 51
-109.212862
  0
ARC
  8
1
 62
7
  6
CONTINUOUS
 10
46.176689
 20
141.512640
 40
18.908907
 50
-109.212862
 51
-107.022043
  0
ARC
  8
1
 62
7
  6
CONTINUOUS
 10
44.631322
 20
136.464919
 40
13.629926
 50
-107.022043
 51
-103.993008
  0
ARC
  8
1
 62
7
  6
CONTINUOUS
 10
44.335846
 20
135.279213
 40
12.407958
 50
-103.993008
 51
-99.243884
  0
ARC
  8
1
 62
7
  6
CONTINUOUS
 10
45.371729
 20
141.644054
 40
18.856544
 50
-99.243884
 51
-96.110323
  0
ARC
  8
1
 62
7
  6
CONTINUOUS
 10
45.681724
 20
144.539809
 40
21.768844
 50
-96.110323
 51
-93.381809
  0
ARC
  8
1
 62
7
  6
CONTINUOUS
 10
47.488324
 20
175.112299
 40
52.394665
 50
-93.381809
 51
-92.242680
  0
ARC
  8
1
 62
7
  6
CONTINUOUS
 10
48.443094
 20
199.492216
 40
76.793271
 50
-92.242680
 51
-91.463247
  0
ARC
  8
1
 62
7
  6
CONTINUOUS
 10
6.722666
 20
-48.532654
 40
178.354571
 50
83.345280
 51
83.639286
  0
ARC
  8
1
 62
7
  6
CONTINUOUS
 10
20.520813
 20
69.729614
 40
59.290080
 50
82.461914
 51
83.345536
  0
ARC
  8
1
 62
7
  6
CONTINUOUS
 10
23.653136
 20
93.398720
 40
35.414610
 50
80.985130
 51
82.462264
  0
ARC
  8
1
 62
7
  6
CONTINUOUS
 10
25.255866
 20
103.500674
 40
25.186306
 50
78.911220
 51
80.985243
  0
ARC
  8
1
 62
7
  6
CONTINUOUS
 10
26.337065
 20
109.018429
 40
19.563619
 50
76.241603
 51
78.910589
  0
ARC
  8
1
 62
7
  6
CONTINUOUS
 10
26.635397
 20
110.317376
 40
18.231000
 50
74.177593
 51
76.181406
  0
ARC
  8
1
 62
7
  6
CONTINUOUS
 10
26.282938
 20
109.073292
 40
19.524048
 50
72.304805
 51
74.177892
  0
ARC
  8
1
 62
7
  6
CONTINUOUS
 10
25.849568
 20
107.714551
 40
20.950227
 50
70.558375
 51
72.305155
  0
ARC
  8
1
 62
7
  6
CONTINUOUS
 10
25.327528
 20
106.235122
 40
22.519060
 50
68.933483
 51
70.558753
  0
ARC
  8
1
 62
7
  6
CONTINUOUS
 10
24.707921
 20
104.626119
 40
24.243242
 50
67.425171
 51
68.933871
  0
ARC
  8
1
 62
7
  6
CONTINUOUS
 10
22.459803
 20
99.293941
 40
30.029906
 50
65.373201
 51
67.370037
  0
ARC
  8
1
 62
7
  6
CONTINUOUS
 10
14.394023
 20
81.699809
 40
49.384758
 50
64.158952
 51
65.372567
  0
ARC
  8
1
 62
7
  6
CONTINUOUS
 10
-25.273848
 20
-0.207231
 40
140.391917
 50
63.731796
 51
64.158937
  0
ARC
  8
1
 62
7
  6
CONTINUOUS
 10
111.058520
 20
276.027491
 40
167.653754
 50
-116.268006
 51
-115.909955
  0
ARC
  8
1
 62
7
  6
CONTINUOUS
 10
60.830676
 20
172.633051
 40
52.704867
 50
-115.909955
 51
-114.769321
  0
ARC
  8
1
 62
7
  6
CONTINUOUS
 10
52.509311
 20
154.598613
 40
32.843194
 50
-114.769321
 51
-113.234712
  0
ARC
  8
1
 62
7
  6
CONTINUOUS
 10
50.670513
 20
150.315544
 40
28.182094
 50
-113.234712
 51
-111.446280
  0
ARC
  8
1
 62
7
  6
CONTINUOUS
 10
48.306576
 20
144.297801
 40
21.716692
 50
-111.446280
 51
-109.128638
  0
ARC
  8
1
 62
7
  6
CONTINUOUS
 10
47.538158
 20
142.082322
 40
19.371737
 50
-109.128638
 51
-106.535859
  0
ARC
  8
1
 62
7
  6
CONTINUOUS
 10
46.591928
 20
138.895231
 40
16.047147
 50
-106.535859
 51
-100.806826
  0
ARC
  8
1
 62
7
  6
CONTINUOUS
 10
48.064827
 20
146.611441
 40
23.902675
 50
-100.806826
 51
-99.056145
  0
ARC
  8
1
 62
7
  6
CONTINUOUS
 10
48.645207
 20
150.252724
 40
27.589920
 50
-99.056145
 51
-97.536707
  0
ARC
  8
1
 62
7
  6
CONTINUOUS
 10
53.461104
 20
186.652876
 40
64.307273
 50
-97.536707
 51
-96.883756
  0
ARC
  8
1
 62
7
  6
CONTINUOUS
 10
57.458758
 20
219.766420
 40
97.661254
 50
-96.883756
 51
-96.453394
  0
ARC
  8
1
 62
7
  6
CONTINUOUS
 10
6.722666
 20
-47.532654
 40
178.354571
 50
83.345280
 51
83.639286
  0
ARC
  8
1
 62
7
  6
CONTINUOUS
 10
20.520813
 20
70.729614
 40
59.290080
 50
82.461914
 51
83.345536
  0
ARC
  8
1
 62
7
  6
CONTINUOUS
 10
23.653136
 20
94.398720
 40
35.414610
 50
80.985130
 51
82.462264
  0
ARC
  8
1
 62
7
  6
CONTINUOUS
 10
25.255866
 20
104.500674
 40
25.186306
 50
78.911220
 51
80.985243
  0
ARC
  8
1
 62
7
  6
CONTINUOUS
 10
26.337065
 20
110.018429
 40
19.563619
 50
76.241603
 51
78.910589
  0
ARC
  8
1
 62
7
  6
CONTINUOUS
 10
26.635397
 20
111.317376
 40
18.231000
 50
74.177593
 51
76.181406
  0
ARC
  8
1
 62
7
  6
CONTINUOUS
 10
26.282938
 20
110.073292
 40
19.524048
 50
72.304805
 51
74.177892
  0
ARC
  8
1
 62
7
  6
CONTINUOUS
 10
25.849568
 20
108.714551
 40
20.950227
 50
70.558375
 51
72.305155
  0
ARC
  8
1
 62
7
  6
CONTINUOUS
 10
25.327528
 20
107.235122
 40
22.519060
 50
68.933483
 51
70.558753
  0
ARC
  8
1
 62
7
  6
CONTINUOUS
 10
24.707921
 20
105.626119
 40
24.243242
 50
67.425171
 51
68.933871
  0
ARC
  8
1
 62
7
  6
CONTINUOUS
 10
22.459803
 20
100.293941
 40
30.029906
 50
65.373201
 51
67.370037
  0
ARC
  8
1
 62
7
  6
CONTINUOUS
 10
14.394023
 20
82.699809
 40
49.384758
 50
64.158952
 51
65.372567
  0
ARC
  8
1
 62
7
  6
CONTINUOUS
 10
-25.273848
 20
0.792769
 40
140.391917
 50
63.731796
 51
64.158937
  0
ARC
  8
1
 62
7
  6
CONTINUOUS
 10
111.058520
 20
277.027491
 40
167.653754
 50
-116.268006
 51
-115.909955
  0
ARC
  8
1
 62
7
  6
CONTINUOUS
 10
60.830676
 20
173.633051
 40
52.704867
 50
-115.909955
 51
-114.769321
  0
ARC
  8
1
 62
7
  6
CONTINUOUS
 10
52.509311
 20
155.598613
 40
32.843194
 50
-114.769321
 51
-113.234712
  0
ARC
  8
1
 62
7
  6
CONTINUOUS
 10
50.670513
 20
151.315544
 40
28.182094
 50
-113.234712
 51
-111.446280
  0
ARC
  8
1
 62
7
  6
CONTINUOUS
 10
48.306576
 20
145.297801
 40
21.716692
 50
-111.446280
 51
-109.128638
  0
ARC
  8
1
 62
7
  6
CONTINUOUS
 10
47.538158
 20
143.082322
 40
19.371737
 50
-109.128638
 51
-106.535859
  0
ARC
  8
1
 62
7
  6
CONTINUOUS
 10
46.591928
 20
139.895231
 40
16.047147
 50
-106.535859
 51
-100.806826
  0
ARC
  8
1
 62
7
  6
CONTINUOUS
 10
48.064827
 20
147.611441
 40
23.902675
 50
-100.806826
 51
-99.056145
  0
ARC
  8
1
 62
7
  6
CONTINUOUS
 10
48.645207
 20
151.252724
 40
27.589920
 50
-99.056145
 51
-97.536707
  0
ARC
  8
1
 62
7
  6
CONTINUOUS
 10
53.461104
 20
187.652876
 40
64.307273
 50
-97.536707
 51
-96.883756
  0
ARC
  8
1
 62
7
  6
CONTINUOUS
 10
57.458758
 20
220.766420
 40
97.661254
 50
-96.883756
 51
-96.453394
  0
ARC
  8
1
 62
7
  6
CONTINUOUS
 10
92.726599
 20
103.959156
 40
37.556537
 50
148.246308
 51
149.713446
  0
ARC
  8
1
 62
7
  6
CONTINUOUS
 10
70.201175
 20
117.114861
 40
11.470769
 50
149.713446
 51
154.341597
  0
ARC
  8
1
 62
7
  6
CONTINUOUS
 10
64.849573
 20
119.685630
 40
5.533724
 50
154.341597
 51
163.300836
  0
ARC
  8
1
 62
7
  6
CONTINUOUS
 10
62.517903
 20
120.385127
 40
3.099391
 50
163.300836
 51
178.101784
  0
ARC
  8
1
 62
7
  6
CONTINUOUS
 10
61.540954
 20
120.417505
 40
2.121905
 50
178.101784
 51
-160.923053
  0
ARC
  8
1
 62
7
  6
CONTINUOUS
 10
62.103998
 20
120.612223
 40
2.717668
 50
-160.923053
 51
-146.701079
  0
ARC
  8
1
 62
7
  6
CONTINUOUS
 10
74.392139
 20
128.683692
 40
17.419608
 50
-146.701079
 51
-144.335610
  0
ARC
  8
1
 62
7
  6
CONTINUOUS
 10
43.981450
 20
106.421140
 40
20.270450
 50
34.617007
 51
36.672351
  0
ARC
  8
1
 62
7
  6
CONTINUOUS
 10
57.184181
 20
115.519899
 40
4.236150
 50
25.422459
 51
34.783758
  0
ARC
  8
1
 62
7
  6
CONTINUOUS
 10
59.282097
 20
116.510411
 40
1.916174
 50
6.399433
 51
25.602296
  0
ARC
  8
1
 62
7
  6
CONTINUOUS
 10
59.496709
 20
116.572139
 40
1.696433
 50
-8.018716
 51
5.135406
  0
ARC
  8
1
 62
7
  6
CONTINUOUS
 10
58.715897
 20
116.682516
 40
2.485008
 50
-17.401663
 51
-8.027397
  0
ARC
  8
1
 62
7
  6
CONTINUOUS
 10
57.185548
 20
117.158020
 40
4.087525
 50
-23.358124
 51
-17.346470
  0
ARC
  8
1
 62
7
  6
CONTINUOUS
 10
53.820345
 20
118.604167
 40
7.750298
 50
-26.618547
 51
-23.309345
  0
ARC
  8
1
 62
7
  6
CONTINUOUS
 10
38.468493
 20
126.285867
 40
24.916773
 50
-27.646816
 51
-26.593567
  0
ARC
  8
1
 62
7
  6
CONTINUOUS
 10
88.218299
 20
102.070926
 40
34.272121
 50
140.817092
 51
142.102806
  0
ARC
  8
1
 62
7
  6
CONTINUOUS
 10
69.462674
 20
116.670307
 40
10.504171
 50
142.102806
 51
146.150230
  0
ARC
  8
1
 62
7
  6
CONTINUOUS
 10
64.964726
 20
119.687082
 40
5.088225
 50
146.150230
 51
153.958451
  0
ARC
  8
1
 62
7
  6
CONTINUOUS
 10
62.912691
 20
120.689769
 40
2.804319
 50
153.958451
 51
166.977148
  0
ARC
  8
1
 62
7
  6
CONTINUOUS
 10
61.914134
 20
120.920724
 40
1.779401
 50
166.977148
 51
-173.652184
  0
ARC
  8
1
 62
7
  6
CONTINUOUS
 10
62.161759
 20
120.948271
 40
2.028554
 50
-173.652184
 51
-149.939570
  0
ARC
  8
1
 62
7
  6
CONTINUOUS
 10
74.151512
 20
127.887430
 40
15.881571
 50
-149.939570
 51
-146.578454
  0
ARC
  8
1
 62
7
  6
CONTINUOUS
 10
75.772814
 20
128.957356
 40
17.824086
 50
-146.578454
 51
-143.453946
  0
ARC
  8
1
 62
7
  6
CONTINUOUS
 10
56.972887
 20
115.235112
 40
5.453208
 50
24.998328
 51
34.753170
  0
ARC
  8
1
 62
7
  6
CONTINUOUS
 10
59.973694
 20
116.620327
 40
2.148173
 50
2.765860
 51
25.336195
  0
ARC
  8
1
 62
7
  6
CONTINUOUS
 10
60.283532
 20
116.686572
 40
1.836214
 50
-11.254928
 51
1.167548
  0
ARC
  8
1
 62
7
  6
CONTINUOUS
 10
59.468042
 20
116.849100
 40
2.667742
 50
-20.162093
 51
-11.260075
  0
ARC
  8
1
 62
7
  6
CONTINUOUS
 10
57.901774
 20
117.420313
 40
4.334916
 50
-25.869502
 51
-20.113890
  0
ARC
  8
1
 62
7
  6
CONTINUOUS
 10
54.474806
 20
119.075308
 40
8.140584
 50
-29.015186
 51
-25.826455
  0
ARC
  8
1
 62
7
  6
CONTINUOUS
 10
38.816495
 20
127.748679
 40
26.040584
 50
-30.011180
 51
-28.992868
  0
ARC
  8
1
 62
7
  6
CONTINUOUS
 10
126.835810
 20
105.875758
 40
4.000000
 50
90.000000
 51
180.000000
  0
ARC
  8
1
 62
7
  6
CONTINUOUS
 10
179.835810
 20
105.875758
 40
4.000000
 50
0.000000
 51
90.000000
  0
ARC
  8
1
 62
7
  6
CONTINUOUS
 10
279.314422
 20
76.375758
 40
0.500000
 50
0.000000
 51
90.000000
  0
ARC
  8
1
 62
7
  6
CONTINUOUS
 10
279.314422
 20
59.878284
 40
0.500000
 50
90.000000
 51
180.000000
  0
ARC
  8
1
 62
7
  6
CONTINUOUS
 10
279.314422
 20
49.375758
 40
0.500000
 50
180.000000
 51
-90.000000
  0
ARC
  8
1
 62
7
  6
CONTINUOUS
 10
276.314422
 20
77.375758
 40
0.500000
 50
180.000000
 51
-90.000000
  0
ARC
  8
1
 62
7
  6
CONTINUOUS
 10
276.314422
 20
101.375548
 40
0.500000
 50
89.975885
 51
180.000000
  0
ARC
  8
1
 62
7
  6
CONTINUOUS
 10
279.314422
 20
98.873233
 40
0.500000
 50
180.000000
 51
-90.000000
  0
ARC
  8
1
 62
7
  6
CONTINUOUS
 10
336.314422
 20
49.525758
 40
0.500000
 50
-85.437026
 51
0.000000
  0
ARC
  8
1
 62
7
  6
CONTINUOUS
 10
336.314422
 20
109.225758
 40
0.500000
 50
0.000000
 51
90.000000
  0
ARC
  8
1
 62
7
  6
CONTINUOUS
 10
336.314422
 20
49.525758
 40
0.500000
 50
-90.000000
 51
-85.437026
  0
ARC
  8
1
 62
7
  6
CONTINUOUS
 10
279.314422
 20
109.375758
 40
0.500000
 50
90.000000
 51
180.000000
  0
ARC
  8
1
 62
7
  6
CONTINUOUS
 10
338.414422
 20
105.624496
 40
2.000000
 50
0.000000
 51
90.000000
  0
ARC
  8
1
 62
7
  6
CONTINUOUS
 10
338.414422
 20
102.624496
 40
2.000000
 50
-90.000000
 51
0.000000
  0
ARC
  8
1
 62
7
  6
CONTINUOUS
 10
101.311176
 20
71.947731
 40
2.000000
 50
-90.000000
 51
0.000000
  0
ARC
  8
1
 62
7
  6
CONTINUOUS
 10
101.311176
 20
74.947731
 40
2.000000
 50
0.000000
 51
90.000000
  0
LINE
  8
1
 62
7
  6
CONTINUOUS
 10
353.492535
 20
24.744705
 11
373.954848
 21
24.744705
  0
LINE
  8
1
 62
7
  6
CONTINUOUS
 10
373.954848
 20
24.744705
 11
360.453816
 21
58.493142
  0
CIRCLE
  8
1
 62
7
  6
CONTINUOUS
 10
360.453816
 20
58.493142
 40
0.875000
  0
LINE
  8
1
 62
7
  6
CONTINUOUS
 10
302.760932
 20
127.887817
 11
341.358479
 21
110.655279
  0
LINE
  8
1
 62
7
  6
CONTINUOUS
 10
337.974690
 20
111.661407
 11
338.350395
 21
112.502913
  0
LINE
  8
1
 62
7
  6
CONTINUOUS
 10
338.350395
 20
112.502913
 11
341.358479
 21
110.655279
  0
LINE
  8
1
 62
7
  6
CONTINUOUS
 10
341.358479
 20
110.655279
 11
337.974690
 21
111.661407
  0
LINE
  8
1
 62
7
  6
CONTINUOUS
 10
326.431244
 20
127.887817
 11
302.760932
 21
127.887817
  0
LINE
  8
1
 62
7
  6
CONTINUOUS
 10
302.760932
 20
127.887817
 11
307.959498
 21
111.131246
  0
LINE
  8
1
 62
7
  6
CONTINUOUS
 10
306.482328
 20
114.337535
 11
307.362510
 21
114.610603
  0
LINE
  8
1
 62
7
  6
CONTINUOUS
 10
307.362510
 20
114.610603
 11
307.959498
 21
111.131246
  0
LINE
  8
1
 62
7
  6
CONTINUOUS
 10
307.959498
 20
111.131246
 11
306.482328
 21
114.337535
  0
LINE
  8
1
 62
7
  6
CONTINUOUS
 10
293.103945
 20
12.415432
 11
276.054261
 21
12.415432
  0
LINE
  8
1
 62
7
  6
CONTINUOUS
 10
276.054261
 20
12.415432
 11
296.126975
 21
58.493142
  0
CIRCLE
  8
1
 62
7
  6
CONTINUOUS
 10
296.126975
 20
58.493142
 40
0.875000
  0
LINE
  8
1
 62
7
  6
CONTINUOUS
 10
220.937323
 20
42.117623
 11
268.442061
 21
42.117623
  0
LINE
  8
1
 62
7
  6
CONTINUOUS
 10
268.442061
 20
42.117623
 11
274.603841
 21
52.627021
  0
LINE
  8
1
 62
7
  6
CONTINUOUS
 10
273.348751
 20
49.653431
 11
272.621896
 21
50.079595
  0
LINE
  8
1
 62
7
  6
CONTINUOUS
 10
272.621896
 20
50.079595
 11
274.603841
 21
52.627021
  0
LINE
  8
1
 62
7
  6
CONTINUOUS
 10
274.603841
 20
52.627021
 11
273.348751
 21
49.653431
  0
LINE
  8
1
 62
7
  6
CONTINUOUS
 10
17.094159
 20
140.620419
 11
22.737045
 21
130.723986
  0
LINE
  8
1
 62
7
  6
CONTINUOUS
 10
20.603105
 20
133.536213
 11
21.403675
 21
133.992693
  0
LINE
  8
1
 62
7
  6
CONTINUOUS
 10
21.403675
 20
133.992693
 11
22.737045
 21
130.723986
  0
LINE
  8
1
 62
7
  6
CONTINUOUS
 10
22.737045
 20
130.723986
 11
20.603105
 21
133.536213
  0
LINE
  8
1
 62
7
  6
CONTINUOUS
 10
108.761077
 20
144.662403
 11
102.949461
 21
133.223986
  0
LINE
  8
1
 62
7
  6
CONTINUOUS
 10
104.124041
 20
136.553053
 11
104.945644
 21
136.135614
  0
LINE
  8
1
 62
7
  6
CONTINUOUS
 10
104.945644
 20
136.135614
 11
102.949461
 21
133.223986
  0
LINE
  8
1
 62
7
  6
CONTINUOUS
 10
102.949461
 20
133.223986
 11
104.124041
 21
136.553053
  0
TEXT
  8
1
 62
7
  6
CONTINUOUS
 10
354.537783
 20
26.501251
 40
3.200000
 41
0.900000
  1
モータ部
  7
KANJI
 50
0.000000
 51
0.000000
  0
TEXT
  8
1
 62
7
  6
CONTINUOUS
 10
249.468404
 20
46.189735
 40
1.800000
 41
0.900000
  1
 0
  7
KANJI
 50
0.000000
 51
0.000000
  0
TEXT
  8
1
 62
7
  6
CONTINUOUS
 10
249.468404
 20
43.489735
 40
1.800000
 41
0.900000
  1
-1
  7
KANJI
 50
0.000000
 51
0.000000
  0
TEXT
  8
1
 62
7
  6
CONTINUOUS
 10
303.259760
 20
130.154490
 40
3.200000
 41
0.900000
  1
ネームプレート
  7
KANJI
 50
0.000000
 51
0.000000
  0
TEXT
  8
1
 62
7
  6
CONTINUOUS
 10
312.266078
 20
33.955863
 40
3.200000
 41
0.900000
  1
（取付部長め）
  7
KANJI
 50
0.000000
 51
0.000000
  0
TEXT
  8
1
 62
7
  6
CONTINUOUS
 10
280.581533
 20
14.492341
 40
3.200000
 41
0.900000
  1
減速機部
  7
KANJI
 50
0.000000
 51
0.000000
  0
TEXT
  8
1
 62
7
  6
CONTINUOUS
 10
222.404032
 20
43.716533
 40
3.200000
 41
0.900000
  1
ボルトＭ４×７０　　
  7
KANJI
 50
0.000000
 51
0.000000
  0
TEXT
  8
1
 62
7
  6
CONTINUOUS
 10
328.547739
 20
68.965980
 40
3.500000
 41
0.900000
  1
仮止ｃVール
  7
KANJI
 50
90.000000
 51
0.000000
  0
TEXT
  8
1
 62
7
  6
CONTINUOUS
 10
110.860811
 20
134.085705
 40
3.200000
 41
0.900000
  1
1
  7
KANJI
 50
90.000000
 51
0.000000
  0
TEXT
  8
1
 62
7
  6
CONTINUOUS
 10
110.915906
 20
102.178787
 40
3.200000
 41
0.900000
  1
11
  7
KANJI
 50
90.000000
 51
0.000000
  0
TEXT
  8
1
 62
7
  6
CONTINUOUS
 10
15.604393
 20
104.412771
 40
3.200000
 41
0.900000
  1
9
  7
KANJI
 50
90.000000
 51
0.000000
  0
TEXT
  8
1
 62
7
  6
CONTINUOUS
 10
15.045834
 20
132.799641
 40
3.200000
 41
0.900000
  1
1
  7
KANJI
 50
90.000000
 51
0.000000
  0
TEXT
  8
1
 62
7
  6
CONTINUOUS
 10
110.020174
 20
145.028872
 40
3.200000
 41
0.900000
  1
2
  7
KANJI
 50
0.000000
 51
0.000000
  0
TEXT
  8
1
 62
7
  6
CONTINUOUS
 10
15.129671
 20
141.949872
 40
3.200000
 41
0.900000
  1
3
  7
KANJI
 50
0.000000
 51
0.000000
  0
LINE
  8
1
 62
7
  6
CONTINUOUS
 10
173.708880
 20
79.375758
 11
173.708880
 21
89.375758
  0
LINE
  8
1
 62
7
  6
CONTINUOUS
 10
160.440887
 20
89.375758
 11
175.208880
 21
89.375758
  0
LINE
  8
1
 62
7
  6
CONTINUOUS
 10
122.198408
 20
79.375758
 11
175.208880
 21
79.375758
  0
LINE
  8
1
 62
7
  6
CONTINUOUS
 10
173.708880
 20
89.375758
 11
174.124880
 21
86.175758
  0
LINE
  8
1
 62
7
  6
CONTINUOUS
 10
174.124880
 20
86.175758
 11
173.292880
 21
86.175758
  0
LINE
  8
1
 62
7
  6
CONTINUOUS
 10
173.292880
 20
86.175758
 11
173.708880
 21
89.375758
  0
LINE
  8
1
 62
7
  6
CONTINUOUS
 10
173.708880
 20
79.375758
 11
173.292880
 21
82.575758
  0
LINE
  8
1
 62
7
  6
CONTINUOUS
 10
173.292880
 20
82.575758
 11
174.124880
 21
82.575758
  0
LINE
  8
1
 62
7
  6
CONTINUOUS
 10
174.124880
 20
82.575758
 11
173.708880
 21
79.375758
  0
TEXT
  8
1
 62
7
  6
CONTINUOUS
 10
171.708880
 20
82.565547
 40
3.200000
 41
0.900000
  1
10
  7
KANJI
 50
90.000000
 51
0.000000
  0
LINE
  8
1
 62
7
  6
CONTINUOUS
 10
278.814422
 20
31.787371
 11
336.814422
 21
31.787371
  0
LINE
  8
1
 62
7
  6
CONTINUOUS
 10
278.814422
 20
48.375758
 11
278.814422
 21
30.787371
  0
LINE
  8
1
 62
7
  6
CONTINUOUS
 10
278.814422
 20
31.787371
 11
282.014422
 21
32.203371
  0
LINE
  8
1
 62
7
  6
CONTINUOUS
 10
282.014422
 20
32.203371
 11
282.014422
 21
31.371371
  0
LINE
  8
1
 62
7
  6
CONTINUOUS
 10
282.014422
 20
31.371371
 11
278.814422
 21
31.787371
  0
LINE
  8
1
 62
7
  6
CONTINUOUS
 10
333.614422
 20
32.203371
 11
336.814422
 21
31.787371
  0
TEXT
  8
1
 62
7
  6
CONTINUOUS
 10
299.343839
 20
33.787371
 40
3.200000
 41
0.900000
  1
58
  7
KANJI
 50
0.000000
 51
0.000000
  0
LINE
  8
1
 62
7
  6
CONTINUOUS
 10
237.476529
 20
92.375758
 11
237.476529
 21
85.975758
  0
LINE
  8
1
 62
7
  6
CONTINUOUS
 10
237.476529
 20
92.375758
 11
237.476529
 21
93.375758
  0
LINE
  8
1
 62
7
  6
CONTINUOUS
 10
237.476529
 20
99.775758
 11
237.476529
 21
93.375758
  0
LINE
  8
1
 62
7
  6
CONTINUOUS
 10
264.199587
 20
93.375758
 11
236.476529
 21
93.375758
  0
LINE
  8
1
 62
7
  6
CONTINUOUS
 10
246.314422
 20
92.375758
 11
236.476529
 21
92.375758
  0
LINE
  8
1
 62
7
  6
CONTINUOUS
 10
237.476529
 20
93.375758
 11
237.060529
 21
96.575758
  0
LINE
  8
1
 62
7
  6
CONTINUOUS
 10
237.060529
 20
96.575758
 11
237.892529
 21
96.575758
  0
LINE
  8
1
 62
7
  6
CONTINUOUS
 10
237.892529
 20
96.575758
 11
237.476529
 21
93.375758
  0
LINE
  8
1
 62
7
  6
CONTINUOUS
 10
237.476529
 20
92.375758
 11
237.892529
 21
89.175758
  0
LINE
  8
1
 62
7
  6
CONTINUOUS
 10
237.892529
 20
89.175758
 11
237.060529
 21
89.175758
  0
LINE
  8
1
 62
7
  6
CONTINUOUS
 10
237.060529
 20
89.175758
 11
237.476529
 21
92.375758
  0
TEXT
  8
1
 62
7
  6
CONTINUOUS
 10
235.476529
 20
89.482745
 40
3.200000
 41
0.900000
  1
1
  7
KANJI
 50
90.000000
 51
0.000000
  0
LINE
  8
1
 62
7
  6
CONTINUOUS
 10
229.012644
 20
93.375758
 11
229.012644
 21
99.775758
  0
LINE
  8
1
 62
7
  6
CONTINUOUS
 10
229.012644
 20
85.375758
 11
229.012644
 21
78.975758
  0
LINE
  8
1
 62
7
  6
CONTINUOUS
 10
229.012644
 20
85.375758
 11
229.012644
 21
93.375758
  0
LINE
  8
1
 62
7
  6
CONTINUOUS
 10
264.199587
 20
93.375758
 11
228.012644
 21
93.375758
  0
LINE
  8
1
 62
7
  6
CONTINUOUS
 10
246.314422
 20
85.375758
 11
228.012644
 21
85.375758
  0
LINE
  8
1
 62
7
  6
CONTINUOUS
 10
229.012644
 20
93.375758
 11
228.596644
 21
96.575758
  0
LINE
  8
1
 62
7
  6
CONTINUOUS
 10
228.596644
 20
96.575758
 11
229.428644
 21
96.575758
  0
LINE
  8
1
 62
7
  6
CONTINUOUS
 10
229.428644
 20
96.575758
 11
229.012644
 21
93.375758
  0
LINE
  8
1
 62
7
  6
CONTINUOUS
 10
229.012644
 20
85.375758
 11
229.428644
 21
82.175758
  0
LINE
  8
1
 62
7
  6
CONTINUOUS
 10
229.428644
 20
82.175758
 11
228.596644
 21
82.175758
  0
LINE
  8
1
 62
7
  6
CONTINUOUS
 10
228.596644
 20
82.175758
 11
229.012644
 21
85.375758
  0
TEXT
  8
1
 62
7
  6
CONTINUOUS
 10
225.812644
 20
85.990747
 40
3.200000
 41
0.900000
  1
8
  7
KANJI
 50
90.000000
 51
0.000000
  0
TEXT
  8
1
 62
7
  6
CONTINUOUS
 10
223.652644
 20
89.510747
 40
2.240000
 41
0.900000
  1
 0
  7
KANJI
 50
90.000000
 51
0.000000
  0
TEXT
  8
1
 62
7
  6
CONTINUOUS
 10
227.012644
 20
89.510747
 40
2.240000
 41
0.900000
  1
-0.02
  7
KANJI
 50
90.000000
 51
0.000000
  0
TEXT
  8
1
 62
7
  6
CONTINUOUS
 10
225.812644
 20
82.150747
 40
3.200000
 41
0.900000
  1
φ
  7
KANJI
 50
90.000000
 51
0.000000
  0
LINE
  8
1
 62
7
  6
CONTINUOUS
 10
217.972794
 20
76.875758
 11
217.972794
 21
101.875758
  0
LINE
  8
1
 62
7
  6
CONTINUOUS
 10
275.314422
 20
101.875758
 11
216.972794
 21
101.875758
  0
LINE
  8
1
 62
7
  6
CONTINUOUS
 10
275.314422
 20
76.875758
 11
216.972794
 21
76.875758
  0
LINE
  8
1
 62
7
  6
CONTINUOUS
 10
217.972794
 20
101.875758
 11
218.388794
 21
98.675758
  0
LINE
  8
1
 62
7
  6
CONTINUOUS
 10
218.388794
 20
98.675758
 11
217.556794
 21
98.675758
  0
LINE
  8
1
 62
7
  6
CONTINUOUS
 10
217.556794
 20
98.675758
 11
217.972794
 21
101.875758
  0
LINE
  8
1
 62
7
  6
CONTINUOUS
 10
217.972794
 20
76.875758
 11
217.556794
 21
80.075758
  0
LINE
  8
1
 62
7
  6
CONTINUOUS
 10
217.556794
 20
80.075758
 11
218.388794
 21
80.075758
  0
LINE
  8
1
 62
7
  6
CONTINUOUS
 10
218.388794
 20
80.075758
 11
217.972794
 21
76.875758
  0
TEXT
  8
1
 62
7
  6
CONTINUOUS
 10
215.972794
 20
88.562757
 40
3.200000
 41
0.900000
  1
25
  7
KANJI
 50
90.000000
 51
0.000000
  0
TEXT
  8
1
 62
7
  6
CONTINUOUS
 10
215.972794
 20
84.722757
 40
3.200000
 41
0.900000
  1
φ
  7
KANJI
 50
90.000000
 51
0.000000
  0
LINE
  8
1
 62
7
  6
CONTINUOUS
 10
246.814422
 20
143.334097
 11
259.814422
 21
143.334097
  0
LINE
  8
1
 62
7
  6
CONTINUOUS
 10
259.814422
 20
93.375758
 11
259.814422
 21
144.334097
  0
LINE
  8
1
 62
7
  6
CONTINUOUS
 10
246.814422
 20
93.375758
 11
246.814422
 21
144.334097
  0
LINE
  8
1
 62
7
  6
CONTINUOUS
 10
246.814422
 20
143.334097
 11
250.014422
 21
143.750097
  0
LINE
  8
1
 62
7
  6
CONTINUOUS
 10
250.014422
 20
143.750097
 11
250.014422
 21
142.918097
  0
LINE
  8
1
 62
7
  6
CONTINUOUS
 10
250.014422
 20
142.918097
 11
246.814422
 21
143.334097
  0
LINE
  8
1
 62
7
  6
CONTINUOUS
 10
259.814422
 20
143.334097
 11
256.614422
 21
142.918097
  0
LINE
  8
1
 62
7
  6
CONTINUOUS
 10
256.614422
 20
142.918097
 11
256.614422
 21
143.750097
  0
LINE
  8
1
 62
7
  6
CONTINUOUS
 10
256.614422
 20
143.750097
 11
259.814422
 21
143.334097
  0
TEXT
  8
1
 62
7
  6
CONTINUOUS
 10
253.786154
 20
145.334097
 40
3.200000
 41
0.900000
  1
13
  7
KANJI
 50
0.000000
 51
0.000000
  0
LINE
  8
1
 62
7
  6
CONTINUOUS
 10
246.814422
 20
157.396879
 11
278.814422
 21
157.396879
  0
LINE
  8
1
 62
7
  6
CONTINUOUS
 10
278.814422
 20
110.375758
 11
278.814422
 21
158.396879
  0
LINE
  8
1
 62
7
  6
CONTINUOUS
 10
246.814422
 20
93.375758
 11
246.814422
 21
158.396879
  0
LINE
  8
1
 62
7
  6
CONTINUOUS
 10
246.814422
 20
157.396879
 11
250.014422
 21
157.812879
  0
LINE
  8
1
 62
7
  6
CONTINUOUS
 10
250.014422
 20
157.812879
 11
250.014422
 21
156.980879
  0
LINE
  8
1
 62
7
  6
CONTINUOUS
 10
250.014422
 20
156.980879
 11
246.814422
 21
157.396879
  0
LINE
  8
1
 62
7
  6
CONTINUOUS
 10
278.814422
 20
157.396879
 11
275.614422
 21
156.980879
  0
LINE
  8
1
 62
7
  6
CONTINUOUS
 10
275.614422
 20
156.980879
 11
275.614422
 21
157.812879
  0
LINE
  8
1
 62
7
  6
CONTINUOUS
 10
275.614422
 20
157.812879
 11
278.814422
 21
157.396879
  0
TEXT
  8
1
 62
7
  6
CONTINUOUS
 10
259.154426
 20
159.396879
 40
3.200000
 41
0.900000
  1
32
  7
KANJI
 50
0.000000
 51
0.000000
  0
LINE
  8
1
 62
7
  6
CONTINUOUS
 10
278.814422
 20
157.396879
 11
365.814422
 21
157.396879
  0
LINE
  8
1
 62
7
  6
CONTINUOUS
 10
278.814422
 20
110.375758
 11
278.814422
 21
158.396879
  0
LINE
  8
1
 62
7
  6
CONTINUOUS
 10
365.814422
 20
107.125758
 11
365.814422
 21
158.396879
  0
LINE
  8
1
 62
7
  6
CONTINUOUS
 10
278.814422
 20
157.396879
 11
282.014422
 21
157.812879
  0
LINE
  8
1
 62
7
  6
CONTINUOUS
 10
282.014422
 20
157.812879
 11
282.014422
 21
156.980879
  0
LINE
  8
1
 62
7
  6
CONTINUOUS
 10
282.014422
 20
156.980879
 11
278.814422
 21
157.396879
  0
LINE
  8
1
 62
7
  6
CONTINUOUS
 10
365.814422
 20
157.396879
 11
362.614422
 21
156.980879
  0
LINE
  8
1
 62
7
  6
CONTINUOUS
 10
362.614422
 20
156.980879
 11
362.614422
 21
157.812879
  0
LINE
  8
1
 62
7
  6
CONTINUOUS
 10
362.614422
 20
157.812879
 11
365.814422
 21
157.396879
  0
TEXT
  8
1
 62
7
  6
CONTINUOUS
 10
322.988467
 20
159.396879
 40
3.200000
 41
0.900000
  1
87
  7
KANJI
 50
0.000000
 51
0.000000
  0
LINE
  8
1
 62
7
  6
CONTINUOUS
 10
328.814422
 20
145.691182
 11
365.814422
 21
145.691182
  0
LINE
  8
1
 62
7
  6
CONTINUOUS
 10
328.814422
 20
110.875758
 11
328.814422
 21
146.691182
  0
LINE
  8
1
 62
7
  6
CONTINUOUS
 10
365.814422
 20
107.125758
 11
365.814422
 21
146.691182
  0
LINE
  8
1
 62
7
  6
CONTINUOUS
 10
328.814422
 20
145.691182
 11
332.014422
 21
146.107182
  0
LINE
  8
1
 62
7
  6
CONTINUOUS
 10
332.014422
 20
146.107182
 11
332.014422
 21
145.275182
  0
LINE
  8
1
 62
7
  6
CONTINUOUS
 10
332.014422
 20
145.275182
 11
328.814422
 21
145.691182
  0
LINE
  8
1
 62
7
  6
CONTINUOUS
 10
365.814422
 20
145.691182
 11
362.614422
 21
145.275182
  0
LINE
  8
1
 62
7
  6
CONTINUOUS
 10
362.614422
 20
145.275182
 11
362.614422
 21
146.107182
  0
LINE
  8
1
 62
7
  6
CONTINUOUS
 10
362.614422
 20
146.107182
 11
365.814422
 21
145.691182
  0
TEXT
  8
1
 62
7
  6
CONTINUOUS
 10
345.606336
 20
147.691182
 40
3.200000
 41
0.900000
  1
37
  7
KANJI
 50
0.000000
 51
0.000000
  0
LINE
  8
1
 62
7
  6
CONTINUOUS
 10
198.835810
 20
48.875758
 11
198.835810
 21
109.875758
  0
LINE
  8
1
 62
7
  6
CONTINUOUS
 10
180.835810
 20
109.875758
 11
199.835810
 21
109.875758
  0
LINE
  8
1
 62
7
  6
CONTINUOUS
 10
180.835810
 20
48.875758
 11
199.835810
 21
48.875758
  0
LINE
  8
1
 62
7
  6
CONTINUOUS
 10
198.835810
 20
109.875758
 11
199.251810
 21
106.675758
  0
LINE
  8
1
 62
7
  6
CONTINUOUS
 10
199.251810
 20
106.675758
 11
198.419810
 21
106.675758
  0
LINE
  8
1
 62
7
  6
CONTINUOUS
 10
198.419810
 20
106.675758
 11
198.835810
 21
109.875758
  0
LINE
  8
1
 62
7
  6
CONTINUOUS
 10
198.835810
 20
48.875758
 11
198.419810
 21
52.075758
  0
LINE
  8
1
 62
7
  6
CONTINUOUS
 10
198.419810
 20
52.075758
 11
199.251810
 21
52.075758
  0
LINE
  8
1
 62
7
  6
CONTINUOUS
 10
199.251810
 20
52.075758
 11
198.835810
 21
48.875758
  0
TEXT
  8
1
 62
7
  6
CONTINUOUS
 10
196.835810
 20
77.455758
 40
3.200000
 41
0.900000
  1
61
  7
KANJI
 50
90.000000
 51
0.000000
  0
LINE
  8
1
 62
7
  6
CONTINUOUS
 10
122.835810
 20
124.875758
 11
183.835810
 21
124.875758
  0
LINE
  8
1
 62
7
  6
CONTINUOUS
 10
183.835810
 20
106.875758
 11
183.835810
 21
125.875758
  0
LINE
  8
1
 62
7
  6
CONTINUOUS
 10
122.835810
 20
106.875758
 11
122.835810
 21
125.875758
  0
LINE
  8
1
 62
7
  6
CONTINUOUS
 10
122.835810
 20
124.875758
 11
126.035810
 21
125.291758
  0
LINE
  8
1
 62
7
  6
CONTINUOUS
 10
126.035810
 20
125.291758
 11
126.035810
 21
124.459758
  0
LINE
  8
1
 62
7
  6
CONTINUOUS
 10
126.035810
 20
124.459758
 11
122.835810
 21
124.875758
  0
LINE
  8
1
 62
7
  6
CONTINUOUS
 10
183.835810
 20
124.875758
 11
180.635810
 21
124.459758
  0
LINE
  8
1
 62
7
  6
CONTINUOUS
 10
180.635810
 20
124.459758
 11
180.635810
 21
125.291758
  0
LINE
  8
1
 62
7
  6
CONTINUOUS
 10
180.635810
 20
125.291758
 11
183.835810
 21
124.875758
  0
TEXT
  8
1
 62
7
  6
CONTINUOUS
 10
151.415810
 20
126.875758
 40
3.200000
 41
0.900000
  1
61
  7
KANJI
 50
0.000000
 51
0.000000
  0
LINE
  8
1
 62
7
  6
CONTINUOUS
 10
26.482124
 20
142.860683
 11
97.177440
 21
142.860683
  0
LINE
  8
1
 62
7
  6
CONTINUOUS
 10
26.482124
 20
131.723986
 11
26.482124
 21
143.860683
  0
LINE
  8
1
 62
7
  6
CONTINUOUS
 10
97.177440
 20
134.223986
 11
97.177440
 21
143.860683
  0
LINE
  8
1
 62
7
  6
CONTINUOUS
 10
97.177440
 20
142.860683
 11
93.977440
 21
142.444683
  0
LINE
  8
1
 62
7
  6
CONTINUOUS
 10
93.977440
 20
142.444683
 11
93.977440
 21
143.276683
  0
LINE
  8
1
 62
7
  6
CONTINUOUS
 10
93.977440
 20
143.276683
 11
97.177440
 21
142.860683
  0
LINE
  8
1
 62
7
  6
CONTINUOUS
 10
26.482124
 20
142.860683
 11
29.682124
 21
143.276683
  0
LINE
  8
1
 62
7
  6
CONTINUOUS
 10
29.682124
 20
143.276683
 11
29.682124
 21
142.444683
  0
LINE
  8
1
 62
7
  6
CONTINUOUS
 10
29.682124
 20
142.444683
 11
26.482124
 21
142.860683
  0
TEXT
  8
1
 62
7
  6
CONTINUOUS
 10
54.613782
 20
146.060683
 40
3.200000
 41
0.900000
  1
300
  7
KANJI
 50
0.000000
 51
0.000000
  0
TEXT
  8
1
 62
7
  6
CONTINUOUS
 10
63.893782
 20
148.220683
 40
2.240000
 41
0.900000
  1
+30
  7
KANJI
 50
0.000000
 51
0.000000
  0
TEXT
  8
1
 62
7
  6
CONTINUOUS
 10
65.909782
 20
144.860683
 40
2.240000
 41
0.900000
  1
 0
  7
KANJI
 50
0.000000
 51
0.000000
  0
LINE
  8
1
 62
7
  6
CONTINUOUS
 10
30.711176
 20
83.483410
 11
100.711176
 21
83.483410
  0
LINE
  8
1
 62
7
  6
CONTINUOUS
 10
30.711176
 20
76.047731
 11
30.711176
 21
84.983410
  0
LINE
  8
1
 62
7
  6
CONTINUOUS
 10
100.711176
 20
77.947731
 11
100.711176
 21
84.983410
  0
LINE
  8
1
 62
7
  6
CONTINUOUS
 10
30.711176
 20
83.483410
 11
33.911176
 21
83.899410
  0
LINE
  8
1
 62
7
  6
CONTINUOUS
 10
33.911176
 20
83.899410
 11
33.911176
 21
83.067410
  0
LINE
  8
1
 62
7
  6
CONTINUOUS
 10
33.911176
 20
83.067410
 11
30.711176
 21
83.483410
  0
LINE
  8
1
 62
7
  6
CONTINUOUS
 10
100.711176
 20
83.483410
 11
97.511176
 21
83.067410
  0
LINE
  8
1
 62
7
  6
CONTINUOUS
 10
97.511176
 20
83.067410
 11
97.511176
 21
83.899410
  0
LINE
  8
1
 62
7
  6
CONTINUOUS
 10
97.511176
 20
83.899410
 11
100.711176
 21
83.483410
  0
TEXT
  8
1
 62
7
  6
CONTINUOUS
 10
58.589160
 20
86.283410
 40
3.200000
 41
0.900000
  1
70
  7
KANJI
 50
0.000000
 51
0.000000
  0
TEXT
  8
1
 62
7
  6
CONTINUOUS
 10
64.989160
 20
88.363410
 40
1.920000
 41
0.900000
  1
 0
  7
KANJI
 50
0.000000
 51
0.000000
  0
TEXT
  8
1
 62
7
  6
CONTINUOUS
 10
65.565160
 20
85.483410
 40
1.920000
 41
0.900000
  1
-1
  7
KANJI
 50
0.000000
 51
0.000000
  0
LINE
  8
1
 62
7
  6
CONTINUOUS
 10
171.469809
 20
109.312042
 11
135.201811
 21
49.439895
  0
LINE
  8
1
 62
7
  6
CONTINUOUS
 10
135.201811
 20
49.439895
 11
136.503959
 21
52.392431
  0
LINE
  8
1
 62
7
  6
CONTINUOUS
 10
136.503959
 20
52.392431
 11
137.215579
 21
51.961361
  0
LINE
  8
1
 62
7
  6
CONTINUOUS
 10
137.215579
 20
51.961361
 11
135.201811
 21
49.439895
  0
LINE
  8
1
 62
7
  6
CONTINUOUS
 10
171.469809
 20
109.312042
 11
170.167660
 21
106.359507
  0
LINE
  8
1
 62
7
  6
CONTINUOUS
 10
170.167660
 20
106.359507
 11
169.456040
 21
106.790576
  0
LINE
  8
1
 62
7
  6
CONTINUOUS
 10
169.456040
 20
106.790576
 11
171.469809
 21
109.312042
  0
TEXT
  8
1
 62
7
  6
CONTINUOUS
 10
143.779482
 20
67.460305
 40
3.200000
 41
0.900000
  1
70
  7
KANJI
 50
58.794303
 51
0.000000
  0
TEXT
  8
1
 62
7
  6
CONTINUOUS
 10
141.789932
 20
64.175904
 40
3.200000
 41
0.900000
  1
φ
  7
KANJI
 50
58.794303
 51
0.000000
  0
LINE
  8
1
 62
7
  6
CONTINUOUS
 10
296.275543
 20
114.789179
 11
296.275543
 21
117.289179
  0
LINE
  8
1
 62
7
  6
CONTINUOUS
 10
293.775543
 20
116.289179
 11
296.275543
 21
114.789179
  0
LINE
  8
1
 62
7
  6
CONTINUOUS
 10
298.775543
 20
116.289179
 11
293.775543
 21
116.289179
  0
LINE
  8
1
 62
7
  6
CONTINUOUS
 10
293.275543
 20
119.289179
 11
299.275543
 21
119.289179
  0
LINE
  8
1
 62
7
  6
CONTINUOUS
 10
299.275543
 20
113.289179
 11
293.275543
 21
113.289179
  0
LINE
  8
1
 62
7
  6
CONTINUOUS
 10
299.275543
 20
139.289179
 11
299.275543
 21
113.289179
  0
LINE
  8
1
 62
7
  6
CONTINUOUS
 10
293.275543
 20
139.289179
 11
299.275543
 21
139.289179
  0
LINE
  8
1
 62
7
  6
CONTINUOUS
 10
293.275543
 20
113.289179
 11
293.275543
 21
139.289179
  0
TEXT
  8
1
 62
7
  6
CONTINUOUS
 10
298.275543
 20
120.335924
 40
4.000000
 41
0.900000
  1
文字ノ向キ
  7
KANJI
 50
90.000000
 51
0.000000
  0
LINE
  8
1
 62
7
  6
CONTINUOUS
 10
344.665824
 20
113.847670
 11
344.665824
 21
139.847670
  0
LINE
  8
1
 62
7
  6
CONTINUOUS
 10
344.665824
 20
139.847670
 11
350.665824
 21
139.847670
  0
LINE
  8
1
 62
7
  6
CONTINUOUS
 10
350.665824
 20
139.847670
 11
350.665824
 21
113.847670
  0
LINE
  8
1
 62
7
  6
CONTINUOUS
 10
350.665824
 20
113.847670
 11
344.665824
 21
113.847670
  0
LINE
  8
1
 62
7
  6
CONTINUOUS
 10
344.665824
 20
119.847670
 11
350.665824
 21
119.847670
  0
LINE
  8
1
 62
7
  6
CONTINUOUS
 10
350.165824
 20
116.847670
 11
345.165824
 21
116.847670
  0
LINE
  8
1
 62
7
  6
CONTINUOUS
 10
345.165824
 20
116.847670
 11
347.665824
 21
115.347670
  0
LINE
  8
1
 62
7
  6
CONTINUOUS
 10
347.665824
 20
115.347670
 11
347.665824
 21
117.847670
  0
TEXT
  8
1
 62
7
  6
CONTINUOUS
 10
349.665824
 20
120.894416
 40
4.000000
 41
0.900000
  1
文字ノ向キ
  7
KANJI
 50
90.000000
 51
0.000000
  0
LINE
  8
1
 62
7
  6
CONTINUOUS
 10
333.614422
 20
31.371371
 11
333.614422
 21
32.203371
  0
LINE
  8
1
 62
7
  6
CONTINUOUS
 10
336.814422
 20
31.787371
 11
333.614422
 21
31.371371
  0
LINE
  8
1
 62
7
  6
CONTINUOUS
 10
336.814422
 20
48.525758
 11
336.814422
 21
31.371371
  0
ENDSEC
  0
EOF
