  0
SECTION
  2
HEADER
  9
$ACADVER
  1
AC1009
  9
$INSBASE
 10
0
 20
0
  9
$EXTMIN
 10
0.8862305944917126
 20
30.30464254012412
  9
$EXTMAX
 10
138.7074664682111
 20
131.5749912767188
  9
$LIMMIN
 10
0.8862305944917126
 20
30.30464254012412
  9
$LIMMAX
 10
138.7074664682111
 20
131.5749912767188
  9
$VIEWCTR
 10
10
 20
10
  9
$VIEWSIZE
 40
10
  9
$SNAPMODE
 70
0
  9
$SNAPUNIT
 10
1
 20
1
  9
$SNAPBASE
 10
0
 20
0
  9
$SNAPANG
 50
0
  9
$SNAPSTYLE
 70
0
  9
$SNAPISOPAIR
 70
0
  9
$GRIDMODE
 70
0
  9
$GRIDUNIT
 10
0
 20
0
  9
$ORTHOMODE
 70
0
  9
$REGENMODE
 70
1
  9
$FILLMODE
 70
1
  9
$QTEXTMODE
 70
0
  9
$DRAGMODE
 70
2
  9
$LTSCALE
 40
1
  9
$OSMODE
 70
0
  9
$ATTMODE
 70
1
  9
$TEXTSIZE
 40
3.5
  9
$TRACEWID
 40
0.5
  9
$TEXTSTYLE
  7
STANDARD
  9
$CLAYER
  8
0
  9
$CELTYPE
  6
BYLAYER
  9
$CECOLOR
 62
256
  9
$DIMSCALE
 40
1
  9
$DIMASZ
 40
0.18
  9
$DIMEXO
 40
0.0625
  9
$DIMDLI
 40
0.38
  9
$DIMRND
 40
0
  9
$DIMDLE
 40
0
  9
$DIMEXE
 40
0.18
  9
$DIMTP
 40
0
  9
$DIMTM
 40
0
  9
$DIMTXT
 40
0.18
  9
$DIMCEN
 40
0.09
  9
$DIMTSZ
 40
0
  9
$DIMTOL
 70
0
  9
$DIMLIM
 70
0
  9
$DIMTIH
 70
1
  9
$DIMTOH
 70
1
  9
$DIMSE1
 70
0
  9
$DIMSE2
 70
0
  9
$DIMTAD
 70
0
  9
$DIMZIN
 70
0
  9
$DIMBLK
  1

  9
$DIMASO
 70
1
  9
$DIMSHO
 70
1
  9
$DIMPOST
  1

  9
$DIMAPOST
  1

  9
$DIMALT
 70
0
  9
$DIMALTD
 70
2
  9
$DIMALTF
 40
25.4
  9
$DIMLFAC
 40
1
  9
$DIMTOFL
 70
0
  9
$DIMTVP
 40
0
  9
$DIMTIX
 70
0
  9
$DIMSOXD
 70
0
  9
$DIMSAH
 70
0
  9
$DIMBLK1
  1

  9
$DIMBLK2
  1

  9
$DIMSTYLE
  2
*UNNAMED
  9
$DIMCLRD
 70
0
  9
$DIMCLRE
 70
0
  9
$DIMCLRT
 70
0
  9
$DIMTFAC
 40
1
  9
$DIMGAP
 40
0.09
  9
$LUNITS
 70
2
  9
$LUPREC
 70
4
  9
$AXISMODE
 70
0
  9
$AXISUNIT
 10
0
 20
0
  9
$SKETCHINC
 40
0.1
  9
$FILLETRAD
 40
2
  9
$AUNITS
 70
0
  9
$AUPREC
 70
0
  9
$MENU
  1
ACAD
  9
$ELEVATION
 40
0
  9
$THICKNESS
 40
0
  9
$VIEWDIR
 10
0
 20
0
 30
1
  9
$LIMCHECK
 70
0
  9
$BLIPMODE
 70
1
  9
$CHAMFERA
 40
0
  9
$CHAMFERB
 40
0
  9
$FASTZOOM
 70
1
  9
$SKPOLY
 70
0
  9
$ANGBASE
 50
0
  9
$ANGDIR
 70
0
  9
$PDMODE
 70
0
  9
$PDSIZE
 40
0
  9
$PLINEWID
 40
0
  9
$COORDS
 70
2
  0
ENDSEC
  0
SECTION
  2
TABLES
  0
TABLE
  2
DIMSTYLE
 70
0
  0
ENDTAB
  0
TABLE
  2
LTYPE
 70
9
  0
LTYPE
  2
CONTINUOUS
 70
64
  3
Solid line
 72
65
 73
0
 40
0
  0
LTYPE
  2
BORDER
 70
64
  3
__ __ . __ __ .
 72
65
 73
6
 40
6.347030599447604
 49
1.813437314127887
 49
-0.9067186570639434
 49
1.813437314127887
 49
-0.9067186570639434
 49
0
 49
-0.9067186570639434
  0
LTYPE
  2
CENTER
 70
64
  3
____ _ ____ _
 72
65
 73
4
 40
7.253749256511547
 49
4.533593285319717
 49
-0.9067186570639434
 49
0.9067186570639434
 49
-0.9067186570639434
  0
LTYPE
  2
DASHDOT
 70
64
  3
__ . __ . __ .
 72
65
 73
4
 40
3.626874628255774
 49
1.813437314127887
 49
-0.9067186570639434
 49
0
 49
-0.9067186570639434
  0
LTYPE
  2
DASHED
 70
64
  3
__ __ __ __ __
 72
65
 73
2
 40
2.72015597119183
 49
1.813437314127887
 49
-0.9067186570639434
  0
LTYPE
  2
DIVIDE
 70
64
  3
__ . . __ . . 
 72
65
 73
6
 40
4.533593285319717
 49
1.813437314127887
 49
-0.9067186570639434
 49
0
 49
-0.9067186570639434
 49
0
 49
-0.9067186570639434
  0
LTYPE
  2
DOT
 70
64
  3
..............
 72
65
 73
4
 40
1.813437314127887
 49
0
 49
-0.9067186570639434
 49
0
 49
-0.9067186570639434
  0
LTYPE
  2
HIDDEN
 70
64
  3
_ _ _ _ _ _ _
 72
65
 73
2
 40
1.360077985595915
 49
0.9067186570639434
 49
-0.4533593285319717
  0
LTYPE
  2
PHANTOM
 70
64
  3
_____ _ _ _____ _ _ 
 72
65
 73
6
 40
9.067186570639434
 49
4.533593285319717
 49
-0.9067186570639434
 49
0.9067186570639434
 49
-0.9067186570639434
 49
0.9067186570639434
 49
-0.9067186570639434
  0
ENDTAB
  0
TABLE
  2
LAYER
 70
3
  0
LAYER
  2
1
 70
0
 62
7
  6
CONTINUOUS
  0
LAYER
  2
0
 70
0
 62
7
  6
CONTINUOUS
  0
ENDTAB
  0
TABLE
  2
STYLE
 70
4
  0
STYLE
  2
STANDARD
 70
0
 40
0
 41
1
 50
0
 71
0
 42
3.5
  3
txt
  4

  0
STYLE
  2
SIMPLEX
 70
0
 40
0
 41
1
 50
0
 71
0
 42
3.5
  3
simplex
  4

  0
STYLE
  2
COMPLEX
 70
0
 40
0
 41
1
 50
0
 71
0
 42
3.5
  3
complex
  4

  0
STYLE
  2
ITALIC
 70
0
 40
0
 41
1
 50
0
 71
0
 42
3.5
  3
italic
  4

  0
ENDTAB
  0
TABLE
  2
VIEW
 70
0
  0
ENDTAB
  0
ENDSEC
  0
SECTION
  2
BLOCKS
  0
ENDSEC
  0
SECTION
  2
ENTITIES
  0
LINE
  8
1
 62
2
  6
DASHDOT
 10
12.02734043340864
 20
37.70993980591461
 30
0
 11
12.02734043340864
 21
32.4260017655336
 31
0
  0
LINE
  8
1
 62
2
  6
DASHDOT
 10
12.02734043340864
 20
40.68436642906812
 30
0
 11
12.02734043340864
 21
45.026339139783
 31
0
  0
LINE
  8
1
 62
2
  6
DASHDOT
 10
10.69707674282534
 20
39.15775372504181
 30
0
 11
6.49660729112955
 21
39.15775372504181
 31
0
  0
LINE
  8
1
 62
2
  6
DASHDOT
 10
13.37633125833764
 20
39.15775372504181
 30
0
 11
16.9491598856774
 21
39.15775372504181
 31
0
  0
LINE
  8
1
 62
2
  6
DASHDOT
 10
94.42734043340863
 20
38.02115161171282
 30
0
 11
94.42734043340863
 21
40.68436642906812
 31
0
  0
LINE
  8
1
 62
2
  6
DASHDOT
 10
94.42734043340863
 20
38.02115161171282
 30
0
 11
94.42734043340863
 21
33.498543347347
 31
0
  0
LINE
  8
1
 62
2
  6
DASHDOT
 10
94.42734043340863
 20
40.68436642906812
 30
0
 11
94.42734043340863
 21
44.70916941256669
 31
0
  0
LINE
  8
1
 62
2
  6
DASHDOT
 10
93.07834960847964
 20
39.15775372504181
 30
0
 11
88.7089457491718
 21
39.15775372504181
 31
0
  0
LINE
  8
1
 62
2
  6
DASHDOT
 10
95.75760412399194
 20
39.15775372504181
 30
0
 11
99.6699424890525
 21
39.15775372504181
 31
0
  0
LINE
  8
1
 62
2
  6
DASHDOT
 10
93.10563792612324
 20
121.5577537250418
 30
0
 11
93.02164199510904
 21
121.5577537250418
 31
0
  0
LINE
  8
1
 62
2
  6
DASHDOT
 10
93.10563792612324
 20
121.5577537250418
 30
0
 11
89.4302772412225
 21
121.5577537250418
 31
0
  0
LINE
  8
1
 62
2
  6
DASHDOT
 10
95.96276306765532
 20
121.5577537250418
 30
0
 11
100.057894557436
 21
121.5577537250418
 31
0
  0
LINE
  8
1
 62
2
  6
DASHDOT
 10
94.42734043340863
 20
120.4192636600478
 30
0
 11
94.42734043340863
 21
122.9238567272508
 31
0
  0
LINE
  8
1
 62
2
  6
DASHDOT
 10
94.42734043340863
 20
120.4192636600478
 30
0
 11
94.42734043340863
 21
116.320096230324
 31
0
  0
LINE
  8
1
 62
2
  6
DASHDOT
 10
12.02734043340864
 20
120.2441855962018
 30
0
 11
12.02734043340864
 21
116.70021361209
 31
0
  0
LINE
  8
1
 62
2
  6
DASHDOT
 10
13.34904294069404
 20
121.5577537250418
 30
0
 11
16.7227644585843
 21
121.5577537250418
 31
0
  0
LINE
  8
1
 62
2
  6
DASHDOT
 10
10.88267896435554
 20
121.5577537250418
 30
0
 11
6.41123622315651
 21
121.5577537250418
 31
0
  0
LINE
  8
1
 62
7
 10
33.88736691373965
 20
59.22039522738415
 30
0
 11
32.67233852750004
 21
58.16418716515579
 31
0
  0
LINE
  8
1
 62
7
 10
32.67233852750004
 20
58.16418716515579
 30
0
 11
28.76609833882496
 21
54.7685443744158
 31
0
  0
LINE
  8
1
 62
7
 10
28.76609833882496
 20
54.7685443744158
 30
0
 11
27.55362065450655
 21
53.71455360353967
 31
0
  0
LINE
  8
1
 62
7
 10
27.55362065450655
 20
53.71455360353967
 30
0
 11
22.89658819121723
 21
49.66625704562263
 31
0
  0
LINE
  8
1
 62
7
 10
22.89658819121723
 20
49.66625704562263
 30
0
 11
21.68570701355129
 21
48.61365409680634
 31
0
  0
LINE
  8
1
 62
7
 10
21.68570701355129
 20
48.61365409680634
 30
0
 11
19.22679386707599
 21
46.4761535091334
 31
0
  0
LINE
  8
1
 62
7
 10
37.99579995482518
 20
62.79180158320578
 30
0
 11
33.88736691373965
 21
59.22039522738415
 31
0
  0
LINE
  8
1
 62
7
 10
43.54762531395701
 20
67.61792973857088
 30
0
 11
39.21632417243546
 21
63.85278709875793
 31
0
  0
LINE
  8
1
 62
7
 10
39.21632417243546
 20
63.85278709875793
 30
0
 11
37.99579995482518
 21
62.79180158320578
 31
0
  0
LINE
  8
1
 62
7
 10
43.54762531395701
 20
93.0975777115127
 30
0
 11
43.61745617193241
 21
93.03687467278441
 31
0
  0
LINE
  8
1
 62
7
 10
39.21632417243546
 20
96.86272035132571
 30
0
 11
43.54762531395701
 21
93.0975777115127
 31
0
  0
LINE
  8
1
 62
7
 10
37.99579995482519
 20
97.9237058668778
 30
0
 11
39.21632417243546
 21
96.86272035132571
 31
0
  0
LINE
  8
1
 62
7
 10
33.88736691373965
 20
101.4951122226995
 30
0
 11
37.99579995482519
 21
97.9237058668778
 31
0
  0
LINE
  8
1
 62
7
 10
32.67233852750003
 20
102.5513202849278
 30
0
 11
33.88736691373965
 21
101.4951122226995
 31
0
  0
LINE
  8
1
 62
7
 10
28.76609833882496
 20
105.9469630756678
 30
0
 11
32.67233852750003
 21
102.5513202849278
 31
0
  0
LINE
  8
1
 62
7
 10
27.55362065450654
 20
107.000953846544
 30
0
 11
28.76609833882496
 21
105.9469630756678
 31
0
  0
LINE
  8
1
 62
7
 10
22.89658819121723
 20
111.049250404461
 30
0
 11
27.55362065450654
 21
107.000953846544
 31
0
  0
LINE
  8
1
 62
7
 10
21.68570701355128
 20
112.1018533532773
 30
0
 11
22.89658819121723
 21
111.049250404461
 31
0
  0
LINE
  8
1
 62
7
 10
62.90705555286026
 20
93.0975777115128
 30
0
 11
67.23835669438181
 21
96.86272035132571
 31
0
  0
LINE
  8
1
 62
7
 10
62.90705555286026
 20
67.61792973857088
 30
0
 11
62.83722469488485
 21
67.67863277729924
 31
0
  0
LINE
  8
1
 62
7
 10
40.49698490966331
 20
97.8694797461697
 30
0
 11
44.66715061831725
 21
94.24441000114081
 31
0
  0
LINE
  8
1
 62
7
 10
65.95769595715396
 20
97.8694797461697
 30
0
 11
67.19465707423147
 21
98.9447536404395
 31
0
  0
LINE
  8
1
 62
7
 10
67.23835669438181
 20
96.86272035132571
 30
0
 11
68.45888091199208
 21
97.9237058668779
 31
0
  0
LINE
  8
1
 62
7
 10
67.23835669438181
 20
63.85278709875791
 30
0
 11
62.90705555286026
 21
67.61792973857088
 31
0
  0
LINE
  8
1
 62
7
 10
65.95769595715395
 20
62.84602770391395
 30
0
 11
61.78753024850003
 21
66.4710974489428
 31
0
  0
LINE
  8
1
 62
7
 10
40.49698490966333
 20
62.84602770391395
 30
0
 11
39.26002379258582
 21
61.77075380964412
 31
0
  0
LINE
  8
1
 62
7
 10
67.19465707423146
 20
61.77075380964412
 30
0
 11
65.95769595715395
 21
62.84602770391395
 31
0
  0
LINE
  8
1
 62
7
 10
39.26002379258582
 20
61.77075380964412
 30
0
 11
35.11018768508011
 21
58.1633563172785
 31
0
  0
LINE
  8
1
 62
7
 10
68.45888091199208
 20
97.9237058668779
 30
0
 11
72.56731395307762
 21
101.4951122226995
 31
0
  0
LINE
  8
1
 62
7
 10
68.45888091199208
 20
62.79180158320578
 30
0
 11
67.23835669438181
 21
63.85278709875791
 31
0
  0
LINE
  8
1
 62
7
 10
39.2600237925858
 20
98.9447536404395
 30
0
 11
40.49698490966331
 21
97.8694797461697
 31
0
  0
LINE
  8
1
 62
7
 10
67.19465707423147
 20
98.9447536404395
 30
0
 11
71.34449318173718
 21
102.5521511328051
 31
0
  0
LINE
  8
1
 62
7
 10
35.1101876850801
 20
102.5521511328051
 30
0
 11
39.2600237925858
 21
98.9447536404395
 31
0
  0
LINE
  8
1
 62
7
 10
71.34449318173718
 20
102.5521511328051
 30
0
 11
72.56885891131167
 21
103.6164760237609
 31
0
  0
LINE
  8
1
 62
7
 10
72.56731395307762
 20
101.4951122226995
 30
0
 11
73.78234233931724
 21
102.5513202849278
 31
0
  0
LINE
  8
1
 62
7
 10
72.56731395307763
 20
59.22039522738415
 30
0
 11
68.45888091199208
 21
62.79180158320578
 31
0
  0
LINE
  8
1
 62
7
 10
71.34449318173716
 20
58.1633563172785
 30
0
 11
67.19465707423146
 21
61.77075380964412
 31
0
  0
LINE
  8
1
 62
7
 10
35.11018768508011
 20
58.1633563172785
 30
0
 11
33.88582195550563
 21
57.09903142632271
 31
0
  0
LINE
  8
1
 62
7
 10
72.56885891131165
 20
57.09903142632271
 30
0
 11
71.34449318173716
 21
58.1633563172785
 31
0
  0
LINE
  8
1
 62
7
 10
33.88582195550563
 20
57.09903142632271
 30
0
 11
29.95539385119374
 21
53.68236240130422
 31
0
  0
LINE
  8
1
 62
7
 10
73.78234233931724
 20
102.5513202849278
 30
0
 11
77.68858252799231
 21
105.9469630756678
 31
0
  0
LINE
  8
1
 62
7
 10
73.78234233931724
 20
58.16418716515581
 30
0
 11
72.56731395307763
 21
59.22039522738415
 31
0
  0
LINE
  8
1
 62
7
 10
33.88582195550561
 20
103.6164760237609
 30
0
 11
35.1101876850801
 21
102.5521511328051
 31
0
  0
LINE
  8
1
 62
7
 10
72.56885891131167
 20
103.6164760237609
 30
0
 11
76.49928701562354
 21
107.0331450487794
 31
0
  0
LINE
  8
1
 62
7
 10
77.68858252799231
 20
105.9469630756678
 30
0
 11
78.90106021231074
 21
107.000953846544
 31
0
  0
LINE
  8
1
 62
7
 10
77.68858252799231
 20
54.76854437441582
 30
0
 11
73.78234233931724
 21
58.16418716515581
 31
0
  0
LINE
  8
1
 62
7
 10
76.49928701562352
 20
53.68236240130422
 30
0
 11
72.56885891131165
 21
57.09903142632271
 31
0
  0
LINE
  8
1
 62
7
 10
29.95539385119374
 20
53.68236240130422
 30
0
 11
28.73680090638956
 21
52.62305571558953
 31
0
  0
LINE
  8
1
 62
7
 10
77.71787996042771
 20
52.62305571558953
 30
0
 11
76.49928701562352
 21
53.68236240130422
 31
0
  0
LINE
  8
1
 62
7
 10
28.73680090638956
 20
52.62305571558953
 30
0
 11
24.06055124836444
 21
48.55805390515063
 31
0
  0
LINE
  8
1
 62
7
 10
78.90106021231074
 20
107.000953846544
 30
0
 11
83.55809267560005
 21
111.049250404461
 31
0
  0
LINE
  8
1
 62
7
 10
78.90106021231073
 20
53.71455360353968
 30
0
 11
77.68858252799231
 21
54.76854437441582
 31
0
  0
LINE
  8
1
 62
7
 10
29.95539385119373
 20
107.0331450487794
 30
0
 11
33.88582195550561
 21
103.6164760237609
 31
0
  0
LINE
  8
1
 62
7
 10
76.49928701562354
 20
107.0331450487794
 30
0
 11
77.71787996042771
 21
108.0924517344941
 31
0
  0
LINE
  8
1
 62
7
 10
28.73680090638955
 20
108.0924517344941
 30
0
 11
29.95539385119373
 21
107.0331450487794
 31
0
  0
LINE
  8
1
 62
7
 10
77.71787996042771
 20
108.0924517344941
 30
0
 11
82.39412961845282
 21
112.157453544933
 31
0
  0
LINE
  8
1
 62
7
 10
82.39412961845282
 20
48.55805390515063
 30
0
 11
77.71787996042771
 21
52.62305571558953
 31
0
  0
LINE
  8
1
 62
7
 10
24.06055124836444
 20
48.55805390515063
 30
0
 11
22.84554849445682
 21
47.50186812476855
 31
0
  0
LINE
  8
1
 62
7
 10
83.60913237236045
 20
47.50186812476855
 30
0
 11
82.39412961845282
 21
48.55805390515063
 31
0
  0
LINE
  8
1
 62
7
 10
22.84554849445682
 20
47.50186812476855
 30
0
 11
20.37911943315404
 21
45.35783405201352
 31
0
  0
LINE
  8
1
 62
7
 10
83.55809267560005
 20
111.049250404461
 30
0
 11
84.76897385326599
 21
112.1018533532773
 31
0
  0
LINE
  8
1
 62
7
 10
83.55809267560005
 20
49.66625704562264
 30
0
 11
78.90106021231073
 21
53.71455360353968
 31
0
  0
LINE
  8
1
 62
7
 10
84.76897385326599
 20
112.1018533532773
 30
0
 11
87.22788699974129
 21
114.2393539409502
 31
0
  0
LINE
  8
1
 62
7
 10
84.76897385326599
 20
48.61365409680634
 30
0
 11
83.55809267560005
 21
49.66625704562264
 31
0
  0
LINE
  8
1
 62
7
 10
24.06055124836444
 20
112.157453544933
 30
0
 11
28.73680090638955
 21
108.0924517344941
 31
0
  0
LINE
  8
1
 62
7
 10
82.39412961845282
 20
112.157453544933
 30
0
 11
83.60913237236045
 21
113.2136393253151
 31
0
  0
LINE
  8
1
 62
7
 10
22.84554849445682
 20
113.2136393253151
 30
0
 11
24.06055124836444
 21
112.157453544933
 31
0
  0
LINE
  8
1
 62
7
 10
83.60913237236045
 20
113.2136393253151
 30
0
 11
86.07556143366324
 21
115.3576733980701
 31
0
  0
LINE
  8
1
 62
7
 10
88.35071280194143
 20
43.38007514104484
 30
0
 11
90.503575851687
 21
41.50861984356642
 31
0
  0
LINE
  8
1
 62
7
 10
91.55327029807184
 20
42.71615517192283
 30
0
 11
89.49695986769302
 21
44.50367855788431
 31
0
  0
LINE
  8
1
 62
7
 10
89.49695986769304
 20
116.2118288921993
 30
0
 11
91.55327029807187
 21
117.9993522781608
 31
0
  0
LINE
  8
1
 62
7
 10
86.07556143366324
 20
115.3576733980701
 30
0
 11
88.35071280194143
 21
117.3354323090388
 31
0
  0
LINE
  8
1
 62
7
 10
89.49695986769304
 20
116.2118288921993
 30
0
 11
87.22788699974129
 21
114.2393539409502
 31
0
  0
LINE
  8
1
 62
7
 10
88.35071280194143
 20
117.3354323090388
 30
0
 11
90.50357585168702
 21
119.2068876065172
 31
0
  0
LINE
  8
1
 62
2
  6
DASHDOT
 10
93.10563792612324
 20
121.5577537250418
 30
0
 11
95.57200190246174
 21
121.5577537250418
 31
0
  0
LINE
  8
1
 62
2
  6
DASHDOT
 10
94.42734043340863
 20
120.2441855962018
 30
0
 11
94.42734043340863
 21
120.4192636600478
 31
0
  0
LINE
  8
1
 62
7
 10
88.35071280194143
 20
43.38007514104484
 30
0
 11
86.07556143366323
 21
45.35783405201352
 31
0
  0
LINE
  8
1
 62
7
 10
89.49695986769302
 20
44.50367855788431
 30
0
 11
87.22788699974129
 21
46.4761535091334
 31
0
  0
LINE
  8
1
 62
2
  6
DASHDOT
 10
93.07834960847964
 20
39.15775372504181
 30
0
 11
95.75760412399194
 21
39.15775372504181
 31
0
  0
LINE
  8
1
 62
2
  6
DASHDOT
 10
94.42734043340863
 20
37.70993980591461
 30
0
 11
94.42734043340863
 21
38.02115161171282
 31
0
  0
LINE
  8
1
 62
7
 10
87.22788699974129
 20
46.4761535091334
 30
0
 11
84.76897385326599
 21
48.61365409680634
 31
0
  0
LINE
  8
1
 62
7
 10
86.07556143366323
 20
45.35783405201352
 30
0
 11
83.60913237236045
 21
47.50186812476855
 31
0
  0
LINE
  8
1
 62
7
 10
62.83722469488486
 20
93.03687467278441
 30
0
 11
62.90705555286026
 21
93.0975777115128
 31
0
  0
LINE
  8
1
 62
7
 10
61.78753024850002
 20
94.24441000114081
 30
0
 11
65.95769595715396
 21
97.8694797461697
 31
0
  0
LINE
  8
1
 62
7
 10
20.37911943315404
 20
45.35783405201352
 30
0
 11
18.10396806487584
 21
43.38007514104484
 31
0
  0
LINE
  8
1
 62
7
 10
19.22679386707599
 20
46.4761535091334
 30
0
 11
16.95772099912424
 21
44.50367855788431
 31
0
  0
LINE
  8
1
 62
7
 10
18.10396806487584
 20
43.38007514104484
 30
0
 11
15.95110501513027
 21
41.50861984356642
 31
0
  0
LINE
  8
1
 62
7
 10
16.95772099912424
 20
44.50367855788431
 30
0
 11
14.90141056874546
 21
42.71615517192286
 31
0
  0
LINE
  8
1
 62
7
 10
16.95772099912423
 20
116.2118288921993
 30
0
 11
14.90141056874548
 21
117.9993522781607
 31
0
  0
LINE
  8
1
 62
7
 10
18.10396806487584
 20
117.3354323090388
 30
0
 11
20.37911943315403
 21
115.3576733980701
 31
0
  0
LINE
  8
1
 62
7
 10
19.22679386707599
 20
114.2393539409502
 30
0
 11
16.95772099912423
 21
116.2118288921993
 31
0
  0
LINE
  8
1
 62
7
 10
19.22679386707599
 20
114.2393539409502
 30
0
 11
21.68570701355128
 21
112.1018533532773
 31
0
  0
LINE
  8
1
 62
7
 10
20.37911943315403
 20
115.3576733980701
 30
0
 11
22.84554849445682
 21
113.2136393253151
 31
0
  0
LINE
  8
1
 62
7
 10
43.61745617193242
 20
67.67863277729924
 30
0
 11
43.54762531395701
 21
67.61792973857088
 31
0
  0
LINE
  8
1
 62
2
  6
DASHDOT
 10
58.20311634154958
 20
80.3577537250418
 30
0
 11
60.64192128027889
 21
80.3577537250418
 31
0
  0
LINE
  8
1
 62
7
 10
44.66715061831724
 20
66.4710974489428
 30
0
 11
40.49698490966333
 21
62.84602770391395
 31
0
  0
LINE
  8
1
 62
2
  6
DASHDOT
 10
60.64192128027889
 20
80.3577537250418
 30
0
 11
108.1226706438028
 21
80.3577537250418
 31
0
  0
LINE
  8
1
 62
7
 10
15.95110501513025
 20
119.2068876065172
 30
0
 11
18.10396806487584
 21
117.3354323090388
 31
0
  0
LINE
  8
1
 62
2
  6
DASHDOT
 10
48.25156452526769
 20
80.3577537250418
 30
0
 11
52.09596958351017
 21
80.3577537250418
 31
0
  0
LINE
  8
1
 62
2
  6
DASHDOT
 10
45.81275958653838
 20
80.3577537250418
 30
0
 11
48.25156452526769
 21
80.3577537250418
 31
0
  0
LINE
  8
1
 62
2
  6
DASHDOT
 10
0.8862305944917126
 20
80.3577537250418
 30
0
 11
45.81275958653838
 21
80.3577537250418
 31
0
  0
LINE
  8
1
 62
2
  6
DASHDOT
 10
53.22734043340864
 20
30.30464254012412
 30
0
 11
53.22734043340864
 21
131.5749912767188
 31
0
  0
LINE
  8
1
 62
2
  6
DASHDOT
 10
52.09596958351017
 20
80.3577537250418
 30
0
 11
54.35871128330712
 21
80.3577537250418
 31
0
  0
LINE
  8
1
 62
2
  6
DASHDOT
 10
54.35871128330712
 20
80.3577537250418
 30
0
 11
58.20311634154958
 21
80.3577537250418
 31
0
  0
LINE
  8
1
 62
2
  6
DASHDOT
 10
94.42734043340863
 20
120.4192636600478
 30
0
 11
94.42734043340863
 21
122.9527045839238
 31
0
  0
LINE
  8
1
 62
2
  6
DASHDOT
 10
95.96276306765532
 20
121.5577537250418
 30
0
 11
93.10563792612324
 21
121.5577537250418
 31
0
  0
LINE
  8
1
 62
2
  6
DASHDOT
 10
10.88267896435554
 20
121.5577537250418
 30
0
 11
13.34904294069404
 21
121.5577537250418
 31
0
  0
LINE
  8
1
 62
2
  6
DASHDOT
 10
12.02734043340864
 20
122.9238567272508
 30
0
 11
12.02734043340864
 21
120.2441855962018
 31
0
  0
LINE
  8
1
 62
2
  6
DASHDOT
 10
93.15112404232772
 20
39.15775372504181
 30
0
 11
95.47458888963172
 21
39.15775372504181
 31
0
  0
LINE
  8
1
 62
2
  6
DASHDOT
 10
94.42734043340863
 20
40.3148284481539
 30
0
 11
94.42734043340863
 21
38.02115161171282
 31
0
  0
LINE
  8
1
 62
2
  6
DASHDOT
 10
10.69707674282534
 20
39.15775372504181
 30
0
 11
13.37633125833764
 21
39.15775372504181
 31
0
  0
LINE
  8
1
 62
2
  6
DASHDOT
 10
12.02734043340864
 20
40.68436642906812
 30
0
 11
12.02734043340864
 21
37.70993980591461
 31
0
  0
LINE
  8
1
 62
7
 10
134.7945487053691
 20
124.3077537250401
 30
0
 11
134.7945487053691
 21
113.4577537250401
 31
0
  0
LINE
  8
1
 62
7
 10
133.1945487053691
 20
124.3077537250401
 30
0
 11
133.1945487053691
 21
111.8577537250401
 31
0
  0
LINE
  8
1
 62
7
 10
131.5945487053691
 20
77.58252285714033
 30
0
 11
131.5945487053691
 21
50.78912457493856
 31
0
  0
LINE
  8
1
 62
7
 10
131.5945487053691
 20
83.13298459293981
 30
0
 11
131.5945487053691
 21
109.9263828751416
 31
0
  0
LINE
  8
1
 62
7
 10
133.1945487053691
 20
77.58252285714033
 30
0
 11
133.1945487053691
 21
51.12049542483705
 31
0
  0
LINE
  8
1
 62
7
 10
133.1945487053691
 20
83.13298459293981
 30
0
 11
133.1945487053691
 21
77.58252285714033
 31
0
  0
LINE
  8
1
 62
7
 10
134.9945487053691
 20
36.10775372504007
 30
0
 11
134.9945487053691
 21
46.89241467877234
 31
0
  0
LINE
  8
1
 62
7
 10
134.9945487053691
 20
46.89241467877234
 30
0
 11
134.9945487053691
 21
47.05775372504009
 31
0
  0
LINE
  8
1
 62
7
 10
134.9945487053691
 20
47.05775372504009
 30
0
 11
131.8288632804199
 21
50.22343914998932
 31
0
  0
LINE
  8
1
 62
7
 10
134.7945487053691
 20
47.2577537250401
 30
0
 11
134.7945487053691
 21
36.40775372504008
 31
0
  0
LINE
  8
1
 62
7
 10
133.1945487053691
 20
48.8577537250401
 30
0
 11
133.1945487053691
 21
36.40775372504008
 31
0
  0
LINE
  8
1
 62
7
 10
136.5945487053691
 20
47.38912457493858
 30
0
 11
136.5945487053691
 21
36.10775372504007
 31
0
  0
LINE
  8
1
 62
7
 10
136.3602341303183
 20
47.95480999988781
 30
0
 11
133.1945487053691
 21
51.12049542483705
 31
0
  0
LINE
  8
1
 62
2
  6
DASHDOT
 10
138.7074664682111
 20
80.35775372504006
 30
0
 11
128.2921961754991
 21
80.35775372504006
 31
0
  0
LINE
  8
1
 62
7
 10
134.9945487053691
 20
113.8230927713078
 30
0
 11
134.9945487053691
 21
124.6077537250401
 31
0
  0
LINE
  8
1
 62
7
 10
134.9945487053691
 20
113.6577537250401
 30
0
 11
134.9945487053691
 21
113.8230927713078
 31
0
  0
LINE
  8
1
 62
7
 10
131.8288632804199
 20
110.4920683000908
 30
0
 11
134.9945487053691
 21
113.6577537250401
 31
0
  0
LINE
  8
1
 62
7
 10
134.7945487053691
 20
124.3077537250401
 30
0
 11
134.7945487053691
 21
113.4577537250401
 31
0
  0
LINE
  8
1
 62
7
 10
133.1945487053691
 20
124.3077537250401
 30
0
 11
133.1945487053691
 21
111.8577537250401
 31
0
  0
LINE
  8
1
 62
7
 10
136.5945487053691
 20
124.6077537250401
 30
0
 11
136.5945487053691
 21
113.3263828751416
 31
0
  0
LINE
  8
1
 62
7
 10
133.1945487053691
 20
109.5950120252431
 30
0
 11
136.3602341303183
 21
112.7606974501923
 31
0
  0
LINE
  8
1
 62
7
 10
133.1945487053691
 20
109.5950120252431
 30
0
 11
133.1945487053691
 21
83.13298459293981
 31
0
  0
LINE
  8
1
 62
7
 10
134.7945487053691
 20
111.1950120252431
 30
0
 11
134.7945487053691
 21
49.52049542483705
 31
0
  0
LINE
  8
1
 62
7
 10
93.30234043340866
 20
119.6091965665269
 30
0
 11
92.50234043340865
 21
118.2235559204718
 31
0
  0
LINE
  8
1
 62
7
 10
13.95234043340864
 20
42.4919515296119
 30
0
 11
13.15234043340864
 21
41.1063108835568
 31
0
  0
LINE
  8
1
 62
7
 10
90.93805545331755
 20
40.7848340327435
 30
0
 11
92.38814791257616
 21
40.10864481395839
 31
0
  0
LINE
  8
1
 62
7
 10
15.51662541349977
 20
119.9306734173401
 30
0
 11
14.06653295424112
 21
120.6068626361252
 31
0
  0
ARC
  8
1
 62
7
 10
53.22734043339612
 20
80.3577537250295
 30
0
 40
28.64999999998244
 50
223.3999098703541
 51
227.5425333614806
  0
ARC
  8
1
 62
7
 10
53.22734043341372
 20
80.357753725047
 30
0
 40
30.25000000000724
 50
223.4845630294427
 51
227.1950887504528
  0
ARC
  8
1
 62
7
 10
53.22734043345629
 20
80.35775372508969
 30
0
 40
35.40000000006751
 50
223.7050698859858
 51
226.2910338112425
  0
ARC
  8
1
 62
7
 10
53.22734043340864
 20
80.3577537250418
 30
0
 40
36.99999999999998
 50
223.7610757903495
 51
226.061621654506
  0
ARC
  8
1
 62
7
 10
53.22734043348298
 20
80.3577537251162
 30
0
 40
43.15000000010515
 50
223.9376767108682
 51
225.3387107706502
  0
ARC
  8
1
 62
7
 10
53.2273404332426
 20
80.357753724877
 30
0
 40
44.74999999976608
 50
223.9756633418187
 51
225.1833022878668
  0
ARC
  8
1
 62
7
 10
53.22734043341372
 20
80.357753725047
 30
0
 40
23.25000000000726
 50
223.028143089937
 51
229.0712488227619
  0
ARC
  8
1
 62
7
 10
53.22734043341638
 20
80.3577537250501
 30
0
 40
16.00000000001129
 50
222.1340160174046
 51
232.7724393507674
  0
ARC
  8
1
 62
7
 10
53.22734043340864
 20
80.3577537250418
 30
0
 40
21.64999999999999
 50
222.8823528399465
 51
229.6721734526072
  0
ARC
  8
1
 62
7
 10
53.22734043340864
 20
80.3577537250418
 30
0
 40
14.4
 50
221.8152614632796
 51
233.8175955928626
  0
ARC
  8
1
 62
7
 10
53.22734043340864
 20
80.3577537250418
 30
0
 40
6.900000000000028
 50
132.1418115121135
 51
141.6579628093164
  0
ARC
  8
1
 62
7
 10
53.22734043340864
 20
80.3577537250418
 30
0
 40
8.499999999999973
 50
127.9460950408151
 51
140.4005371681348
  0
ARC
  8
1
 62
7
 10
53.22734043340864
 20
80.3577537250418
 30
0
 40
8.499999999999988
 50
219.5994628318649
 51
232.053904959185
  0
ARC
  8
1
 62
7
 10
53.22734043341028
 20
80.35775372504349
 30
0
 40
6.900000000002346
 50
218.3420371906865
 51
227.8581884878856
  0
ARC
  8
1
 62
7
 10
53.22734043340864
 20
80.3577537250418
 30
0
 40
8.499999999999979
 50
242.9772433889598
 51
297.0227566110401
  0
ARC
  8
1
 62
7
 10
53.22734043340864
 20
80.3577537250418
 30
0
 40
6.89999999999999
 50
241.7605455122493
 51
298.2394544877506
  0
ARC
  8
1
 62
7
 10
53.22734043340864
 20
80.3577537250418
 30
0
 40
6.899999999999983
 50
312.1418115121137
 51
47.85818848788659
  0
ARC
  8
1
 62
7
 10
53.22734043340864
 20
80.3577537250418
 30
0
 40
8.499999999999979
 50
307.9460950408148
 51
52.05390495918544
  0
ARC
  8
1
 62
7
 10
53.22734043340864
 20
80.3577537250418
 30
0
 40
8.499999999999998
 50
62.97724338895997
 51
117.0227566110401
  0
ARC
  8
1
 62
7
 10
53.22734043340864
 20
80.3577537250418
 30
0
 40
6.900000000000045
 50
61.76054551224973
 51
118.2394544877504
  0
ARC
  8
1
 62
7
 10
53.22734043340586
 20
80.357753725045
 30
0
 40
14.39999999999578
 50
126.182404407136
 51
138.1847385367226
  0
ARC
  8
1
 62
7
 10
53.22734043340693
 20
80.35775372504359
 30
0
 40
15.99999999999753
 50
127.2275606492276
 51
137.8659839825995
  0
ARC
  8
1
 62
7
 10
53.22734043340693
 20
80.35775372504359
 30
0
 40
21.64999999999753
 50
130.3278265473923
 51
137.1176471600539
  0
ARC
  8
1
 62
7
 10
53.2273404334038
 20
80.35775372504671
 30
0
 40
23.2499999999931
 50
130.928751177236
 51
136.9718569100644
  0
ARC
  8
1
 62
7
 10
53.22734043340693
 20
80.35775372504359
 30
0
 40
28.64999999999753
 50
132.457466638521
 51
136.6000901296455
  0
ARC
  8
1
 62
7
 10
53.2273404334361
 20
80.3577537250134
 30
0
 40
30.25000000003944
 50
132.8049112495485
 51
136.5154369705545
  0
ARC
  8
1
 62
7
 10
53.22734043344823
 20
80.3577537250018
 30
0
 40
35.40000000005624
 50
133.7089661887569
 51
136.2949301140144
  0
ARC
  8
1
 62
7
 10
53.22734043340097
 20
80.3577537250497
 30
0
 40
36.99999999998903
 50
133.9383783454939
 51
136.2389242096512
  0
ARC
  8
1
 62
7
 10
53.2273404332337
 20
80.35775372521439
 30
0
 40
43.14999999975426
 50
134.6612892293449
 51
136.0623232891384
  0
ARC
  8
1
 62
7
 10
53.22734043333476
 20
80.3577537251157
 30
0
 40
44.74999999989555
 50
134.8166977121348
 51
136.0243366581794
  0
ARC
  8
1
 62
7
 10
53.22734043340864
 20
80.3577537250418
 30
0
 40
16
 50
238.6885778854887
 51
301.3114221145113
  0
ARC
  8
1
 62
7
 10
53.22734043340864
 20
80.3577537250418
 30
0
 40
14.39999999999999
 50
240.2924130053686
 51
299.7075869946314
  0
ARC
  8
1
 62
7
 10
53.22734043340864
 20
80.3577537250418
 30
0
 40
14.39999999999999
 50
306.1824044071374
 51
53.81759559286262
  0
ARC
  8
1
 62
7
 10
53.22734043340864
 20
80.3577537250418
 30
0
 40
16
 50
307.2275606492285
 51
52.77243935077163
  0
ARC
  8
1
 62
7
 10
53.22734043340864
 20
80.3577537250418
 30
0
 40
14.40000000000001
 50
60.29241300536857
 51
119.7075869946315
  0
ARC
  8
1
 62
7
 10
53.22734043340864
 20
80.3577537250418
 30
0
 40
16.00000000000003
 50
58.68857788548862
 51
121.3114221145114
  0
ARC
  8
1
 62
7
 10
53.22734043340864
 20
80.3577537250418
 30
0
 40
21.65000000000002
 50
53.98428093381673
 51
126.0157190661833
  0
ARC
  8
1
 62
7
 10
53.22734043340864
 20
80.3577537250418
 30
0
 40
21.65
 50
310.3278265473928
 51
49.67217345260728
  0
ARC
  8
1
 62
7
 10
53.22734043340864
 20
80.3577537250418
 30
0
 40
21.64999999999998
 50
233.9842809338167
 51
306.0157190661834
  0
ARC
  8
1
 62
7
 10
53.22734043340864
 20
80.3577537250418
 30
0
 40
23.24999999999999
 50
233.0767412137018
 51
306.9232587862982
  0
ARC
  8
1
 62
7
 10
53.22734043340864
 20
80.3577537250418
 30
0
 40
23.24999999999999
 50
310.928751177237
 51
49.0712488227631
  0
ARC
  8
1
 62
7
 10
53.22734043340864
 20
80.3577537250418
 30
0
 40
23.25000000000001
 50
53.07674121370184
 51
126.9232587862982
  0
ARC
  8
1
 62
7
 10
53.22734043340864
 20
80.3577537250418
 30
0
 40
28.64999999999997
 50
50.77544549469985
 51
129.2245545053002
  0
ARC
  8
1
 62
7
 10
53.22734043340864
 20
80.3577537250418
 30
0
 40
28.64999999999996
 50
312.4574666385212
 51
47.54253336147887
  0
ARC
  8
1
 62
7
 10
53.22734043340864
 20
80.3577537250418
 30
0
 40
28.64999999999997
 50
230.7754454946999
 51
309.2245545053002
  0
ARC
  8
1
 62
7
 10
53.22734043340864
 20
80.3577537250418
 30
0
 40
30.24999999999994
 50
230.2537231316585
 51
309.7462768683415
  0
ARC
  8
1
 62
7
 10
53.22734043340864
 20
80.3577537250418
 30
0
 40
30.24999999999993
 50
312.8049112495469
 51
47.19508875045315
  0
ARC
  8
1
 62
7
 10
53.22734043340864
 20
80.3577537250418
 30
0
 40
30.24999999999995
 50
50.2537231316585
 51
129.7462768683415
  0
ARC
  8
1
 62
7
 10
53.22734043340864
 20
80.3577537250418
 30
0
 40
35.39999999999995
 50
313.7089661887553
 51
46.29103381124472
  0
ARC
  8
1
 62
7
 10
53.22734043340864
 20
80.3577537250418
 30
0
 40
35.39999999999998
 50
228.8981466533215
 51
311.1018533466784
  0
ARC
  8
1
 62
7
 10
53.22734043340864
 20
80.3577537250418
 30
0
 40
36.99999999999999
 50
228.5545661057988
 51
311.4454338942012
  0
ARC
  8
1
 62
7
 10
53.22734043340864
 20
80.3577537250418
 30
0
 40
36.99999999999999
 50
313.938378345494
 51
46.06162165450604
  0
ARC
  8
1
 62
7
 10
53.22734043340864
 20
80.3577537250418
 30
0
 40
35.39999999999998
 50
48.89814665332158
 51
131.1018533466785
  0
ARC
  8
1
 62
7
 10
53.22734043340864
 20
80.3577537250418
 30
0
 40
37.00000000000001
 50
48.55456610579883
 51
131.4454338942012
  0
ARC
  8
1
 62
7
 10
53.22734043340864
 20
80.3577537250418
 30
0
 40
43.14999999999998
 50
227.4728500981335
 51
312.5271499018666
  0
ARC
  8
1
 62
7
 10
53.22734043340864
 20
80.3577537250418
 30
0
 40
44.75000000000001
 50
227.2404817854411
 51
312.7595182145589
  0
ARC
  8
1
 62
7
 10
53.22734043340864
 20
80.3577537250418
 30
0
 40
43.14999999999996
 50
314.6612892293491
 51
45.33871077065098
  0
ARC
  8
1
 62
7
 10
53.22734043340864
 20
80.3577537250418
 30
0
 40
44.75000000000001
 50
314.8166977121352
 51
45.18330228786478
  0
ARC
  8
1
 62
7
 10
53.22734043340864
 20
80.3577537250418
 30
0
 40
43.14999999999998
 50
47.47285009813351
 51
132.5271499018665
  0
ARC
  8
1
 62
7
 10
53.22734043340864
 20
80.3577537250418
 30
0
 40
44.75000000000004
 50
47.24048178544115
 51
132.7595182145589
  0
ARC
  8
1
 62
7
 10
94.42734043340863
 20
39.15775372504181
 30
0
 40
2.250000000000003
 50
164.9999999999999
 51
117.2144277208385
  0
ARC
  8
1
 62
7
 10
94.42734043340863
 20
121.5577537250418
 30
0
 40
2.249999999999903
 50
254.9999999999996
 51
199.2144277208391
  0
ARC
  8
1
 62
7
 10
94.42734043340863
 20
121.5577537250418
 30
0
 40
3.849999999999988
 50
255.0000000000002
 51
199.214427720838
  0
ARC
  8
1
 62
7
 10
12.02734043340864
 20
121.5577537250418
 30
0
 40
2.249999999999986
 50
344.9999999999991
 51
297.2144277208379
  0
ARC
  8
1
 62
7
 10
53.22734043332296
 20
80.35775372495441
 30
0
 40
51.00000000012238
 50
44.66989115859337
 51
46.47321715673647
  0
ARC
  8
1
 62
7
 10
53.22734043332296
 20
80.35775372495441
 30
0
 40
48.00000000012236
 50
44.89960369234399
 51
46.81643809265959
  0
ARC
  8
1
 62
7
 10
53.22734043342325
 20
80.3577537250266
 30
0
 40
47.9999999999789
 50
313.1835619073369
 51
315.1003963076583
  0
ARC
  8
1
 62
7
 10
53.22734043338185
 20
80.3577537250688
 30
0
 40
51.00000000003803
 50
313.5267828432624
 51
315.3301088414083
  0
ARC
  8
1
 62
7
 10
53.22734043339402
 20
80.3577537250266
 30
0
 40
47.9999999999789
 50
224.8996036923417
 51
226.8164380926631
  0
ARC
  8
1
 62
7
 10
53.22734043343542
 20
80.3577537250688
 30
0
 40
51.00000000003804
 50
224.6698911585916
 51
226.4732171567377
  0
ARC
  8
1
 62
7
 10
53.22734043349431
 20
80.35775372495441
 30
0
 40
51.0000000001224
 50
133.5267828432635
 51
135.3301088414066
  0
ARC
  8
1
 62
7
 10
53.22734043349431
 20
80.35775372495441
 30
0
 40
48.00000000012237
 50
133.1835619073404
 51
135.100396307656
  0
ARC
  8
1
 62
7
 10
53.22734043340864
 20
80.3577537250418
 30
0
 40
44.75000000000002
 50
136.024336658177
 51
223.975663341823
  0
ARC
  8
1
 62
7
 10
53.22734043340864
 20
80.3577537250418
 30
0
 40
36.99999999999998
 50
136.2389242096506
 51
223.7610757903495
  0
ARC
  8
1
 62
7
 10
53.22734043340864
 20
80.3577537250418
 30
0
 40
43.14999999999998
 50
136.0623232891345
 51
223.9376767108655
  0
ARC
  8
1
 62
7
 10
53.22734043340864
 20
80.3577537250418
 30
0
 40
35.40000000000002
 50
136.294930114017
 51
223.705069885983
  0
ARC
  8
1
 62
7
 10
53.22734043340864
 20
80.3577537250418
 30
0
 40
30.25000000000002
 50
136.5154369705577
 51
223.4845630294422
  0
ARC
  8
1
 62
7
 10
53.22734043340864
 20
80.3577537250418
 30
0
 40
28.65
 50
136.6000901296452
 51
223.3999098703548
  0
ARC
  8
1
 62
7
 10
53.22734043340864
 20
80.3577537250418
 30
0
 40
23.25000000000004
 50
136.9718569100637
 51
223.0281430899362
  0
ARC
  8
1
 62
7
 10
53.22734043340864
 20
80.3577537250418
 30
0
 40
21.64999999999998
 50
137.1176471600536
 51
222.8823528399465
  0
ARC
  8
1
 62
7
 10
53.22734043340864
 20
80.3577537250418
 30
0
 40
16
 50
137.8659839825988
 51
222.1340160174011
  0
ARC
  8
1
 62
7
 10
53.22734043340864
 20
80.3577537250418
 30
0
 40
14.39999999999998
 50
138.1847385367205
 51
221.8152614632796
  0
ARC
  8
1
 62
7
 10
53.22734043340864
 20
80.3577537250418
 30
0
 40
8.500000000000023
 50
140.4005371681348
 51
219.5994628318649
  0
ARC
  8
1
 62
7
 10
53.22734043340864
 20
80.3577537250418
 30
0
 40
6.899999999999983
 50
141.6579628093164
 51
218.3420371906839
  0
ARC
  8
1
 62
7
 10
94.42734043340678
 20
121.5577537250377
 30
0
 40
2.249999999995431
 50
239.999999999988
 51
255.000000000018
  0
ARC
  8
1
 62
7
 10
94.42734043340995
 20
121.5577537250446
 30
0
 40
3.850000000003008
 50
240.0000000000035
 51
254.999999999992
  0
ARC
  8
1
 62
7
 10
12.02734043341018
 20
121.557753725041
 30
0
 40
2.249999999998293
 50
335.0000000000016
 51
345.0000000000089
  0
ARC
  8
1
 62
7
 10
12.02734043340864
 20
121.5577537250418
 30
0
 40
3.850000000000031
 50
335.0000000000001
 51
297.2144277208386
  0
ARC
  8
1
 62
7
 10
12.02734043340864
 20
39.15775372504181
 30
0
 40
2.250000000000006
 50
60.00000000000009
 51
19.21442772083859
  0
ARC
  8
1
 62
7
 10
12.02734043340864
 20
39.15775372504181
 30
0
 40
3.850000000000006
 50
60.00000000000005
 51
19.21442772083877
  0
ARC
  8
1
 62
7
 10
94.42734043340863
 20
39.15775372504181
 30
0
 40
3.849999999999983
 50
154.9999999999999
 51
117.2144277208382
  0
ARC
  8
1
 62
7
 10
94.42734043340575
 20
39.15775372504291
 30
0
 40
2.249999999996934
 50
154.9999999999942
 51
165.000000000008
  0
ARC
  8
1
 62
7
 10
32.59566448489191
 20
80.3577537250418
 30
0
 40
16.79999999999998
 50
311
 51
316.2244033583557
  0
ARC
  8
1
 62
7
 10
32.59566448489191
 20
80.3577537250418
 30
0
 40
16.79999999999999
 50
342.2695653478598
 51
17.73043465214035
  0
ARC
  8
1
 62
7
 10
32.59566448489191
 20
80.3577537250418
 30
0
 40
16.8
 50
17.73043465214035
 51
23.51497877221908
  0
ARC
  8
1
 62
7
 10
32.59566448489191
 20
80.3577537250418
 30
0
 40
16.79999999999999
 50
316.2244033583557
 51
336.4850212277809
  0
ARC
  8
1
 62
7
 10
32.59566448489191
 20
80.3577537250418
 30
0
 40
16.79999999999998
 50
336.4850212277809
 51
342.2695653478598
  0
ARC
  8
1
 62
7
 10
73.85901638192536
 20
80.3577537250418
 30
0
 40
18.39999999999999
 50
199.2910335771639
 51
204.300539765724
  0
ARC
  8
1
 62
7
 10
32.59566448489191
 20
80.3577537250418
 30
0
 40
18.4
 50
317.1761064962798
 51
335.6994602342759
  0
ARC
  8
1
 62
7
 10
73.85901638192536
 20
80.3577537250418
 30
0
 40
18.40000000000001
 50
160.7089664228359
 51
199.2910335771639
  0
ARC
  8
1
 62
7
 10
32.59566448489191
 20
80.3577537250418
 30
0
 40
18.39999999999999
 50
335.6994602342759
 51
340.7089664228361
  0
ARC
  8
1
 62
7
 10
73.85901638192536
 20
80.3577537250418
 30
0
 40
16.80000000000003
 50
156.4850212277806
 51
162.2695653478596
  0
ARC
  8
1
 62
7
 10
73.85901638192536
 20
80.3577537250418
 30
0
 40
16.8
 50
162.2695653478596
 51
197.7304346521402
  0
ARC
  8
1
 62
7
 10
73.85901638192536
 20
80.3577537250418
 30
0
 40
16.79999999999999
 50
136.2244033583556
 51
156.4850212277806
  0
ARC
  8
1
 62
7
 10
73.85901638192536
 20
80.3577537250418
 30
0
 40
16.79999999999999
 50
197.7304346521402
 51
203.5149787722191
  0
ARC
  8
1
 62
7
 10
32.59566448489191
 20
80.3577537250418
 30
0
 40
18.40000000000001
 50
19.29103357716412
 51
24.30053976572409
  0
ARC
  8
1
 62
7
 10
73.85901638192536
 20
80.3577537250418
 30
0
 40
18.39999999999998
 50
137.1761064962797
 51
155.6994602342759
  0
ARC
  8
1
 62
7
 10
32.59566448489191
 20
80.3577537250418
 30
0
 40
18.39999999999998
 50
340.7089664228361
 51
19.29103357716412
  0
ARC
  8
1
 62
7
 10
73.85901638192536
 20
80.3577537250418
 30
0
 40
18.4
 50
155.6994602342759
 51
160.7089664228359
  0
ARC
  8
1
 62
7
 10
32.59566448489191
 20
80.3577537250418
 30
0
 40
16.79999999999998
 50
23.51497877221908
 51
43.77559664164437
  0
ARC
  8
1
 62
7
 10
32.59566448489191
 20
80.3577537250418
 30
0
 40
16.79999999999999
 50
43.77559664164437
 51
49.00000000000014
  0
ARC
  8
1
 62
7
 10
73.85901638192536
 20
80.3577537250418
 30
0
 40
18.4
 50
222.8238935037201
 51
227.9805473730112
  0
ARC
  8
1
 62
7
 10
32.59566448489191
 20
80.3577537250418
 30
0
 40
18.39999999999999
 50
311
 51
312.0194526269887
  0
ARC
  8
1
 62
7
 10
73.85901638192536
 20
80.3577537250418
 30
0
 40
18.39999999999999
 50
204.300539765724
 51
222.8238935037201
  0
ARC
  8
1
 62
7
 10
32.59566448489191
 20
80.3577537250418
 30
0
 40
18.40000000000001
 50
312.0194526269887
 51
317.1761064962798
  0
ARC
  8
1
 62
7
 10
73.85901638192536
 20
80.3577537250418
 30
0
 40
16.80000000000001
 50
130.9999999999999
 51
136.2244033583556
  0
ARC
  8
1
 62
7
 10
73.85901638192536
 20
80.3577537250418
 30
0
 40
16.8
 50
203.5149787722191
 51
223.7755966416443
  0
ARC
  8
1
 62
7
 10
32.59566448489191
 20
80.3577537250418
 30
0
 40
18.4
 50
24.30053976572409
 51
42.82389350372026
  0
ARC
  8
1
 62
7
 10
73.85901638192536
 20
80.3577537250418
 30
0
 40
18.4
 50
132.0194526269887
 51
137.1761064962797
  0
ARC
  8
1
 62
7
 10
32.59566448489191
 20
80.3577537250418
 30
0
 40
18.39999999999998
 50
42.82389350372026
 51
47.98054737301135
  0
ARC
  8
1
 62
7
 10
73.85901638192536
 20
80.3577537250418
 30
0
 40
18.4
 50
131
 51
132.0194526269887
  0
ARC
  8
1
 62
7
 10
16.60716404412078
 20
40.75391026334365
 30
0
 40
2.600000000000001
 50
131
 51
199.2144277208386
  0
ARC
  8
1
 62
7
 10
16.60716404412078
 20
40.75391026334365
 30
0
 40
1.000000000000002
 50
131
 51
199.2144277208379
  0
ARC
  8
1
 62
7
 10
92.20932932706235
 20
43.4708647521456
 30
0
 40
2.599999999999997
 50
228.9999999999992
 51
297.2144277208379
  0
ARC
  8
1
 62
7
 10
92.20932932706235
 20
43.4708647521456
 30
0
 40
1.000000000000004
 50
228.9999999999998
 51
297.214427720838
  0
ARC
  8
1
 62
7
 10
89.84751682269652
 20
119.96159718674
 30
0
 40
2.600000000000008
 50
311.0000000000006
 51
19.21442772083773
  0
ARC
  8
1
 62
7
 10
89.84751682269652
 20
119.96159718674
 30
0
 40
1.000000000000011
 50
310.9999999999988
 51
19.21442772083996
  0
ARC
  8
1
 62
7
 10
14.24535153975498
 20
117.244642697938
 30
0
 40
2.599999999999958
 50
49.00000000000064
 51
117.2144277208395
  0
ARC
  8
1
 62
7
 10
14.24535153975498
 20
117.244642697938
 30
0
 40
0.9999999999999368
 50
48.99999999999743
 51
117.2144277208391
  0
ARC
  8
1
 62
7
 10
73.85901638192536
 20
80.3577537250418
 30
0
 40
16.8
 50
223.7755966416443
 51
229
  0
ARC
  8
1
 62
7
 10
73.85901638192536
 20
80.3577537250418
 30
0
 40
18.39999999999999
 50
227.9805473730112
 51
229
  0
ARC
  8
1
 62
7
 10
32.59566448489191
 20
80.3577537250418
 30
0
 40
18.4
 50
47.98054737301135
 51
48.99999999999999
  0
ARC
  8
1
 62
7
 10
133.9945487053691
 20
36.40775372504008
 30
0
 40
0.799999999999983
 50
270
 51
0
  0
ARC
  8
1
 62
7
 10
133.9945487053691
 20
36.40775372504008
 30
0
 40
0.8000000000000114
 50
180
 51
270
  0
ARC
  8
1
 62
7
 10
133.9945487053691
 20
124.3077537250401
 30
0
 40
0.799999999999983
 50
0
 51
90
  0
ARC
  8
1
 62
7
 10
133.9945487053691
 20
124.3077537250401
 30
0
 40
0.7999999999999972
 50
90
 51
180
  0
ARC
  8
1
 62
7
 10
132.3945487053691
 20
77.58252285714033
 30
0
 40
0.8000000000000114
 50
0
 51
180
  0
ARC
  8
1
 62
7
 10
132.3945487053691
 20
83.13298459293981
 30
0
 40
0.799999999999983
 50
180
 51
0
  0
ARC
  8
1
 62
7
 10
135.7945487053691
 20
36.10775372504007
 30
0
 40
0.8000000000000114
 50
270
 51
0
  0
ARC
  8
1
 62
7
 10
135.7945487053691
 20
36.10775372504007
 30
0
 40
0.799999999999983
 50
180
 51
270
  0
ARC
  8
1
 62
7
 10
135.7945487053691
 20
47.38912457493858
 30
0
 40
0.8000000000000114
 50
0
 51
45.00000000000108
  0
ARC
  8
1
 62
7
 10
132.3945487053691
 20
50.78912457493856
 30
0
 40
0.799999999999983
 50
180
 51
225.0000000000032
  0
ARC
  8
1
 62
7
 10
133.9945487053691
 20
124.3077537250401
 30
0
 40
0.799999999999983
 50
0
 51
90
  0
ARC
  8
1
 62
7
 10
133.9945487053691
 20
124.3077537250401
 30
0
 40
0.7999999999999972
 50
90
 51
180
  0
ARC
  8
1
 62
7
 10
135.7945487053691
 20
124.6077537250401
 30
0
 40
0.8000000000000114
 50
0
 51
90
  0
ARC
  8
1
 62
7
 10
135.7945487053691
 20
124.6077537250401
 30
0
 40
0.7999999999999972
 50
90
 51
180
  0
ARC
  8
1
 62
7
 10
135.7945487053691
 20
113.3263828751416
 30
0
 40
0.8000000000000286
 50
314.9999999999949
 51
0
  0
ARC
  8
1
 62
7
 10
132.3945487053691
 20
109.9263828751416
 30
0
 40
0.7999999999999381
 50
134.9999999999986
 51
180
  0
ENDSEC
  0
EOF
