  0
SECTION
  2
HEADER
  9
$ACADVER
  1
AC1009
  9
$INSBASE
 10
0
 20
0
  9
$EXTMIN
 10
-9.334923166546499
 20
22.9893184808293
  9
$EXTMAX
 10
143.7074664680336
 20
147.265553456142
  9
$LIMMIN
 10
-9.334923166546499
 20
22.9893184808293
  9
$LIMMAX
 10
143.7074664680336
 20
147.265553456142
  9
$VIEWCTR
 10
10
 20
10
  9
$VIEWSIZE
 40
10
  9
$SNAPMODE
 70
0
  9
$SNAPUNIT
 10
1
 20
1
  9
$SNAPBASE
 10
0
 20
0
  9
$SNAPANG
 50
0
  9
$SNAPSTYLE
 70
0
  9
$SNAPISOPAIR
 70
0
  9
$GRIDMODE
 70
0
  9
$GRIDUNIT
 10
0
 20
0
  9
$ORTHOMODE
 70
0
  9
$REGENMODE
 70
1
  9
$FILLMODE
 70
1
  9
$QTEXTMODE
 70
0
  9
$DRAGMODE
 70
2
  9
$LTSCALE
 40
1
  9
$OSMODE
 70
0
  9
$ATTMODE
 70
1
  9
$TEXTSIZE
 40
3.5
  9
$TRACEWID
 40
0.5
  9
$TEXTSTYLE
  7
STANDARD
  9
$CLAYER
  8
0
  9
$CELTYPE
  6
BYLAYER
  9
$CECOLOR
 62
256
  9
$DIMSCALE
 40
1
  9
$DIMASZ
 40
0.18
  9
$DIMEXO
 40
0.0625
  9
$DIMDLI
 40
0.38
  9
$DIMRND
 40
0
  9
$DIMDLE
 40
0
  9
$DIMEXE
 40
0.18
  9
$DIMTP
 40
0
  9
$DIMTM
 40
0
  9
$DIMTXT
 40
0.18
  9
$DIMCEN
 40
0.09
  9
$DIMTSZ
 40
0
  9
$DIMTOL
 70
0
  9
$DIMLIM
 70
0
  9
$DIMTIH
 70
1
  9
$DIMTOH
 70
1
  9
$DIMSE1
 70
0
  9
$DIMSE2
 70
0
  9
$DIMTAD
 70
0
  9
$DIMZIN
 70
0
  9
$DIMBLK
  1

  9
$DIMASO
 70
1
  9
$DIMSHO
 70
1
  9
$DIMPOST
  1

  9
$DIMAPOST
  1

  9
$DIMALT
 70
0
  9
$DIMALTD
 70
2
  9
$DIMALTF
 40
25.4
  9
$DIMLFAC
 40
1
  9
$DIMTOFL
 70
0
  9
$DIMTVP
 40
0
  9
$DIMTIX
 70
0
  9
$DIMSOXD
 70
0
  9
$DIMSAH
 70
0
  9
$DIMBLK1
  1

  9
$DIMBLK2
  1

  9
$DIMSTYLE
  2
*UNNAMED
  9
$DIMCLRD
 70
0
  9
$DIMCLRE
 70
0
  9
$DIMCLRT
 70
0
  9
$DIMTFAC
 40
1
  9
$DIMGAP
 40
0.09
  9
$LUNITS
 70
2
  9
$LUPREC
 70
4
  9
$AXISMODE
 70
0
  9
$AXISUNIT
 10
0
 20
0
  9
$SKETCHINC
 40
0.1
  9
$FILLETRAD
 40
2
  9
$AUNITS
 70
0
  9
$AUPREC
 70
0
  9
$MENU
  1
ACAD
  9
$ELEVATION
 40
0
  9
$THICKNESS
 40
0
  9
$VIEWDIR
 10
0
 20
0
 30
1
  9
$LIMCHECK
 70
0
  9
$BLIPMODE
 70
1
  9
$CHAMFERA
 40
0
  9
$CHAMFERB
 40
0
  9
$FASTZOOM
 70
1
  9
$SKPOLY
 70
0
  9
$ANGBASE
 50
0
  9
$ANGDIR
 70
0
  9
$PDMODE
 70
0
  9
$PDSIZE
 40
0
  9
$PLINEWID
 40
0
  9
$COORDS
 70
2
  0
ENDSEC
  0
SECTION
  2
TABLES
  0
TABLE
  2
DIMSTYLE
 70
0
  0
ENDTAB
  0
TABLE
  2
LTYPE
 70
9
  0
LTYPE
  2
CONTINUOUS
 70
64
  3
Solid line
 72
65
 73
0
 40
0
  0
LTYPE
  2
BORDER
 70
64
  3
__ __ . __ __ .
 72
65
 73
6
 40
7.048004785803031
 49
2.01371565308658
 49
-1.00685782654329
 49
2.01371565308658
 49
-1.00685782654329
 49
0
 49
-1.00685782654329
  0
LTYPE
  2
CENTER
 70
64
  3
____ _ ____ _
 72
65
 73
4
 40
8.054862612346321
 49
5.034289132716451
 49
-1.00685782654329
 49
1.00685782654329
 49
-1.00685782654329
  0
LTYPE
  2
DASHDOT
 70
64
  3
__ . __ . __ .
 72
65
 73
4
 40
4.027431306173161
 49
2.01371565308658
 49
-1.00685782654329
 49
0
 49
-1.00685782654329
  0
LTYPE
  2
DASHED
 70
64
  3
__ __ __ __ __
 72
65
 73
2
 40
3.020573479629871
 49
2.01371565308658
 49
-1.00685782654329
  0
LTYPE
  2
DIVIDE
 70
64
  3
__ . . __ . . 
 72
65
 73
6
 40
5.034289132716451
 49
2.01371565308658
 49
-1.00685782654329
 49
0
 49
-1.00685782654329
 49
0
 49
-1.00685782654329
  0
LTYPE
  2
DOT
 70
64
  3
..............
 72
65
 73
4
 40
2.01371565308658
 49
0
 49
-1.00685782654329
 49
0
 49
-1.00685782654329
  0
LTYPE
  2
HIDDEN
 70
64
  3
_ _ _ _ _ _ _
 72
65
 73
2
 40
1.510286739814935
 49
1.00685782654329
 49
-0.5034289132716451
  0
LTYPE
  2
PHANTOM
 70
64
  3
_____ _ _ _____ _ _ 
 72
65
 73
6
 40
10.0685782654329
 49
5.034289132716451
 49
-1.00685782654329
 49
1.00685782654329
 49
-1.00685782654329
 49
1.00685782654329
 49
-1.00685782654329
  0
ENDTAB
  0
TABLE
  2
LAYER
 70
3
  0
LAYER
  2
1
 70
0
 62
7
  6
CONTINUOUS
  0
LAYER
  2
0
 70
0
 62
7
  6
CONTINUOUS
  0
ENDTAB
  0
TABLE
  2
STYLE
 70
4
  0
STYLE
  2
STANDARD
 70
0
 40
0
 41
1
 50
0
 71
0
 42
3.5
  3
txt
  4

  0
STYLE
  2
SIMPLEX
 70
0
 40
0
 41
1
 50
0
 71
0
 42
3.5
  3
simplex
  4

  0
STYLE
  2
COMPLEX
 70
0
 40
0
 41
1
 50
0
 71
0
 42
3.5
  3
complex
  4

  0
STYLE
  2
ITALIC
 70
0
 40
0
 41
1
 50
0
 71
0
 42
3.5
  3
italic
  4

  0
ENDTAB
  0
TABLE
  2
VIEW
 70
0
  0
ENDTAB
  0
ENDSEC
  0
SECTION
  2
BLOCKS
  0
ENDSEC
  0
SECTION
  2
ENTITIES
  0
LINE
  8
1
 62
7
 10
4.316625413499771
 20
136.1306734173401
 30
0
 11
2.866532954241119
 21
136.8068626361252
 31
0
  0
LINE
  8
1
 62
7
 10
102.1380554533175
 20
34.5848340327435
 30
0
 11
103.5881479125762
 21
33.90864481395839
 31
0
  0
LINE
  8
1
 62
7
 10
2.752340433408641
 20
36.29195152961189
 30
0
 11
1.95234043340864
 21
34.9063108835568
 31
0
  0
LINE
  8
1
 62
7
 10
104.5023404334087
 20
135.8091965665269
 30
0
 11
103.7023404334087
 21
134.4235559204718
 31
0
  0
LINE
  8
1
 62
7
 10
139.7945487051916
 20
132.8950120255902
 30
0
 11
139.7945487051916
 21
129.6577537253872
 31
0
  0
LINE
  8
1
 62
7
 10
138.1945487051916
 20
131.2950120255902
 30
0
 11
138.1945487051916
 21
128.0577537253872
 31
0
  0
LINE
  8
1
 62
7
 10
138.1945487051916
 20
122.4950120255902
 30
0
 11
141.3602341301408
 21
125.6606974505395
 31
0
  0
LINE
  8
1
 62
7
 10
141.5945487051916
 20
137.5077537253872
 30
0
 11
141.5945487051916
 21
126.2263828754887
 31
0
  0
LINE
  8
1
 62
7
 10
136.8288632802424
 20
123.392068300438
 30
0
 11
139.9945487051916
 21
126.5577537253872
 31
0
  0
LINE
  8
1
 62
7
 10
139.9945487051916
 20
129.8577537253872
 30
0
 11
139.9945487051916
 21
130.0230927716549
 31
0
  0
LINE
  8
1
 62
7
 10
139.9945487051916
 20
130.0230927716549
 30
0
 11
139.9945487051916
 21
140.8077537253872
 31
0
  0
LINE
  8
1
 62
2
  6
DASHDOT
 10
143.7074664680336
 20
85.35775372538718
 30
0
 11
133.2921961753216
 21
85.35775372538717
 31
0
  0
LINE
  8
1
 62
7
 10
141.3602341301408
 20
45.05481000023492
 30
0
 11
138.1945487051916
 21
48.22049542518415
 31
0
  0
LINE
  8
1
 62
7
 10
141.5945487051916
 20
41.18912457528569
 30
0
 11
141.5945487051916
 21
29.90775372538722
 31
0
  0
LINE
  8
1
 62
7
 10
139.9945487051916
 20
44.1577537253872
 30
0
 11
136.8288632802424
 21
47.32343915033643
 31
0
  0
LINE
  8
1
 62
7
 10
139.9945487051916
 20
40.69241467911945
 30
0
 11
139.9945487051916
 21
40.8577537253872
 31
0
  0
LINE
  8
1
 62
7
 10
139.9945487051916
 20
29.90775372538722
 30
0
 11
139.9945487051916
 21
40.69241467911945
 31
0
  0
LINE
  8
1
 62
7
 10
138.1945487051916
 20
88.13298459328692
 30
0
 11
138.1945487051916
 21
82.58252285748745
 31
0
  0
LINE
  8
1
 62
7
 10
138.1945487051916
 20
82.58252285748745
 30
0
 11
138.1945487051916
 21
61.62049542518416
 31
0
  0
LINE
  8
1
 62
7
 10
136.5945487051916
 20
88.13298459328692
 30
0
 11
136.5945487051916
 21
109.4263828754887
 31
0
  0
LINE
  8
1
 62
7
 10
136.5945487051916
 20
82.58252285748745
 30
0
 11
136.5945487051916
 21
61.28912457528567
 31
0
  0
LINE
  8
1
 62
2
  6
DASHDOT
 10
0.8273404334086401
 20
34.48436642906812
 30
0
 11
0.8273404334086401
 21
31.50993980591461
 31
0
  0
LINE
  8
1
 62
2
  6
DASHDOT
 10
-0.5029232571746611
 20
32.9577537250418
 30
0
 11
2.17633125833764
 21
32.9577537250418
 31
0
  0
LINE
  8
1
 62
2
  6
DASHDOT
 10
105.6273404334086
 20
34.11482844815389
 30
0
 11
105.6273404334086
 21
31.82115161171282
 31
0
  0
LINE
  8
1
 62
2
  6
DASHDOT
 10
104.3511240423277
 20
32.9577537250418
 30
0
 11
106.6745888896317
 21
32.9577537250418
 31
0
  0
LINE
  8
1
 62
2
  6
DASHDOT
 10
0.8273404334086401
 20
139.1238567272508
 30
0
 11
0.8273404334086401
 21
136.4441855962018
 31
0
  0
LINE
  8
1
 62
2
  6
DASHDOT
 10
-0.3173210356444578
 20
137.7577537250418
 30
0
 11
2.149042940694041
 21
137.7577537250418
 31
0
  0
LINE
  8
1
 62
2
  6
DASHDOT
 10
107.1627630676553
 20
137.7577537250418
 30
0
 11
104.3056379261232
 21
137.7577537250418
 31
0
  0
LINE
  8
1
 62
2
  6
DASHDOT
 10
105.6273404334086
 20
136.6192636600478
 30
0
 11
105.6273404334086
 21
139.1527045839238
 31
0
  0
LINE
  8
1
 62
2
  6
DASHDOT
 10
105.6273404334086
 20
31.50993980591461
 30
0
 11
105.6273404334086
 21
31.82115161171282
 31
0
  0
LINE
  8
1
 62
2
  6
DASHDOT
 10
104.2783496084796
 20
32.9577537250418
 30
0
 11
106.9576041239919
 21
32.9577537250418
 31
0
  0
LINE
  8
1
 62
2
  6
DASHDOT
 10
105.6273404334086
 20
136.4441855962018
 30
0
 11
105.6273404334086
 21
136.6192636600478
 31
0
  0
LINE
  8
1
 62
2
  6
DASHDOT
 10
104.3056379261232
 20
137.7577537250418
 30
0
 11
106.7720019024617
 21
137.7577537250418
 31
0
  0
LINE
  8
1
 62
2
  6
DASHDOT
 10
-0.3173210356444578
 20
137.7577537250418
 30
0
 11
-4.788763776843489
 21
137.7577537250418
 31
0
  0
LINE
  8
1
 62
2
  6
DASHDOT
 10
2.149042940694041
 20
137.7577537250418
 30
0
 11
5.522764458584302
 21
137.7577537250418
 31
0
  0
LINE
  8
1
 62
2
  6
DASHDOT
 10
0.8273404334086401
 20
136.4441855962018
 30
0
 11
0.8273404334086401
 21
132.90021361209
 31
0
  0
LINE
  8
1
 62
2
  6
DASHDOT
 10
105.6273404334086
 20
136.6192636600478
 30
0
 11
105.6273404334086
 21
132.520096230324
 31
0
  0
LINE
  8
1
 62
2
  6
DASHDOT
 10
105.6273404334086
 20
136.6192636600478
 30
0
 11
105.6273404334086
 21
139.1238567272508
 31
0
  0
LINE
  8
1
 62
2
  6
DASHDOT
 10
107.1627630676553
 20
137.7577537250418
 30
0
 11
111.257894557436
 21
137.7577537250418
 31
0
  0
LINE
  8
1
 62
2
  6
DASHDOT
 10
104.3056379261232
 20
137.7577537250418
 30
0
 11
100.6302772412225
 21
137.7577537250418
 31
0
  0
LINE
  8
1
 62
2
  6
DASHDOT
 10
104.3056379261232
 20
137.7577537250418
 30
0
 11
104.221641995109
 21
137.7577537250418
 31
0
  0
LINE
  8
1
 62
2
  6
DASHDOT
 10
106.9576041239919
 20
32.9577537250418
 30
0
 11
110.8699424890525
 21
32.9577537250418
 31
0
  0
LINE
  8
1
 62
2
  6
DASHDOT
 10
104.2783496084796
 20
32.9577537250418
 30
0
 11
99.90894574917181
 21
32.9577537250418
 31
0
  0
LINE
  8
1
 62
2
  6
DASHDOT
 10
105.6273404334086
 20
34.48436642906812
 30
0
 11
105.6273404334086
 21
38.50916941256669
 31
0
  0
LINE
  8
1
 62
2
  6
DASHDOT
 10
105.6273404334086
 20
31.82115161171282
 30
0
 11
105.6273404334086
 21
27.29854334734701
 31
0
  0
LINE
  8
1
 62
2
  6
DASHDOT
 10
105.6273404334086
 20
31.82115161171282
 30
0
 11
105.6273404334086
 21
34.48436642906812
 31
0
  0
LINE
  8
1
 62
2
  6
DASHDOT
 10
2.17633125833764
 20
32.9577537250418
 30
0
 11
5.7491598856774
 21
32.9577537250418
 31
0
  0
LINE
  8
1
 62
2
  6
DASHDOT
 10
-0.5029232571746611
 20
32.9577537250418
 30
0
 11
-4.703392708870449
 21
32.9577537250418
 31
0
  0
LINE
  8
1
 62
2
  6
DASHDOT
 10
0.8273404334086401
 20
34.48436642906812
 30
0
 11
0.8273404334086401
 21
38.826339139783
 31
0
  0
LINE
  8
1
 62
2
  6
DASHDOT
 10
0.8273404334086401
 20
31.50993980591461
 30
0
 11
0.8273404334086401
 21
26.2260017655336
 31
0
  0
LINE
  8
1
 62
7
 10
102.7532702980719
 20
134.1993522781608
 30
0
 11
98.2600756817609
 21
130.2934777877744
 31
0
  0
LINE
  8
1
 62
7
 10
101.703575851687
 20
135.4068876065172
 30
0
 11
97.10362685187337
 21
131.4082129463482
 31
0
  0
LINE
  8
1
 62
7
 10
9.351054014943905
 20
131.4082129463482
 30
0
 11
4.75110501513025
 21
135.4068876065172
 31
0
  0
LINE
  8
1
 62
7
 10
8.194605185056357
 20
130.2934777877744
 30
0
 11
3.70141056874548
 21
134.1993522781607
 31
0
  0
LINE
  8
1
 62
7
 10
8.194605185056375
 20
40.42202966230919
 30
0
 11
3.701410568745462
 21
36.51615517192285
 31
0
  0
LINE
  8
1
 62
7
 10
9.351054014943902
 20
39.30729450373541
 30
0
 11
4.751105015130271
 21
35.30861984356642
 31
0
  0
LINE
  8
1
 62
7
 10
101.703575851687
 20
35.30861984356642
 30
0
 11
97.10362685187339
 21
39.30729450373542
 31
0
  0
LINE
  8
1
 62
7
 10
102.7532702980718
 20
36.51615517192282
 30
0
 11
98.26007568176091
 21
40.4220296623092
 31
0
  0
LINE
  8
1
 62
7
 10
138.1945487051916
 20
109.0950120255902
 30
0
 11
138.1945487051916
 21
88.13298459328692
 31
0
  0
LINE
  8
1
 62
7
 10
139.7945487051916
 20
110.6950120255903
 30
0
 11
139.7945487051916
 21
60.02049542518412
 31
0
  0
LINE
  8
1
 62
7
 10
138.1945487051916
 20
42.65775372538721
 30
0
 11
138.1945487051916
 21
39.42049542518416
 31
0
  0
LINE
  8
1
 62
7
 10
139.7945487051916
 20
41.05775372538722
 30
0
 11
139.7945487051916
 21
37.82049542518412
 31
0
  0
LINE
  8
1
 62
7
 10
138.1945487051916
 20
139.3577537253872
 30
0
 11
138.1945487051916
 21
128.0577537253872
 31
0
  0
LINE
  8
1
 62
7
 10
139.7945487051916
 20
139.3577537253872
 30
0
 11
139.7945487051916
 21
129.6577537253872
 31
0
  0
LINE
  8
1
 62
7
 10
97.10362685187337
 20
131.4082129463482
 30
0
 11
96.11321615381436
 21
130.5472620615342
 31
0
  0
LINE
  8
1
 62
7
 10
62.79480566654219
 20
69.13149775025221
 30
0
 11
64.82087715640758
 21
67.37026067424468
 31
0
  0
LINE
  8
1
 62
7
 10
98.26007568176091
 20
40.4220296623092
 30
0
 11
97.26345990564569
 21
41.28837453918459
 31
0
  0
LINE
  8
1
 62
7
 10
63.84450011292699
 20
100.376474371475
 30
0
 11
66.17139696476878
 21
102.3992149450473
 31
0
  0
LINE
  8
1
 62
7
 10
9.351054014943902
 20
39.30729450373541
 30
0
 11
10.34146471300291
 21
40.16824538854942
 31
0
  0
LINE
  8
1
 62
7
 10
43.65987520027509
 20
101.5840096998314
 30
0
 11
41.63380371040972
 21
103.3452467758389
 31
0
  0
LINE
  8
1
 62
7
 10
8.194605185056357
 20
130.2934777877744
 30
0
 11
9.19122096117157
 21
129.427132910899
 31
0
  0
LINE
  8
1
 62
7
 10
42.61018075389027
 20
70.33903307860862
 30
0
 11
40.28328390204851
 21
68.31629250503626
 31
0
  0
LINE
  8
1
 62
7
 10
92.70009387316618
 20
127.5802801284216
 30
0
 11
91.48588059909595
 21
126.524780632392
 31
0
  0
LINE
  8
1
 62
7
 10
13.75458699365109
 20
127.5802801284216
 30
0
 11
12.2373268381876
 21
128.899214259383
 31
0
  0
LINE
  8
1
 62
7
 10
91.48588059909595
 20
126.524780632392
 30
0
 11
87.3467759881582
 21
122.9267118876698
 31
0
  0
LINE
  8
1
 62
7
 10
14.96880026772134
 20
126.524780632392
 30
0
 11
13.75458699365109
 21
127.5802801284216
 31
0
  0
LINE
  8
1
 62
7
 10
87.3467759881582
 20
122.9267118876698
 30
0
 11
86.13052217865662
 21
121.8694385812516
 31
0
  0
LINE
  8
1
 62
7
 10
19.10790487865908
 20
122.9267118876698
 30
0
 11
14.96880026772134
 21
126.524780632392
 31
0
  0
LINE
  8
1
 62
7
 10
86.13052217865662
 20
121.8694385812516
 30
0
 11
81.8304274341084
 21
118.1314232484626
 31
0
  0
LINE
  8
1
 62
7
 10
20.32415868816067
 20
121.8694385812516
 30
0
 11
19.10790487865908
 21
122.9267118876698
 31
0
  0
LINE
  8
1
 62
7
 10
81.8304274341084
 20
118.1314232484626
 30
0
 11
80.61091255864734
 21
117.0713151406547
 31
0
  0
LINE
  8
1
 62
7
 10
24.62425343270888
 20
118.1314232484626
 30
0
 11
20.32415868816067
 21
121.8694385812516
 31
0
  0
LINE
  8
1
 62
7
 10
80.61091255864734
 20
117.0713151406547
 30
0
 11
76.67838678647178
 21
113.6528226407819
 31
0
  0
LINE
  8
1
 62
7
 10
25.84376830816995
 20
117.0713151406547
 30
0
 11
24.62425343270888
 21
118.1314232484626
 31
0
  0
LINE
  8
1
 62
7
 10
76.67838678647178
 20
113.6528226407819
 30
0
 11
75.45384401503208
 21
112.5883438496807
 31
0
  0
LINE
  8
1
 62
7
 10
29.77629408034551
 20
113.6528226407819
 30
0
 11
25.84376830816995
 21
117.0713151406547
 31
0
  0
LINE
  8
1
 62
7
 10
75.45384401503208
 20
112.5883438496807
 30
0
 11
71.30713317646523
 21
108.9836631121557
 31
0
  0
LINE
  8
1
 62
7
 10
31.00083685178522
 20
112.5883438496807
 30
0
 11
29.77629408034551
 21
113.6528226407819
 31
0
  0
LINE
  8
1
 62
7
 10
71.30713317646523
 20
108.9836631121557
 30
0
 11
70.07305781120954
 21
107.9108977636732
 31
0
  0
LINE
  8
1
 62
7
 10
35.14754769035204
 20
108.9836631121557
 30
0
 11
31.00083685178522
 21
112.5883438496807
 31
0
  0
LINE
  8
1
 62
7
 10
70.07305781120954
 20
107.9108977636732
 30
0
 11
66.07465280537542
 21
104.4351373196836
 31
0
  0
LINE
  8
1
 62
7
 10
36.38162305560774
 20
107.9108977636732
 30
0
 11
35.14754769035204
 21
108.9836631121557
 31
0
  0
LINE
  8
1
 62
7
 10
66.07465280537542
 20
104.4351373196836
 30
0
 11
64.82087715640756
 21
103.3452467758389
 31
0
  0
LINE
  8
1
 62
7
 10
40.38002806144186
 20
104.4351373196836
 30
0
 11
36.38162305560774
 21
107.9108977636732
 31
0
  0
LINE
  8
1
 62
7
 10
64.82087715640756
 20
103.3452467758389
 30
0
 11
62.79480566654219
 21
101.5840096998314
 31
0
  0
LINE
  8
1
 62
7
 10
41.63380371040972
 20
103.3452467758389
 30
0
 11
40.38002806144186
 21
104.4351373196836
 31
0
  0
LINE
  8
1
 62
7
 10
40.28328390204849
 20
102.3992149450473
 30
0
 11
42.61018075389026
 21
100.376474371475
 31
0
  0
LINE
  8
1
 62
7
 10
40.28328390204851
 20
68.31629250503626
 30
0
 11
39.05162525348011
 21
67.2456279763191
 31
0
  0
LINE
  8
1
 62
7
 10
39.0516252534801
 20
103.4698794737645
 30
0
 11
40.28328390204849
 21
102.3992149450473
 31
0
  0
LINE
  8
1
 62
7
 10
39.05162525348011
 20
67.2456279763191
 30
0
 11
35.10625073861849
 21
63.81596623483176
 31
0
  0
LINE
  8
1
 62
7
 10
35.10625073861847
 20
106.8995412152518
 30
0
 11
39.0516252534801
 21
103.4698794737645
 31
0
  0
LINE
  8
1
 62
7
 10
35.10625073861849
 20
63.81596623483176
 30
0
 11
33.88471187495146
 21
62.7540987009189
 31
0
  0
LINE
  8
1
 62
7
 10
33.88471187495144
 20
107.9614087491647
 30
0
 11
35.10625073861847
 21
106.8995412152518
 31
0
  0
LINE
  8
1
 62
7
 10
33.88471187495146
 20
62.7540987009189
 30
0
 11
29.77155710087354
 21
59.17858780522747
 31
0
  0
LINE
  8
1
 62
7
 10
29.77155710087351
 20
111.5369196448561
 30
0
 11
33.88471187495144
 21
107.9614087491647
 31
0
  0
LINE
  8
1
 62
7
 10
29.77155710087354
 20
59.17858780522747
 30
0
 11
28.55499861295428
 21
58.12104964590149
 31
0
  0
LINE
  8
1
 62
7
 10
28.55499861295426
 20
112.5944578041821
 30
0
 11
29.77155710087351
 21
111.5369196448561
 31
0
  0
LINE
  8
1
 62
7
 10
28.55499861295428
 20
58.12104964590149
 30
0
 11
24.6439226630042
 21
54.7212031920179
 31
0
  0
LINE
  8
1
 62
7
 10
24.64392266300418
 20
115.9943042580657
 30
0
 11
28.55499861295426
 21
112.5944578041821
 31
0
  0
LINE
  8
1
 62
7
 10
24.6439226630042
 20
54.7212031920179
 30
0
 11
23.43001324965931
 21
53.66596783808691
 31
0
  0
LINE
  8
1
 62
7
 10
23.43001324965929
 20
117.0495396119967
 30
0
 11
24.64392266300418
 21
115.9943042580657
 31
0
  0
LINE
  8
1
 62
7
 10
23.43001324965931
 20
53.66596783808691
 30
0
 11
19.14673765145336
 21
49.9425731661546
 31
0
  0
LINE
  8
1
 62
7
 10
19.14673765145332
 20
120.772934283929
 30
0
 11
23.43001324965929
 21
117.0495396119967
 31
0
  0
LINE
  8
1
 62
7
 10
19.14673765145336
 20
49.9425731661546
 30
0
 11
17.93455466289681
 21
48.88883857039595
 31
0
  0
LINE
  8
1
 62
7
 10
17.93455466289678
 20
121.8266688796876
 30
0
 11
19.14673765145332
 21
120.772934283929
 31
0
  0
LINE
  8
1
 62
7
 10
17.93455466289681
 20
48.88883857039595
 30
0
 11
13.80755210246629
 21
45.3012899776801
 31
0
  0
LINE
  8
1
 62
7
 10
13.80755210246627
 20
125.4142174724035
 30
0
 11
17.93455466289678
 21
121.8266688796876
 31
0
  0
LINE
  8
1
 62
7
 10
13.80755210246629
 20
45.3012899776801
 30
0
 11
12.59645269636868
 21
44.24849732578234
 31
0
  0
LINE
  8
1
 62
7
 10
12.59645269636865
 20
126.4670101243012
 30
0
 11
13.80755210246627
 21
125.4142174724035
 31
0
  0
LINE
  8
1
 62
7
 10
12.59645269636868
 20
44.24849732578234
 30
0
 11
11.08284775340315
 21
42.93274062256931
 31
0
  0
LINE
  8
1
 62
7
 10
13.75458699365109
 20
43.13522732166195
 30
0
 11
14.96880026772134
 21
44.19072681769164
 31
0
  0
LINE
  8
1
 62
7
 10
92.7000938731662
 20
43.13522732166196
 30
0
 11
94.21735402862967
 21
41.81629319070057
 31
0
  0
LINE
  8
1
 62
7
 10
14.96880026772134
 20
44.19072681769164
 30
0
 11
19.10790487865908
 21
47.78879556241381
 31
0
  0
LINE
  8
1
 62
7
 10
91.48588059909594
 20
44.19072681769166
 30
0
 11
92.7000938731662
 21
43.13522732166196
 31
0
  0
LINE
  8
1
 62
7
 10
19.10790487865908
 20
47.78879556241381
 30
0
 11
20.32415868816067
 21
48.846068868832
 31
0
  0
LINE
  8
1
 62
7
 10
87.3467759881582
 20
47.78879556241382
 30
0
 11
91.48588059909594
 21
44.19072681769166
 31
0
  0
LINE
  8
1
 62
7
 10
20.32415868816067
 20
48.846068868832
 30
0
 11
24.62425343270887
 21
52.58408420162101
 31
0
  0
LINE
  8
1
 62
7
 10
86.13052217865662
 20
48.84606886883201
 30
0
 11
87.3467759881582
 21
47.78879556241382
 31
0
  0
LINE
  8
1
 62
7
 10
24.62425343270887
 20
52.58408420162101
 30
0
 11
25.84376830816993
 21
53.64419230942892
 31
0
  0
LINE
  8
1
 62
7
 10
81.83042743410842
 20
52.58408420162102
 30
0
 11
86.13052217865662
 21
48.84606886883201
 31
0
  0
LINE
  8
1
 62
7
 10
25.84376830816993
 20
53.64419230942892
 30
0
 11
29.7762940803455
 21
57.06268480930166
 31
0
  0
LINE
  8
1
 62
7
 10
80.61091255864736
 20
53.64419230942893
 30
0
 11
81.83042743410842
 21
52.58408420162102
 31
0
  0
LINE
  8
1
 62
7
 10
29.7762940803455
 20
57.06268480930166
 30
0
 11
31.00083685178521
 21
58.12716360040292
 31
0
  0
LINE
  8
1
 62
7
 10
76.67838678647178
 20
57.06268480930167
 30
0
 11
80.61091255864736
 21
53.64419230942893
 31
0
  0
LINE
  8
1
 62
7
 10
31.00083685178521
 20
58.12716360040292
 30
0
 11
35.14754769035204
 21
61.73184433792788
 31
0
  0
LINE
  8
1
 62
7
 10
75.45384401503209
 20
58.12716360040292
 30
0
 11
76.67838678647178
 21
57.06268480930167
 31
0
  0
LINE
  8
1
 62
7
 10
35.14754769035204
 20
61.73184433792788
 30
0
 11
36.38162305560774
 21
62.80460968641037
 31
0
  0
LINE
  8
1
 62
7
 10
71.30713317646524
 20
61.73184433792788
 30
0
 11
75.45384401503209
 21
58.12716360040292
 31
0
  0
LINE
  8
1
 62
7
 10
36.38162305560774
 20
62.80460968641037
 30
0
 11
40.38002806144186
 21
66.28037013039997
 31
0
  0
LINE
  8
1
 62
7
 10
70.07305781120955
 20
62.80460968641037
 30
0
 11
71.30713317646524
 21
61.73184433792788
 31
0
  0
LINE
  8
1
 62
7
 10
40.38002806144186
 20
66.28037013039997
 30
0
 11
41.63380371040972
 21
67.37026067424468
 31
0
  0
LINE
  8
1
 62
7
 10
66.07465280537544
 20
66.28037013039999
 30
0
 11
70.07305781120955
 21
62.80460968641037
 31
0
  0
LINE
  8
1
 62
7
 10
41.63380371040972
 20
67.37026067424468
 30
0
 11
43.65987520027509
 21
69.13149775025221
 31
0
  0
LINE
  8
1
 62
7
 10
64.82087715640758
 20
67.37026067424468
 30
0
 11
66.07465280537544
 21
66.28037013039999
 31
0
  0
LINE
  8
1
 62
7
 10
93.85822817044861
 20
44.24849732578234
 30
0
 11
92.64712876435098
 21
45.30128997768011
 31
0
  0
LINE
  8
1
 62
7
 10
93.8582281704486
 20
126.4670101243013
 30
0
 11
95.37183311341414
 21
127.7827668275143
 31
0
  0
LINE
  8
1
 62
7
 10
92.64712876435098
 20
45.30128997768011
 30
0
 11
88.52012620392047
 21
48.88883857039595
 31
0
  0
LINE
  8
1
 62
7
 10
92.64712876435098
 20
125.4142174724035
 30
0
 11
93.8582281704486
 21
126.4670101243013
 31
0
  0
LINE
  8
1
 62
7
 10
88.52012620392047
 20
48.88883857039595
 30
0
 11
87.30794321536392
 21
49.9425731661546
 31
0
  0
LINE
  8
1
 62
7
 10
88.52012620392046
 20
121.8266688796876
 30
0
 11
92.64712876435098
 21
125.4142174724035
 31
0
  0
LINE
  8
1
 62
7
 10
87.30794321536392
 20
49.9425731661546
 30
0
 11
83.02466761715796
 21
53.6659678380869
 31
0
  0
LINE
  8
1
 62
7
 10
87.30794321536392
 20
120.772934283929
 30
0
 11
88.52012620392046
 21
121.8266688796876
 31
0
  0
LINE
  8
1
 62
7
 10
83.02466761715796
 20
53.6659678380869
 30
0
 11
81.81075820381308
 21
54.7212031920179
 31
0
  0
LINE
  8
1
 62
7
 10
83.02466761715796
 20
117.0495396119967
 30
0
 11
87.30794321536392
 21
120.772934283929
 31
0
  0
LINE
  8
1
 62
7
 10
81.81075820381308
 20
54.7212031920179
 30
0
 11
77.89968225386301
 21
58.12104964590149
 31
0
  0
LINE
  8
1
 62
7
 10
81.81075820381308
 20
115.9943042580657
 30
0
 11
83.02466761715796
 21
117.0495396119967
 31
0
  0
LINE
  8
1
 62
7
 10
77.89968225386301
 20
58.12104964590149
 30
0
 11
76.68312376594375
 21
59.17858780522747
 31
0
  0
LINE
  8
1
 62
7
 10
77.89968225386302
 20
112.5944578041821
 30
0
 11
81.81075820381308
 21
115.9943042580657
 31
0
  0
LINE
  8
1
 62
7
 10
76.68312376594375
 20
59.17858780522747
 30
0
 11
72.56996899186582
 21
62.7540987009189
 31
0
  0
LINE
  8
1
 62
7
 10
76.68312376594376
 20
111.5369196448561
 30
0
 11
77.89968225386302
 21
112.5944578041821
 31
0
  0
LINE
  8
1
 62
7
 10
72.56996899186582
 20
62.7540987009189
 30
0
 11
71.34843012819879
 21
63.81596623483175
 31
0
  0
LINE
  8
1
 62
7
 10
72.56996899186584
 20
107.9614087491647
 30
0
 11
76.68312376594376
 21
111.5369196448561
 31
0
  0
LINE
  8
1
 62
7
 10
71.34843012819879
 20
63.81596623483175
 30
0
 11
67.40305561333716
 21
67.24562797631909
 31
0
  0
LINE
  8
1
 62
7
 10
71.3484301281988
 20
106.8995412152519
 30
0
 11
72.56996899186584
 21
107.9614087491647
 31
0
  0
LINE
  8
1
 62
7
 10
67.40305561333716
 20
67.24562797631909
 30
0
 11
66.17139696476876
 21
68.31629250503625
 31
0
  0
LINE
  8
1
 62
7
 10
67.40305561333716
 20
103.4698794737645
 30
0
 11
71.3484301281988
 21
106.8995412152519
 31
0
  0
LINE
  8
1
 62
7
 10
66.17139696476876
 20
68.31629250503625
 30
0
 11
63.84450011292701
 21
70.33903307860862
 31
0
  0
LINE
  8
1
 62
7
 10
66.17139696476878
 20
102.3992149450473
 30
0
 11
67.40305561333716
 21
103.4698794737645
 31
0
  0
LINE
  8
1
 62
2
  6
DASHDOT
 10
-9.334923166546499
 20
85.3577537250418
 30
0
 11
116.215939859795
 21
85.3577537250418
 31
0
  0
LINE
  8
1
 62
2
  6
DASHDOT
 10
53.22734043340864
 20
147.265553456142
 30
0
 11
53.22734043340864
 21
22.9893184808293
 31
0
  0
LINE
  8
1
 62
7
 10
97.26345990564569
 20
129.427132910899
 30
0
 11
98.2600756817609
 21
130.2934777877744
 31
0
  0
LINE
  8
1
 62
7
 10
96.11321615381436
 20
130.5472620615342
 30
0
 11
94.21735402862967
 21
128.899214259383
 31
0
  0
LINE
  8
1
 62
7
 10
95.37183311341414
 20
127.7827668275143
 30
0
 11
97.26345990564569
 21
129.427132910899
 31
0
  0
LINE
  8
1
 62
7
 10
94.21735402862967
 20
128.899214259383
 30
0
 11
92.70009387316618
 21
127.5802801284216
 31
0
  0
LINE
  8
1
 62
7
 10
10.34146471300291
 20
130.5472620615342
 30
0
 11
9.351054014943905
 21
131.4082129463482
 31
0
  0
LINE
  8
1
 62
7
 10
9.19122096117157
 20
129.427132910899
 30
0
 11
11.08284775340311
 21
127.7827668275143
 31
0
  0
LINE
  8
1
 62
7
 10
12.2373268381876
 20
128.899214259383
 30
0
 11
10.34146471300291
 21
130.5472620615342
 31
0
  0
LINE
  8
1
 62
7
 10
11.08284775340311
 20
127.7827668275143
 30
0
 11
12.59645269636865
 21
126.4670101243012
 31
0
  0
LINE
  8
1
 62
7
 10
9.191220961171608
 20
41.28837453918458
 30
0
 11
8.194605185056375
 21
40.42202966230919
 31
0
  0
LINE
  8
1
 62
7
 10
10.34146471300291
 20
40.16824538854942
 30
0
 11
12.23732683818762
 21
41.81629319070057
 31
0
  0
LINE
  8
1
 62
7
 10
11.08284775340315
 20
42.93274062256931
 30
0
 11
9.191220961171608
 21
41.28837453918458
 31
0
  0
LINE
  8
1
 62
7
 10
12.23732683818762
 20
41.81629319070057
 30
0
 11
13.75458699365109
 21
43.13522732166195
 31
0
  0
LINE
  8
1
 62
7
 10
94.21735402862967
 20
41.81629319070057
 30
0
 11
96.11321615381438
 21
40.16824538854942
 31
0
  0
LINE
  8
1
 62
7
 10
95.37183311341416
 20
42.93274062256931
 30
0
 11
93.85822817044861
 21
44.24849732578234
 31
0
  0
LINE
  8
1
 62
7
 10
96.11321615381438
 20
40.16824538854942
 30
0
 11
97.10362685187339
 21
39.30729450373542
 31
0
  0
LINE
  8
1
 62
7
 10
97.26345990564569
 20
41.28837453918459
 30
0
 11
95.37183311341416
 21
42.93274062256931
 31
0
  0
LINE
  8
1
 62
7
 10
136.5945487051916
 20
61.28912457528567
 30
0
 11
136.5945487051916
 21
47.88912457528566
 31
0
  0
LINE
  8
1
 62
7
 10
138.1945487051916
 20
61.62049542518416
 30
0
 11
138.1945487051916
 21
48.22049542518415
 31
0
  0
LINE
  8
1
 62
7
 10
139.7945487051916
 20
60.02049542518412
 30
0
 11
139.7945487051916
 21
46.62049542518412
 31
0
  0
LINE
  8
1
 62
7
 10
136.5945487051916
 20
109.4263828754887
 30
0
 11
136.5945487051916
 21
122.8263828754887
 31
0
  0
LINE
  8
1
 62
7
 10
138.1945487051916
 20
109.0950120255902
 30
0
 11
138.1945487051916
 21
122.4950120255902
 31
0
  0
LINE
  8
1
 62
7
 10
139.7945487051916
 20
110.6950120255903
 30
0
 11
139.7945487051916
 21
124.0950120255903
 31
0
  0
LINE
  8
1
 62
7
 10
139.7945487051916
 20
28.35775372538723
 30
0
 11
139.7945487051916
 21
41.05775372538722
 31
0
  0
LINE
  8
1
 62
7
 10
138.1945487051916
 20
28.35775372538723
 30
0
 11
138.1945487051916
 21
42.65775372538721
 31
0
  0
LINE
  8
1
 62
7
 10
138.1945487051916
 20
139.3577537253872
 30
0
 11
138.1945487051916
 21
142.3577537253872
 31
0
  0
LINE
  8
1
 62
7
 10
139.7945487051916
 20
139.3577537253872
 30
0
 11
139.7945487051916
 21
142.3577537253872
 31
0
  0
LINE
  8
1
 62
7
 10
141.5945487051916
 20
41.18912457528569
 30
0
 11
141.5945487051916
 21
44.48912457528569
 31
0
  0
LINE
  8
1
 62
7
 10
139.9945487051916
 20
40.69241467911945
 30
0
 11
139.9945487051916
 21
44.1577537253872
 31
0
  0
LINE
  8
1
 62
7
 10
139.7945487051916
 20
41.05775372538722
 30
0
 11
139.7945487051916
 21
43.31710045193744
 31
0
  0
LINE
  8
1
 62
7
 10
138.1945487051916
 20
42.65775372538721
 30
0
 11
138.1945487051916
 21
44.92049542518416
 31
0
  0
LINE
  8
1
 62
7
 10
141.5945487051916
 20
137.5077537253872
 30
0
 11
141.5945487051916
 21
140.8077537253872
 31
0
  0
LINE
  8
1
 62
7
 10
139.9945487051916
 20
129.8577537253872
 30
0
 11
139.9945487051916
 21
126.5577537253872
 31
0
  0
LINE
  8
1
 62
7
 10
139.7945487051916
 20
129.6577537253872
 30
0
 11
139.7945487051916
 21
127.4076619000067
 31
0
  0
LINE
  8
1
 62
7
 10
138.1945487051916
 20
128.0577537253872
 30
0
 11
138.1945487051916
 21
125.7950120255902
 31
0
  0
LINE
  8
1
 62
7
 10
138.1945487051916
 20
124.7577537253872
 30
0
 11
138.1945487051916
 21
125.7950120255902
 31
0
  0
LINE
  8
1
 62
7
 10
139.7945487051916
 20
126.3577537253872
 30
0
 11
139.7945487051916
 21
127.4076619000067
 31
0
  0
LINE
  8
1
 62
7
 10
138.1945487051916
 20
45.95775372538722
 30
0
 11
138.1945487051916
 21
44.92049542518416
 31
0
  0
LINE
  8
1
 62
7
 10
139.7945487051916
 20
44.35775372538718
 30
0
 11
139.7945487051916
 21
43.31710045193744
 31
0
  0
ARC
  8
1
 62
7
 10
105.6273404334057
 20
32.95775372504291
 30
0
 40
2.249999999996853
 50
154.9999999999935
 51
165.0000000000079
  0
ARC
  8
1
 62
7
 10
105.6273404334086
 20
32.9577537250418
 30
0
 40
3.850000000000002
 50
154.9999999999999
 51
117.214427720838
  0
ARC
  8
1
 62
7
 10
0.8273404334086401
 20
32.9577537250418
 30
0
 40
3.850000000000006
 50
60.00000000000003
 51
19.21442772083879
  0
ARC
  8
1
 62
7
 10
0.8273404334086401
 20
32.9577537250418
 30
0
 40
2.250000000000012
 50
60.00000000000019
 51
19.21442772083892
  0
ARC
  8
1
 62
7
 10
0.8273404334086401
 20
137.7577537250418
 30
0
 40
3.85000000000003
 50
335.0000000000001
 51
297.2144277208388
  0
ARC
  8
1
 62
7
 10
0.8273404334101819
 20
137.757753725041
 30
0
 40
2.249999999998289
 50
335.0000000000016
 51
345.0000000000089
  0
ARC
  8
1
 62
7
 10
105.62734043341
 20
137.7577537250446
 30
0
 40
3.850000000002996
 50
240.0000000000034
 51
254.9999999999909
  0
ARC
  8
1
 62
7
 10
105.6273404334068
 20
137.7577537250377
 30
0
 40
2.249999999995417
 50
239.9999999999886
 51
255.0000000000184
  0
ARC
  8
1
 62
7
 10
0.8273404334086401
 20
137.7577537250418
 30
0
 40
2.249999999999983
 50
344.9999999999994
 51
297.2144277208382
  0
ARC
  8
1
 62
7
 10
105.6273404334086
 20
137.7577537250418
 30
0
 40
3.849999999999992
 50
255
 51
199.2144277208379
  0
ARC
  8
1
 62
7
 10
105.6273404334086
 20
137.7577537250418
 30
0
 40
2.249999999999874
 50
255.0000000000009
 51
199.2144277208394
  0
ARC
  8
1
 62
7
 10
105.6273404334086
 20
32.9577537250418
 30
0
 40
2.250000000000006
 50
164.9999999999996
 51
117.2144277208375
  0
ARC
  8
1
 62
7
 10
53.22734043340864
 20
85.3577537250418
 30
0
 40
57.79999999999996
 50
46.92778491917326
 51
133.0722150808267
  0
ARC
  8
1
 62
7
 10
53.22734043340864
 20
85.3577537250418
 30
0
 40
56.20000000000003
 50
47.09717845045628
 51
132.9028215495437
  0
ARC
  8
1
 62
7
 10
53.22734043340864
 20
85.3577537250418
 30
0
 40
50.75000000000001
 50
47.75484983226273
 51
132.2451501677373
  0
ARC
  8
1
 62
7
 10
53.22734043340864
 20
85.3577537250418
 30
0
 40
49.14999999999999
 50
47.9758186988269
 51
132.0241813011731
  0
ARC
  8
1
 62
7
 10
53.22734043340864
 20
85.3577537250418
 30
0
 40
43.50000000000001
 50
48.88730244904652
 51
131.1126975509535
  0
ARC
  8
1
 62
7
 10
53.22734043340864
 20
85.3577537250418
 30
0
 40
41.90000000000001
 50
49.1905178219056
 51
130.8094821780944
  0
ARC
  8
1
 62
7
 10
53.22734043340864
 20
85.3577537250418
 30
0
 40
36.74999999999997
 50
50.34794883746394
 51
129.6520511625361
  0
ARC
  8
1
 62
7
 10
53.22734043340864
 20
85.3577537250418
 30
0
 40
35.15000000000001
 50
50.77754532520651
 51
129.2224546747935
  0
ARC
  8
1
 62
7
 10
53.22734043340864
 20
85.3577537250418
 30
0
 40
29.74999999999996
 50
52.57487625610742
 51
127.4251237438926
  0
ARC
  8
1
 62
7
 10
53.22734043340864
 20
85.3577537250418
 30
0
 40
28.14999999999997
 50
53.2426840963693
 51
126.7573159036307
  0
ARC
  8
1
 62
7
 10
53.22734043340864
 20
85.3577537250418
 30
0
 40
22.99999999999998
 50
56.04243091703351
 51
123.9575690829665
  0
ARC
  8
1
 62
7
 10
53.22734043340864
 20
85.3577537250418
 30
0
 40
21.39999999999996
 50
57.19687519063838
 51
122.8031248093616
  0
ARC
  8
1
 62
7
 10
53.22734043340864
 20
85.3577537250418
 30
0
 40
15.99999999999998
 50
62.12749859561216
 51
117.8725014043879
  0
ARC
  8
1
 62
7
 10
53.22734043340864
 20
85.3577537250418
 30
0
 40
14.40000000000001
 50
63.37767470629411
 51
116.6223252937059
  0
ARC
  8
1
 62
7
 10
53.22734043340864
 20
85.3577537250418
 30
0
 40
8.500000000000011
 50
64.94950948301967
 51
115.0504905169804
  0
ARC
  8
1
 62
7
 10
53.22734043340864
 20
85.3577537250418
 30
0
 40
6.899999999999968
 50
63.50141412465439
 51
116.4985858753457
  0
ARC
  8
1
 62
7
 10
53.22734043340864
 20
85.3577537250418
 30
0
 40
6.900000000000023
 50
130.4617783038048
 51
229.538221696195
  0
ARC
  8
1
 62
7
 10
53.22734043340864
 20
85.3577537250418
 30
0
 40
8.499999999999998
 50
126.0162133868744
 51
233.9837866131258
  0
ARC
  8
1
 62
7
 10
53.22734043340864
 20
85.3577537250418
 30
0
 40
14.39999999999998
 50
123.0428190902479
 51
236.9571809097522
  0
ARC
  8
1
 62
7
 10
53.22734043340864
 20
85.3577537250418
 30
0
 40
16.00000000000002
 50
123.7071315136152
 51
236.2928684863848
  0
ARC
  8
1
 62
7
 10
53.22734043340864
 20
85.3577537250418
 30
0
 40
21.39999999999997
 50
127.2189448719243
 51
232.7810551280758
  0
ARC
  8
1
 62
7
 10
53.22734043340864
 20
85.3577537250418
 30
0
 40
23
 50
128.0490201378173
 51
231.9509798621827
  0
ARC
  8
1
 62
7
 10
53.22734043340864
 20
85.3577537250418
 30
0
 40
28.14999999999997
 50
130.0707617808188
 51
229.9292382191813
  0
ARC
  8
1
 62
7
 10
53.22734043340864
 20
85.3577537250418
 30
0
 40
29.75000000000001
 50
130.5546004897147
 51
229.4453995102853
  0
ARC
  8
1
 62
7
 10
53.22734043340864
 20
85.3577537250418
 30
0
 40
35.14999999999998
 50
131.8594301574902
 51
228.1405698425099
  0
ARC
  8
1
 62
7
 10
53.22734043340864
 20
85.3577537250418
 30
0
 40
36.75
 50
132.1718265438784
 51
227.8281734561217
  0
ARC
  8
1
 62
7
 10
53.22734043340864
 20
85.3577537250418
 30
0
 40
41.9
 50
133.0143734051229
 51
226.9856265948771
  0
ARC
  8
1
 62
7
 10
53.22734043340864
 20
85.3577537250418
 30
0
 40
43.50000000000002
 50
133.2352947125921
 51
226.7647052874079
  0
ARC
  8
1
 62
7
 10
53.22734043340864
 20
85.3577537250418
 30
0
 40
49.15000000000002
 50
133.8998429443102
 51
226.1001570556899
  0
ARC
  8
1
 62
7
 10
53.22734043340864
 20
85.3577537250418
 30
0
 40
50.74999999999999
 50
134.0610420835873
 51
225.9389579164128
  0
ARC
  8
1
 62
7
 10
53.22734043340864
 20
85.3577537250418
 30
0
 40
56.20000000000002
 50
134.5410197005759
 51
225.4589802994241
  0
ARC
  8
1
 62
7
 10
53.22734043340864
 20
85.3577537250418
 30
0
 40
57.79999999999996
 50
134.6646911651181
 51
225.335308834882
  0
ARC
  8
1
 62
7
 10
53.22734043340864
 20
85.3577537250418
 30
0
 40
57.8
 50
226.9277849191733
 51
313.0722150808268
  0
ARC
  8
1
 62
7
 10
53.22734043340864
 20
85.3577537250418
 30
0
 40
56.2
 50
227.0971784504563
 51
312.9028215495437
  0
ARC
  8
1
 62
7
 10
53.22734043340864
 20
85.3577537250418
 30
0
 40
50.75000000000001
 50
227.7548498322627
 51
312.2451501677373
  0
ARC
  8
1
 62
7
 10
53.22734043340864
 20
85.3577537250418
 30
0
 40
49.15000000000001
 50
227.9758186988269
 51
312.0241813011731
  0
ARC
  8
1
 62
7
 10
53.22734043340864
 20
85.3577537250418
 30
0
 40
43.50000000000001
 50
228.8873024490465
 51
311.1126975509535
  0
ARC
  8
1
 62
7
 10
53.22734043340864
 20
85.3577537250418
 30
0
 40
41.90000000000001
 50
229.1905178219056
 51
310.8094821780944
  0
ARC
  8
1
 62
7
 10
53.22734043340864
 20
85.3577537250418
 30
0
 40
36.75000000000001
 50
230.347948837464
 51
309.652051162536
  0
ARC
  8
1
 62
7
 10
53.22734043340864
 20
85.3577537250418
 30
0
 40
35.15
 50
230.7775453252065
 51
309.2224546747935
  0
ARC
  8
1
 62
7
 10
53.22734043340864
 20
85.3577537250418
 30
0
 40
29.75
 50
232.5748762561075
 51
307.4251237438926
  0
ARC
  8
1
 62
7
 10
53.22734043340864
 20
85.3577537250418
 30
0
 40
28.15
 50
233.2426840963693
 51
306.7573159036307
  0
ARC
  8
1
 62
7
 10
53.22734043340864
 20
85.3577537250418
 30
0
 40
23
 50
236.0424309170336
 51
303.9575690829665
  0
ARC
  8
1
 62
7
 10
53.22734043340864
 20
85.3577537250418
 30
0
 40
21.39999999999999
 50
237.1968751906384
 51
302.8031248093616
  0
ARC
  8
1
 62
7
 10
53.22734043340864
 20
85.3577537250418
 30
0
 40
16
 50
242.1274985956121
 51
297.872501404388
  0
ARC
  8
1
 62
7
 10
53.22734043340864
 20
85.3577537250418
 30
0
 40
14.4
 50
243.377674706294
 51
296.6223252937059
  0
ARC
  8
1
 62
7
 10
53.22734043340864
 20
85.3577537250418
 30
0
 40
57.8
 50
314.664691165118
 51
45.33530883488204
  0
ARC
  8
1
 62
7
 10
53.22734043340864
 20
85.3577537250418
 30
0
 40
56.19999999999999
 50
314.5410197005758
 51
45.45898029942415
  0
ARC
  8
1
 62
7
 10
53.22734043340864
 20
85.3577537250418
 30
0
 40
50.75000000000001
 50
314.0610420835872
 51
45.93895791641276
  0
ARC
  8
1
 62
7
 10
53.22734043340864
 20
85.3577537250418
 30
0
 40
49.15
 50
313.8998429443101
 51
46.10015705568984
  0
ARC
  8
1
 62
7
 10
53.22734043340864
 20
85.3577537250418
 30
0
 40
43.49999999999999
 50
313.2352947125921
 51
46.76470528740794
  0
ARC
  8
1
 62
7
 10
53.22734043340864
 20
85.3577537250418
 30
0
 40
41.89999999999999
 50
313.0143734051229
 51
46.98562659487707
  0
ARC
  8
1
 62
7
 10
53.22734043340864
 20
85.3577537250418
 30
0
 40
36.75
 50
312.1718265438783
 51
47.82817345612161
  0
ARC
  8
1
 62
7
 10
53.22734043340864
 20
85.3577537250418
 30
0
 40
35.14999999999999
 50
311.8594301574901
 51
48.14056984250982
  0
ARC
  8
1
 62
7
 10
53.22734043340864
 20
85.3577537250418
 30
0
 40
29.75
 50
310.5546004897147
 51
49.44539951028532
  0
ARC
  8
1
 62
7
 10
53.22734043340864
 20
85.3577537250418
 30
0
 40
28.15
 50
310.0707617808187
 51
49.92923821918134
  0
ARC
  8
1
 62
7
 10
53.22734043340864
 20
85.3577537250418
 30
0
 40
23
 50
308.0490201378173
 51
51.95097986218273
  0
ARC
  8
1
 62
7
 10
53.22734043340864
 20
85.3577537250418
 30
0
 40
21.4
 50
307.2189448719242
 51
52.78105512807573
  0
ARC
  8
1
 62
7
 10
53.22734043340864
 20
85.3577537250418
 30
0
 40
16
 50
303.7071315136152
 51
56.29286848638489
  0
ARC
  8
1
 62
7
 10
53.22734043340864
 20
85.3577537250418
 30
0
 40
14.40000000000001
 50
303.0428190902479
 51
56.95718090975215
  0
ARC
  8
1
 62
7
 10
53.22734043340864
 20
85.3577537250418
 30
0
 40
8.500000000000002
 50
306.0162133868743
 51
53.98378661312568
  0
ARC
  8
1
 62
7
 10
53.22734043340864
 20
85.3577537250418
 30
0
 40
6.899999999999991
 50
310.4617783038049
 51
49.53822169619527
  0
ARC
  8
1
 62
7
 10
53.22734043340864
 20
85.3577537250418
 30
0
 40
6.899999999999999
 50
243.5014141246544
 51
296.4985858753455
  0
ARC
  8
1
 62
7
 10
53.22734043340864
 20
85.3577537250418
 30
0
 40
8.500000000000004
 50
244.9495094830195
 51
295.0504905169805
  0
ARC
  8
1
 62
7
 10
53.22734043330352
 20
85.3577537249335
 30
0
 40
62.3000000001509
 50
45.02162908282602
 51
46.49824315392701
  0
ARC
  8
1
 62
7
 10
53.22734043334139
 20
85.3577537249716
 30
0
 40
59.8000000000972
 50
45.19005168800094
 51
46.72885629921285
  0
ARC
  8
1
 62
7
 10
53.22734043350425
 20
85.357753724944
 30
0
 40
62.30000000013678
 50
133.5017568460733
 51
134.9783709171747
  0
ARC
  8
1
 62
7
 10
53.22734043346442
 20
85.3577537249847
 30
0
 40
59.80000000007979
 50
133.2711437007878
 51
134.8099483120001
  0
ARC
  8
1
 62
7
 10
53.22734043357912
 20
85.3577537252167
 30
0
 40
62.30000000024422
 50
225.0216290828268
 51
226.4982431539256
  0
ARC
  8
1
 62
7
 10
53.22734043342672
 20
85.35775372506031
 30
0
 40
59.80000000002585
 50
225.1900516879995
 51
226.7288562992132
  0
ARC
  8
1
 62
7
 10
53.22734043335126
 20
85.3577537251015
 30
0
 40
59.8000000000828
 50
313.2711437007872
 51
314.8099483119995
  0
ARC
  8
1
 62
7
 10
53.22734043337791
 20
85.3577537250728
 30
0
 40
62.30000000004364
 50
313.5017568460723
 51
314.9783709171758
  0
ARC
  8
1
 62
7
 10
137.3945487051916
 20
122.8263828754887
 30
0
 40
0.8000000000000185
 50
134.9999999999957
 51
180
  0
ARC
  8
1
 62
7
 10
140.7945487051916
 20
126.2263828754887
 30
0
 40
0.7999999999999482
 50
315.0000000000007
 51
0
  0
ARC
  8
1
 62
7
 10
140.7945487051916
 20
140.8077537253872
 30
0
 40
0.8000000000000114
 50
90
 51
180
  0
ARC
  8
1
 62
7
 10
140.7945487051916
 20
140.8077537253872
 30
0
 40
0.8000000000000114
 50
0
 51
90
  0
ARC
  8
1
 62
7
 10
137.3945487051916
 20
47.88912457528566
 30
0
 40
0.799999999999983
 50
180
 51
225.0000000000015
  0
ARC
  8
1
 62
7
 10
140.7945487051916
 20
44.48912457528569
 30
0
 40
0.8000000000000114
 50
0
 51
45.00000000000108
  0
ARC
  8
1
 62
7
 10
140.7945487051916
 20
29.90775372538722
 30
0
 40
0.8000000000000114
 50
180
 51
270
  0
ARC
  8
1
 62
7
 10
140.7945487051916
 20
29.90775372538722
 30
0
 40
0.8000000000000895
 50
270
 51
0
  0
ARC
  8
1
 62
7
 10
137.3945487051916
 20
88.13298459328692
 30
0
 40
0.799999999999983
 50
180
 51
0
  0
ARC
  8
1
 62
7
 10
137.3945487051916
 20
82.58252285748745
 30
0
 40
0.8000000000000114
 50
0
 51
180
  0
ARC
  8
1
 62
7
 10
3.045351539754979
 20
133.444642697938
 30
0
 40
0.999999999999927
 50
48.99999999999684
 51
117.2144277208387
  0
ARC
  8
1
 62
7
 10
3.045351539754979
 20
133.444642697938
 30
0
 40
2.599999999999948
 50
49.00000000000041
 51
117.2144277208393
  0
ARC
  8
1
 62
7
 10
101.0475168226965
 20
136.16159718674
 30
0
 40
1.000000000000042
 50
310.9999999999984
 51
19.21442772083892
  0
ARC
  8
1
 62
7
 10
101.0475168226965
 20
136.16159718674
 30
0
 40
2.600000000000056
 50
311.0000000000014
 51
19.21442772083693
  0
ARC
  8
1
 62
7
 10
103.4093293270624
 20
37.2708647521456
 30
0
 40
1.000000000000065
 50
228.9999999999964
 51
297.2144277208349
  0
ARC
  8
1
 62
7
 10
103.4093293270624
 20
37.2708647521456
 30
0
 40
2.600000000000025
 50
228.9999999999985
 51
297.2144277208373
  0
ARC
  8
1
 62
7
 10
5.40716404412078
 20
34.55391026334364
 30
0
 40
1.000000000000007
 50
130.9999999999997
 51
199.2144277208378
  0
ARC
  8
1
 62
7
 10
5.40716404412078
 20
34.55391026334364
 30
0
 40
2.6
 50
131
 51
199.2144277208383
  0
ARC
  8
1
 62
7
 10
76.9000747898381
 20
85.3577537250418
 30
0
 40
21.49999999999999
 50
221.1363430260102
 51
229
  0
ARC
  8
1
 62
7
 10
29.55460607697918
 20
85.3577537250418
 30
0
 40
21.5
 50
41.13634302601009
 51
49
  0
ARC
  8
1
 62
7
 10
76.9000747898381
 20
85.3577537250418
 30
0
 40
19.89999999999999
 50
221.9785468845113
 51
229
  0
ARC
  8
1
 62
7
 10
29.55460607697918
 20
85.3577537250418
 30
0
 40
19.9
 50
41.97854688451135
 51
49.00000000000009
  0
ARC
  8
1
 62
7
 10
76.9000747898381
 20
85.3577537250418
 30
0
 40
21.5
 50
131
 51
138.86365697399
  0
ARC
  8
1
 62
7
 10
29.55460607697918
 20
85.3577537250418
 30
0
 40
21.50000000000001
 50
36.781033159384
 51
41.13634302601009
  0
ARC
  8
1
 62
7
 10
76.9000747898381
 20
85.3577537250418
 30
0
 40
21.50000000000001
 50
138.86365697399
 51
143.2189668406161
  0
ARC
  8
1
 62
7
 10
29.55460607697918
 20
85.3577537250418
 30
0
 40
21.50000000000001
 50
20.98725997227537
 51
36.781033159384
  0
ARC
  8
1
 62
7
 10
76.9000747898381
 20
85.3577537250418
 30
0
 40
21.50000000000001
 50
143.2189668406161
 51
159.0127400277247
  0
ARC
  8
1
 62
7
 10
29.55460607697918
 20
85.3577537250418
 30
0
 40
21.49999999999999
 50
16.69129699273198
 51
20.98725997227537
  0
ARC
  8
1
 62
7
 10
76.9000747898381
 20
85.3577537250418
 30
0
 40
21.50000000000001
 50
159.0127400277247
 51
163.308703007268
  0
ARC
  8
1
 62
7
 10
29.55460607697918
 20
85.3577537250418
 30
0
 40
21.5
 50
343.308703007268
 51
16.69129699273198
  0
ARC
  8
1
 62
7
 10
29.55460607697918
 20
85.3577537250418
 30
0
 40
19.90000000000001
 50
344.7038336389129
 51
15.2961663610872
  0
ARC
  8
1
 62
7
 10
29.55460607697918
 20
85.3577537250418
 30
0
 40
19.90000000000001
 50
339.7883532304817
 51
344.7038336389129
  0
ARC
  8
1
 62
7
 10
29.55460607697918
 20
85.3577537250418
 30
0
 40
19.90000000000001
 50
15.2961663610872
 51
20.21164676951833
  0
ARC
  8
1
 62
7
 10
29.55460607697918
 20
85.3577537250418
 30
0
 40
19.9
 50
322.6571969332106
 51
339.7883532304817
  0
ARC
  8
1
 62
7
 10
29.55460607697918
 20
85.3577537250418
 30
0
 40
19.89999999999998
 50
20.21164676951833
 51
37.34280306678942
  0
ARC
  8
1
 62
7
 10
29.55460607697918
 20
85.3577537250418
 30
0
 40
19.9
 50
318.0214531154887
 51
322.6571969332106
  0
ARC
  8
1
 62
7
 10
29.55460607697918
 20
85.3577537250418
 30
0
 40
19.89999999999997
 50
37.34280306678942
 51
41.97854688451135
  0
ARC
  8
1
 62
7
 10
29.55460607697918
 20
85.3577537250418
 30
0
 40
19.90000000000001
 50
310.9999999999999
 51
318.0214531154887
  0
ARC
  8
1
 62
7
 10
29.55460607697918
 20
85.3577537250418
 30
0
 40
21.5
 50
311
 51
318.8636569739899
  0
ARC
  8
1
 62
7
 10
76.9000747898381
 20
85.3577537250418
 30
0
 40
21.5
 50
216.781033159384
 51
221.1363430260102
  0
ARC
  8
1
 62
7
 10
29.55460607697918
 20
85.3577537250418
 30
0
 40
21.50000000000001
 50
318.8636569739899
 51
323.2189668406161
  0
ARC
  8
1
 62
7
 10
76.9000747898381
 20
85.3577537250418
 30
0
 40
21.5
 50
200.9872599722753
 51
216.781033159384
  0
ARC
  8
1
 62
7
 10
76.9000747898381
 20
85.3577537250418
 30
0
 40
19.89999999999998
 50
217.3428030667895
 51
221.9785468845113
  0
ARC
  8
1
 62
7
 10
76.9000747898381
 20
85.3577537250418
 30
0
 40
19.90000000000003
 50
131
 51
138.0214531154887
  0
ARC
  8
1
 62
7
 10
76.9000747898381
 20
85.3577537250418
 30
0
 40
19.9
 50
200.2116467695184
 51
217.3428030667895
  0
ARC
  8
1
 62
7
 10
76.9000747898381
 20
85.3577537250418
 30
0
 40
19.90000000000002
 50
138.0214531154887
 51
142.6571969332106
  0
ARC
  8
1
 62
7
 10
76.9000747898381
 20
85.3577537250418
 30
0
 40
19.90000000000002
 50
195.2961663610871
 51
200.2116467695184
  0
ARC
  8
1
 62
7
 10
76.9000747898381
 20
85.3577537250418
 30
0
 40
19.89999999999998
 50
142.6571969332106
 51
159.7883532304817
  0
ARC
  8
1
 62
7
 10
76.9000747898381
 20
85.3577537250418
 30
0
 40
19.90000000000002
 50
164.7038336389128
 51
195.2961663610871
  0
ARC
  8
1
 62
7
 10
76.9000747898381
 20
85.3577537250418
 30
0
 40
19.9
 50
159.7883532304817
 51
164.7038336389128
  0
ARC
  8
1
 62
7
 10
29.55460607697918
 20
85.3577537250418
 30
0
 40
21.5
 50
339.0127400277247
 51
343.308703007268
  0
ARC
  8
1
 62
7
 10
76.9000747898381
 20
85.3577537250418
 30
0
 40
21.5
 50
163.308703007268
 51
196.6912969927321
  0
ARC
  8
1
 62
7
 10
29.55460607697918
 20
85.3577537250418
 30
0
 40
21.5
 50
323.2189668406161
 51
339.0127400277247
  0
ARC
  8
1
 62
7
 10
76.9000747898381
 20
85.3577537250418
 30
0
 40
21.50000000000001
 50
196.6912969927321
 51
200.9872599722753
  0
ARC
  8
1
 62
7
 10
138.9945487051916
 20
28.35775372538723
 30
0
 40
0.8000000000000007
 50
270
 51
0
  0
ARC
  8
1
 62
7
 10
138.9945487051916
 20
28.35775372538723
 30
0
 40
0.799999999999983
 50
180
 51
270
  0
ARC
  8
1
 62
7
 10
138.9945487051916
 20
142.3577537253872
 30
0
 40
0.8000000000000114
 50
0
 51
90
  0
ARC
  8
1
 62
7
 10
138.9945487051916
 20
142.3577537253872
 30
0
 40
0.8000000000000114
 50
90
 51
180
  0
ENDSEC
  0
EOF
