  0
SECTION
  2
HEADER
  9
$ACADVER
  1
AC1003
  9
$INSBASE
 10
0.000000
 20
0.000000
  9
$EXTMIN
 10
0.000000
 20
0.000000
  9
$EXTMAX
 10
420.000000
 20
297.000000
  9
$LIMMIN
 10
0.000000
 20
0.000000
  9
$LIMMAX
 10
420.000000
 20
297.000000
  9
$VIEWCTR
 10
210.000000
 20
148.500000
  9
$VIEWSIZE
 40
297.000000
  9
$PEXTMIN
 10
0.000000
 20
0.000000
 30
0.000000
  9
$PEXTMAX
 10
420.000000
 20
297.000000
 30
0.000000
  9
$SNAPMODE
 70
     0
  9
$SNAPUNIT
 10
1.000000
 20
1.000000
  9
$SNAPBASE
 10
0.000000
 20
0.000000
  9
$SNAPANG
 50
0.000000
  9
$SNAPISOPAIR
 70
     0
  9
$SNAPSTYLE
 70
     0
  9
$GRIDMODE
 70
     0
  9
$GRIDUNIT
 10
0.000000
 20
0.000000
  9
$ORTHOMODE
 70
     0
  9
$REGENMODE
 70
     1
  9
$FILLMODE
 70
     1
  9
$QTEXTMODE
 70
     0
  9
$DRAGMODE
 70
     2
  9
$LTSCALE
 40
0.250000
  9
$OSMODE
 70
     0
  9
$ATTMODE
 70
     1
  9
$TEXTSIZE
 40
0.200000
  9
$TRACEWID
 40
0.050000
  9
$TEXTSTYLE
  7
STANDARD
  9
$CLAYER
  8
0
  9
$CELTYPE
  6
BYLAYER
  9
$CECOLOR
 62
   256
  9
$DIMSCALE
 40
1.000000
  9
$DIMASZ
 40
1.000000
  9
$DIMEXO
 40
0.000000
  9
$DIMDLI
 40
0.500000
  9
$DIMRND
 40
0.000000
  9
$DIMDLE
 40
0.000000
  9
$DIMEXE
 40
0.000000
  9
$DIMTP
 40
0.000000
  9
$DIMTM
 40
0.000000
  9
$DIMTXT
 40
0.180000
  9
$DIMCEN
 40
0.000000
  9
$DIMTSZ
 40
0.000000
  9
$DIMTOL
 70
     0
  9
$DIMLIM
 70
     0
  9
$DIMTIH
 70
     1
  9
$DIMTOH
 70
     1
  9
$DIMSE1
 70
     0
  9
$DIMSE2
 70
     0
  9
$DIMTAD
 70
     0
  9
$DIMZIN
 70
     0
  9
$DIMBLK
  1

  9
$DIMASO
 70
     0
  9
$DIMSHO
 70
     0
  9
$DIMPOST
  1

  9
$DIMAPOST
  1

  9
$DIMALT
 70
     0
  9
$DIMALTD
 70
     0
  9
$DIMALTF
 40
25.400000
  9
$DIMLFAC
 40
1.000000
  9
$DIMTOFL
 70
     0
  9
$DIMTVP
 40
0.000000
  9
$DIMTIX
 70
     0
  9
$DIMSOXD
 70
     0
  9
$DIMSAH
 70
     0
  9
$DIMBLKL
  1

  9
$DIMBLKR
  1

  9
$LUNITS
 70
     2
  9
$LUPREC
 70
     2
  9
$AXISMODE
 70
     0
  9
$AXISUNIT
 10
1.000000
 20
1.000000
  9
$SKETCHINC
 40
0.000000
  9
$FILLETRAD
 40
0.000000
  9
$AUNITS
 70
     1
  9
$AUPREC
 70
     2
  9
$MENU
  1
ACAD
  9
$ELEVATION
 40
0.000000
  9
$THICKNESS
 40
0.000000
  9
$VIEWDIR
 10
0.000000
 20
0.000000
 30
1.000000
  9
$LIMCHECK
 70
     1
  9
$BLIPMODE
 70
     1
  9
$CHAMFERA
 40
0.000000
  9
$CHAMFERB
 40
0.000000
  9
$FASTZOOM
 70
     1
  9
$SKPOLY
 70
     0
  9
$TDCREATE
 40
0.000000
  9
$TDUPDATE
 40
0.000000
  9
$TDINDWG
 40
0.000000
  9
$TDUSRTIMER
 40
0.000000
  9
$USRTIMER
 70
     1
  9
$ANGBASE
 50
0.000000
  9
$ANGDIR
 70
     0
  9
$PDMODE
 70
     0
  9
$PDSIZE
 40
0.000000
  9
$PLINEWID
 40
0.000000
  9
$COORDS
 70
     2
  9
$USERI1
 70
     0
  9
$USERI2
 70
     0
  9
$USERI3
 70
     0
  9
$USERI4
 70
     0
  9
$USERI5
 70
     0
  9
$USERR1
 40
0.000000
  9
$USERR2
 40
0.000000
  9
$USERR3
 40
0.000000
  9
$USERR4
 40
0.000000
  9
$USERR5
 40
0.000000
  0
ENDSEC
  0
SECTION
  2
TABLES
  0
TABLE
  2
LTYPE
 70
     5
  0
LTYPE
  2
CONTINUOUS
 70
    64
  3
Solid line
 72
    65
 73
     0
 40
0.0
  0
LTYPE
  2
HIDDEN
 70
    64
  3
------------------------
 72
    65
 73
     2
 40
12.6
 49
8.4
 49
-4.2
  0
LTYPE
  2
DOT
 70
    64
  3
ÑÑÑÑÑÑÑÑÑÑÑÑÑÑÑÑÑÑÑÑÑÑÑÑ
 72
    65
 73
     2
 40
8.0
 49
6.0
 49
-2.0
  0
LTYPE
  2
DASHDOT
 70
    64
  3
--Ñ--Ñ--Ñ--Ñ--Ñ--Ñ--Ñ--
 72
    65
 73
     4
 40
50.5
 49
30.0
 49
-9.0
 49
2.5
 49
-9.0
  0
LTYPE
  2
DIVIDE
 70
    64
  3
--ÑÑ--ÑÑ--ÑÑ--ÑÑ--ÑÑ--
 72
    65
 73
     6
 40
58.0
 49
30.0
 49
-9.0
 49
2.5
 49
-5.0
 49
2.5
 49
-9.0
  0
ENDTAB
  0
TABLE
  2
LAYER
 70
1
  0
LAYER
  2
1
 70
64
 62
7
  6
CONTINUOUS
  0
ENDTAB
  0
TABLE
  2
STYLE
 70
     2
  0
STYLE
  2
STANDARD
 70
    64
 40
0.0
 41
1.0
 50
0.0
 71
     0
 42
0.2
  3
TXT
  4

  0
STYLE
  2
KANJI
 70
    64
 40
0.0
 41
1.0
 50
0.0
 71
     0
 42
0.2
  3
TXT
  4
BIGFONT
  0
ENDTAB
  0
TABLE
  2
VIEW
 70
     0
  0
ENDTAB
  0
ENDSEC
  0
SECTION
  2
BLOCKS
  0
ENDSEC
  0
SECTION
  2
ENTITIES
  0
LINE
  8
1
 62
7
  6
CONTINUOUS
 10
63.875809
 20
213.872696
 11
88.519876
 21
213.872696
  0
LINE
  8
1
 62
7
  6
CONTINUOUS
 10
219.660118
 20
96.532750
 11
219.660118
 21
107.144548
  0
LINE
  8
1
 62
7
  6
CONTINUOUS
 10
219.660118
 20
175.115053
 11
219.660118
 21
185.701327
  0
LINE
  8
1
 62
7
  6
CONTINUOUS
 10
224.460118
 20
103.376823
 11
232.460126
 21
103.376823
  0
LINE
  8
1
 62
7
  6
CONTINUOUS
 10
232.460126
 20
103.376823
 11
232.460126
 21
94.951725
  0
LINE
  8
1
 62
7
  6
CONTINUOUS
 10
279.460118
 20
122.658825
 11
224.460118
 21
122.658825
  0
LINE
  8
1
 62
7
  6
CONTINUOUS
 10
224.460118
 20
159.606675
 11
279.460118
 21
159.606675
  0
LINE
  8
1
 62
7
  6
CONTINUOUS
 10
218.460118
 20
96.532750
 11
222.460118
 21
96.532750
  0
LINE
  8
1
 62
7
  6
CONTINUOUS
 10
224.460118
 20
96.532750
 11
224.460118
 21
130.177508
  0
LINE
  8
1
 62
7
  6
CONTINUOUS
 10
224.460118
 20
185.575634
 11
224.460118
 21
151.995544
  0
LINE
  8
1
 62
7
  6
CONTINUOUS
 10
218.460118
 20
151.995544
 11
224.460118
 21
151.995544
  0
LINE
  8
1
 62
7
  6
CONTINUOUS
 10
218.460118
 20
130.177508
 11
224.460118
 21
130.177508
  0
LINE
  8
1
 62
7
  6
CONTINUOUS
 10
74.536721
 20
97.782750
 11
72.407536
 21
97.782750
  0
LINE
  8
1
 62
7
  6
CONTINUOUS
 10
74.536721
 20
96.532750
 11
77.936746
 21
96.532750
  0
LINE
  8
1
 62
7
  6
CONTINUOUS
 10
74.536721
 20
97.782750
 11
74.536721
 21
96.532750
  0
LINE
  8
1
 62
7
  6
CONTINUOUS
 10
131.936721
 20
96.532750
 11
131.986721
 21
96.532750
  0
LINE
  8
1
 62
7
  6
CONTINUOUS
 10
131.936721
 20
97.782750
 11
131.936721
 21
96.532750
  0
LINE
  8
1
 62
7
  6
CONTINUOUS
 10
145.643575
 20
110.039604
 11
145.733168
 21
109.950012
  0
LINE
  8
1
 62
7
  6
CONTINUOUS
 10
72.143575
 20
98.725896
 11
72.053983
 21
98.636303
  0
LINE
  8
1
 62
7
  6
CONTINUOUS
 10
60.829867
 20
172.225896
 11
60.740275
 21
172.315488
  0
LINE
  8
1
 62
7
  6
CONTINUOUS
 10
134.329867
 20
98.725896
 11
134.419459
 21
98.636303
  0
LINE
  8
1
 62
7
  6
CONTINUOUS
 10
60.829867
 20
110.039604
 11
60.740275
 21
109.950012
  0
LINE
  8
1
 62
7
  6
CONTINUOUS
 10
72.143575
 20
183.539604
 11
72.053983
 21
183.629197
  0
LINE
  8
1
 62
7
  6
CONTINUOUS
 10
146.586721
 20
168.882750
 11
146.586721
 21
110.303565
  0
LINE
  8
1
 62
7
  6
CONTINUOUS
 10
59.886721
 20
113.382750
 11
59.886721
 21
171.961935
  0
LINE
  8
1
 62
7
  6
CONTINUOUS
 10
134.065906
 20
97.782750
 11
131.936721
 21
97.782750
  0
LINE
  8
1
 62
7
  6
CONTINUOUS
 10
59.886721
 20
110.303565
 11
59.886721
 21
123.176592
  0
LINE
  8
1
 62
7
  6
CONTINUOUS
 10
72.407536
 20
184.482750
 11
85.280563
 21
184.482750
  0
LINE
  8
1
 62
7
  6
CONTINUOUS
 10
147.836721
 20
103.532750
 11
147.836721
 21
178.732750
  0
LINE
  8
1
 62
7
  6
CONTINUOUS
 10
145.643575
 20
172.225896
 11
145.733168
 21
172.315488
  0
LINE
  8
1
 62
7
  6
CONTINUOUS
 10
140.836721
 20
185.732750
 11
65.636721
 21
185.732750
  0
LINE
  8
1
 62
7
  6
CONTINUOUS
 10
134.329867
 20
183.539604
 11
134.419459
 21
183.629197
  0
LINE
  8
1
 62
7
  6
CONTINUOUS
 10
299.207402
 20
109.915546
 11
300.418211
 21
108.704737
  0
LINE
  8
1
 62
7
  6
CONTINUOUS
 10
308.151674
 20
181.294226
 11
306.940864
 21
180.083416
  0
LINE
  8
1
 62
7
  6
CONTINUOUS
 10
379.530353
 20
172.349954
 11
378.319544
 21
173.560763
  0
LINE
  8
1
 62
7
  6
CONTINUOUS
 10
296.962024
 20
107.918283
 11
298.296891
 21
106.583416
  0
LINE
  8
1
 62
7
  6
CONTINUOUS
 10
306.154411
 20
183.539604
 11
304.819544
 21
182.204737
  0
LINE
  8
1
 62
7
  6
CONTINUOUS
 10
381.775731
 20
174.347217
 11
380.440864
 21
175.682084
  0
LINE
  8
1
 62
7
  6
CONTINUOUS
 10
296.475984
 20
107.432244
 11
298.019840
 21
108.976099
  0
LINE
  8
1
 62
7
  6
CONTINUOUS
 10
305.668371
 20
184.025643
 11
307.212226
 21
182.481788
  0
LINE
  8
1
 62
7
  6
CONTINUOUS
 10
382.261771
 20
174.833256
 11
380.717915
 21
173.289401
  0
LINE
  8
1
 62
7
  6
CONTINUOUS
 10
306.940864
 20
102.182084
 11
308.151674
 21
100.971274
  0
LINE
  8
1
 62
7
  6
CONTINUOUS
 10
300.418211
 20
173.560763
 11
299.207402
 21
172.349954
  0
LINE
  8
1
 62
7
  6
CONTINUOUS
 10
371.796891
 20
180.083416
 11
370.586081
 21
181.294226
  0
LINE
  8
1
 62
7
  6
CONTINUOUS
 10
304.819544
 20
100.060763
 11
306.154411
 21
98.725896
  0
LINE
  8
1
 62
7
  6
CONTINUOUS
 10
298.296891
 20
175.682084
 11
296.962023
 21
174.347216
  0
LINE
  8
1
 62
7
  6
CONTINUOUS
 10
373.918211
 20
182.204737
 11
372.583344
 21
183.539604
  0
LINE
  8
1
 62
7
  6
CONTINUOUS
 10
305.668372
 20
98.239857
 11
307.215072
 21
99.786556
  0
LINE
  8
1
 62
7
  6
CONTINUOUS
 10
296.475984
 20
174.833255
 11
298.022683
 21
173.286556
  0
LINE
  8
1
 62
7
  6
CONTINUOUS
 10
373.069383
 20
184.025643
 11
371.522683
 21
182.478944
  0
LINE
  8
1
 62
7
  6
CONTINUOUS
 10
305.668372
 20
98.239857
 11
307.215072
 21
99.786556
  0
LINE
  8
1
 62
7
  6
CONTINUOUS
 10
296.475984
 20
174.833255
 11
298.022683
 21
173.286556
  0
LINE
  8
1
 62
7
  6
CONTINUOUS
 10
373.069383
 20
184.025643
 11
371.522683
 21
182.478944
  0
LINE
  8
1
 62
7
  6
CONTINUOUS
 10
370.586081
 20
100.971274
 11
371.796891
 21
102.182084
  0
LINE
  8
1
 62
7
  6
CONTINUOUS
 10
372.583344
 20
98.725896
 11
373.918211
 21
100.060763
  0
LINE
  8
1
 62
7
  6
CONTINUOUS
 10
372.362277
 20
96.532750
 11
376.968877
 21
96.532750
  0
LINE
  8
1
 62
7
  6
CONTINUOUS
 10
373.069384
 20
98.239857
 11
371.525529
 21
99.783712
  0
LINE
  8
1
 62
7
  6
CONTINUOUS
 10
383.968877
 20
108.139352
 11
383.968877
 21
108.846228
  0
LINE
  8
1
 62
7
  6
CONTINUOUS
 10
382.261771
 20
107.432245
 11
380.715072
 21
108.978944
  0
LINE
  8
1
 62
7
  6
CONTINUOUS
 10
294.768877
 20
178.732750
 11
294.768877
 21
159.606675
  0
LINE
  8
1
 62
7
  6
CONTINUOUS
 10
294.768877
 20
122.658825
 11
294.768877
 21
108.869070
  0
LINE
  8
1
 62
7
  6
CONTINUOUS
 10
383.968877
 20
108.846228
 11
383.968877
 21
122.658825
  0
LINE
  8
1
 62
7
  6
CONTINUOUS
 10
383.968877
 20
159.606675
 11
383.968877
 21
175.833255
  0
LINE
  8
1
 62
7
  6
CONTINUOUS
 10
376.968877
 20
185.732750
 11
357.842802
 21
185.732750
  0
LINE
  8
1
 62
7
  6
CONTINUOUS
 10
300.626742
 20
165.464539
 11
315.037088
 21
179.874886
  0
LINE
  8
1
 62
7
  6
CONTINUOUS
 10
294.768877
 20
122.658825
 11
294.768877
 21
159.606675
  0
LINE
  8
1
 62
7
  6
CONTINUOUS
 10
315.037088
 20
102.390614
 11
300.626742
 21
116.800961
  0
LINE
  8
1
 62
7
  6
CONTINUOUS
 10
349.558531
 20
96.532750
 11
329.179224
 21
96.532750
  0
LINE
  8
1
 62
7
  6
CONTINUOUS
 10
378.111013
 20
116.800961
 11
363.700667
 21
102.390614
  0
LINE
  8
1
 62
7
  6
CONTINUOUS
 10
383.968877
 20
159.606675
 11
383.968877
 21
122.658825
  0
LINE
  8
1
 62
7
  6
CONTINUOUS
 10
363.700667
 20
179.874886
 11
378.111013
 21
165.464539
  0
LINE
  8
1
 62
7
  6
CONTINUOUS
 10
329.179224
 20
185.732750
 11
357.842802
 21
185.732750
  0
LINE
  8
1
 62
7
  6
CONTINUOUS
 10
59.886721
 20
168.882750
 11
59.886721
 21
159.088908
  0
LINE
  8
1
 62
7
  6
CONTINUOUS
 10
146.586721
 20
123.176592
 11
146.586721
 21
113.382750
  0
LINE
  8
1
 62
7
  6
CONTINUOUS
 10
67.466158
 20
165.890528
 11
78.478943
 21
176.903313
  0
LINE
  8
1
 62
7
  6
CONTINUOUS
 10
59.886721
 20
123.176592
 11
59.886721
 21
159.088908
  0
LINE
  8
1
 62
7
  6
CONTINUOUS
 10
78.478943
 20
105.362187
 11
67.466158
 21
116.374972
  0
LINE
  8
1
 62
7
  6
CONTINUOUS
 10
111.023936
 20
98.332750
 11
95.449506
 21
98.332750
  0
LINE
  8
1
 62
7
  6
CONTINUOUS
 10
139.007284
 20
116.374972
 11
127.994499
 21
105.362187
  0
LINE
  8
1
 62
7
  6
CONTINUOUS
 10
146.586721
 20
159.088908
 11
146.586721
 21
123.176592
  0
LINE
  8
1
 62
7
  6
CONTINUOUS
 10
127.994499
 20
176.903313
 11
139.007284
 21
165.890528
  0
LINE
  8
1
 62
7
  6
CONTINUOUS
 10
95.449506
 20
183.932750
 11
111.023936
 21
183.932750
  0
LINE
  8
1
 62
7
  6
CONTINUOUS
 10
279.460118
 20
138.632750
 11
279.460118
 21
143.632750
  0
LINE
  8
1
 62
7
  6
CONTINUOUS
 10
279.460118
 20
108.232750
 11
279.460118
 21
138.632750
  0
LINE
  8
1
 62
7
  6
CONTINUOUS
 10
79.886721
 20
98.857305
 11
79.886721
 21
97.728902
  0
LINE
  8
1
 62
7
  6
CONTINUOUS
 10
126.586721
 20
98.857305
 11
126.586721
 21
97.728902
  0
LINE
  8
1
 62
7
  6
CONTINUOUS
 10
79.886721
 20
103.759453
 11
79.886721
 21
98.857305
  0
LINE
  8
1
 62
7
  6
CONTINUOUS
 10
126.586721
 20
103.759453
 11
126.586721
 21
98.857305
  0
LINE
  8
1
 62
7
  6
CONTINUOUS
 10
378.319544
 20
108.704737
 11
379.530353
 21
109.915546
  0
LINE
  8
1
 62
7
  6
CONTINUOUS
 10
380.440864
 20
106.583416
 11
381.775732
 21
107.918284
  0
LINE
  8
1
 62
7
  6
CONTINUOUS
 10
383.968877
 20
175.833255
 11
383.968877
 21
178.732750
  0
LINE
  8
1
 62
7
  6
CONTINUOUS
 10
314.018877
 20
103.376848
 11
314.018877
 21
96.532750
  0
LINE
  8
1
 62
7
  6
CONTINUOUS
 10
364.718852
 20
103.376823
 11
364.718852
 21
96.532750
  0
LINE
  8
1
 62
7
  6
CONTINUOUS
 10
294.768877
 20
151.322404
 11
294.768877
 21
130.943096
  0
LINE
  8
1
 62
7
  6
CONTINUOUS
 10
294.768877
 20
108.869070
 11
294.746266
 21
108.846458
  0
LINE
  8
1
 62
7
  6
CONTINUOUS
 10
383.968877
 20
130.943096
 11
383.968877
 21
151.322404
  0
LINE
  8
1
 62
7
  6
CONTINUOUS
 10
371.473608
 20
104.382750
 11
380.807766
 21
104.382750
  0
LINE
  8
1
 62
7
  6
CONTINUOUS
 10
376.118877
 20
99.617989
 11
376.118877
 21
109.129377
  0
LINE
  8
1
 62
7
  6
CONTINUOUS
 10
297.929989
 20
104.382750
 11
307.264147
 21
104.382750
  0
LINE
  8
1
 62
7
  6
CONTINUOUS
 10
302.618877
 20
109.129377
 11
302.618877
 21
99.617989
  0
LINE
  8
1
 62
7
  6
CONTINUOUS
 10
307.264147
 20
177.882750
 11
297.929989
 21
177.882750
  0
LINE
  8
1
 62
7
  6
CONTINUOUS
 10
302.618877
 20
182.647511
 11
302.618877
 21
173.136123
  0
LINE
  8
1
 62
7
  6
CONTINUOUS
 10
369.118877
 20
96.532750
 11
371.655169
 21
96.532750
  0
LINE
  8
1
 62
7
  6
CONTINUOUS
 10
301.768877
 20
96.532750
 11
309.618877
 21
96.532750
  0
LINE
  8
1
 62
7
  6
CONTINUOUS
 10
349.558531
 20
185.732750
 11
307.082586
 21
185.732750
  0
LINE
  8
1
 62
7
  6
CONTINUOUS
 10
339.368877
 20
141.132750
 11
291.768877
 21
141.132750
  0
LINE
  8
1
 62
7
  6
CONTINUOUS
 10
339.368877
 20
188.732750
 11
339.368877
 21
141.132750
  0
LINE
  8
1
 62
7
  6
CONTINUOUS
 10
339.368877
 20
188.732750
 11
339.368877
 21
141.132750
  0
LINE
  8
1
 62
7
  6
CONTINUOUS
 10
339.368877
 20
98.288402
 11
339.368877
 21
188.732750
  0
LINE
  8
1
 62
7
  6
CONTINUOUS
 10
380.807766
 20
177.882750
 11
371.473608
 21
177.882750
  0
LINE
  8
1
 62
7
  6
CONTINUOUS
 10
376.118877
 20
173.136123
 11
376.118877
 21
182.647511
  0
LINE
  8
1
 62
7
  6
CONTINUOUS
 10
339.368877
 20
141.132750
 11
339.368877
 21
84.932750
  0
LINE
  8
1
 62
7
  6
CONTINUOUS
 10
386.968877
 20
141.132750
 11
339.368877
 21
141.132750
  0
LINE
  8
1
 62
7
  6
CONTINUOUS
 10
310.618877
 20
96.532750
 11
314.018877
 21
96.532750
  0
LINE
  8
1
 62
7
  6
CONTINUOUS
 10
309.618877
 20
96.532750
 11
310.618877
 21
96.532750
  0
LINE
  8
1
 62
7
  6
CONTINUOUS
 10
364.718852
 20
96.532750
 11
368.118877
 21
96.532750
  0
LINE
  8
1
 62
7
  6
CONTINUOUS
 10
368.118877
 20
96.532750
 11
369.118877
 21
96.532750
  0
LINE
  8
1
 62
7
  6
CONTINUOUS
 10
354.468877
 20
87.932750
 11
320.018877
 21
87.932750
  0
LINE
  8
1
 62
7
  6
CONTINUOUS
 10
360.718852
 20
92.532750
 11
360.718852
 21
89.932750
  0
LINE
  8
1
 62
7
  6
CONTINUOUS
 10
358.718852
 20
87.932750
 11
354.468877
 21
87.932750
  0
LINE
  8
1
 62
7
  6
CONTINUOUS
 10
358.718852
 20
87.932750
 11
354.468877
 21
87.932750
  0
LINE
  8
1
 62
7
  6
CONTINUOUS
 10
318.018877
 20
89.932750
 11
318.018877
 21
91.932750
  0
LINE
  8
1
 62
7
  6
CONTINUOUS
 10
324.468927
 20
87.932750
 11
320.018877
 21
87.932750
  0
LINE
  8
1
 62
7
  6
CONTINUOUS
 10
318.018877
 20
89.932750
 11
318.018877
 21
92.532750
  0
LINE
  8
1
 62
7
  6
CONTINUOUS
 10
279.460118
 20
143.632750
 11
279.460118
 21
169.982750
  0
LINE
  8
1
 62
7
  6
CONTINUOUS
 10
279.460118
 20
182.187780
 11
279.460118
 21
169.982750
  0
LINE
  8
1
 62
7
  6
CONTINUOUS
 10
218.460118
 20
184.482750
 11
218.460111
 21
185.732750
  0
LINE
  8
1
 62
7
  6
CONTINUOUS
 10
218.460111
 20
185.732750
 11
218.460118
 21
184.482750
  0
LINE
  8
1
 62
7
  6
CONTINUOUS
 10
277.460118
 20
98.077720
 11
234.460126
 21
96.951725
  0
LINE
  8
1
 62
7
  6
CONTINUOUS
 10
279.460118
 20
108.232750
 11
279.460118
 21
100.077720
  0
LINE
  8
1
 62
7
  6
CONTINUOUS
 10
224.060126
 20
88.040113
 11
230.460126
 21
88.202465
  0
LINE
  8
1
 62
7
  6
CONTINUOUS
 10
232.460126
 20
88.454837
 11
232.460126
 21
94.951725
  0
LINE
  8
1
 62
7
  6
CONTINUOUS
 10
230.460126
 20
88.202465
 11
232.260126
 21
88.254837
  0
LINE
  8
1
 62
7
  6
CONTINUOUS
 10
277.460118
 20
184.187780
 11
218.460111
 21
185.732750
  0
LINE
  8
1
 62
7
  6
CONTINUOUS
 10
284.460118
 20
141.132750
 11
215.629703
 21
141.132750
  0
LINE
  8
1
 62
7
  6
CONTINUOUS
 10
103.236721
 20
179.675859
 11
103.236721
 21
183.170953
  0
LINE
  8
1
 62
7
  6
CONTINUOUS
 10
103.236721
 20
183.170953
 11
103.236721
 21
179.675859
  0
LINE
  8
1
 62
7
  6
CONTINUOUS
 10
61.797833
 20
104.382750
 11
71.131990
 21
104.382750
  0
LINE
  8
1
 62
7
  6
CONTINUOUS
 10
66.486721
 20
109.129377
 11
66.486721
 21
99.617989
  0
LINE
  8
1
 62
7
  6
CONTINUOUS
 10
135.341452
 20
104.382750
 11
144.675610
 21
104.382750
  0
LINE
  8
1
 62
7
  6
CONTINUOUS
 10
139.986721
 20
99.617989
 11
139.986721
 21
109.129377
  0
LINE
  8
1
 62
7
  6
CONTINUOUS
 10
144.675610
 20
177.882750
 11
135.341452
 21
177.882750
  0
LINE
  8
1
 62
7
  6
CONTINUOUS
 10
139.986721
 20
173.136123
 11
139.986721
 21
182.647511
  0
LINE
  8
1
 62
7
  6
CONTINUOUS
 10
58.636721
 20
178.732750
 11
58.636721
 21
103.532750
  0
LINE
  8
1
 62
7
  6
CONTINUOUS
 10
65.636721
 20
96.532750
 11
74.486721
 21
96.532750
  0
LINE
  8
1
 62
7
  6
CONTINUOUS
 10
131.986721
 20
96.532750
 11
140.836721
 21
96.532750
  0
LINE
  8
1
 62
7
  6
CONTINUOUS
 10
157.960860
 20
141.132750
 11
103.236721
 21
141.132750
  0
LINE
  8
1
 62
7
  6
CONTINUOUS
 10
103.236721
 20
184.055220
 11
103.236721
 21
180.477156
  0
LINE
  8
1
 62
7
  6
CONTINUOUS
 10
103.236721
 20
141.132750
 11
103.236721
 21
180.982750
  0
LINE
  8
1
 62
7
  6
CONTINUOUS
 10
103.236721
 20
141.132750
 11
103.236721
 21
180.982750
  0
LINE
  8
1
 62
7
  6
CONTINUOUS
 10
103.236721
 20
180.982750
 11
103.236721
 21
98.288402
  0
LINE
  8
1
 62
7
  6
CONTINUOUS
 10
71.131990
 20
177.882750
 11
61.797833
 21
177.882750
  0
LINE
  8
1
 62
7
  6
CONTINUOUS
 10
66.486721
 20
182.647511
 11
66.486721
 21
173.136123
  0
LINE
  8
1
 62
7
  6
CONTINUOUS
 10
103.236721
 20
85.706303
 11
103.236721
 21
141.132750
  0
LINE
  8
1
 62
7
  6
CONTINUOUS
 10
103.236721
 20
141.132750
 11
57.311455
 21
141.132750
  0
LINE
  8
1
 62
7
  6
CONTINUOUS
 10
103.236721
 20
184.606794
 11
103.236721
 21
186.816569
  0
LINE
  8
1
 62
7
  6
CONTINUOUS
 10
103.236721
 20
180.982750
 11
103.236721
 21
186.816569
  0
LINE
  8
1
 62
7
  6
CONTINUOUS
 10
103.236721
 20
180.477156
 11
103.236721
 21
184.055220
  0
LINE
  8
1
 62
7
  6
CONTINUOUS
 10
75.486721
 20
184.482750
 11
134.065906
 21
184.482750
  0
LINE
  8
1
 62
7
  6
CONTINUOUS
 10
146.036721
 20
148.919965
 11
146.036721
 21
133.345535
  0
LINE
  8
1
 62
7
  6
CONTINUOUS
 10
60.436721
 20
148.919965
 11
60.436721
 21
133.345535
  0
LINE
  8
1
 62
7
  6
CONTINUOUS
 10
128.586721
 20
96.532750
 11
131.936721
 21
96.532750
  0
LINE
  8
1
 62
7
  6
CONTINUOUS
 10
74.486721
 20
96.532750
 11
74.536721
 21
96.532750
  0
LINE
  8
1
 62
7
  6
CONTINUOUS
 10
83.886721
 20
89.932750
 11
84.386721
 21
89.932750
  0
LINE
  8
1
 62
7
  6
CONTINUOUS
 10
122.586721
 20
89.932750
 11
122.086721
 21
89.932750
  0
LINE
  8
1
 62
7
  6
CONTINUOUS
 10
82.886721
 20
90.932750
 11
82.886721
 21
92.532750
  0
LINE
  8
1
 62
7
  6
CONTINUOUS
 10
83.886721
 20
92.532750
 11
83.886721
 21
90.432750
  0
LINE
  8
1
 62
7
  6
CONTINUOUS
 10
122.586721
 20
90.432750
 11
122.586721
 21
92.532750
  0
LINE
  8
1
 62
7
  6
CONTINUOUS
 10
122.086721
 20
89.932750
 11
117.336672
 21
89.932750
  0
LINE
  8
1
 62
7
  6
CONTINUOUS
 10
123.586721
 20
92.532750
 11
123.586721
 21
90.932750
  0
LINE
  8
1
 62
7
  6
CONTINUOUS
 10
122.586721
 20
87.932750
 11
87.936721
 21
87.932750
  0
LINE
  8
1
 62
7
  6
CONTINUOUS
 10
81.886746
 20
89.932750
 11
81.886746
 21
92.532750
  0
LINE
  8
1
 62
7
  6
CONTINUOUS
 10
87.936721
 20
87.932750
 11
87.936721
 21
89.932750
  0
LINE
  8
1
 62
7
  6
CONTINUOUS
 10
87.936721
 20
87.932750
 11
83.886746
 21
87.932750
  0
LINE
  8
1
 62
7
  6
CONTINUOUS
 10
87.936721
 20
87.932750
 11
83.886746
 21
87.932750
  0
LINE
  8
1
 62
7
  6
CONTINUOUS
 10
124.586721
 20
91.932750
 11
124.586721
 21
89.932750
  0
LINE
  8
1
 62
7
  6
CONTINUOUS
 10
117.336672
 20
89.932750
 11
117.336672
 21
87.932750
  0
LINE
  8
1
 62
7
  6
CONTINUOUS
 10
87.936721
 20
89.932750
 11
84.386721
 21
89.932750
  0
LINE
  8
1
 62
7
  6
CONTINUOUS
 10
122.586721
 20
87.932750
 11
117.336672
 21
87.932750
  0
LINE
  8
1
 62
7
  6
CONTINUOUS
 10
124.586721
 20
92.532750
 11
124.586721
 21
89.932750
  0
LINE
  8
1
 62
7
  6
CONTINUOUS
 10
371.655169
 20
96.532750
 11
372.362277
 21
96.532750
  0
LINE
  8
1
 62
7
  6
CONTINUOUS
 10
294.768877
 20
108.846458
 11
294.768877
 21
103.532750
  0
LINE
  8
1
 62
7
  6
CONTINUOUS
 10
383.968877
 20
103.532750
 11
383.968877
 21
108.139352
  0
LINE
  8
1
 62
7
  6
CONTINUOUS
 10
301.768877
 20
185.732750
 11
307.045320
 21
185.732750
  0
LINE
  8
1
 62
7
  6
CONTINUOUS
 10
146.586721
 20
171.961935
 11
146.586721
 21
159.088908
  0
LINE
  8
1
 62
7
  6
DIVIDE
 10
92.072898
 20
162.606208
 11
92.072898
 21
158.306208
  0
LINE
  8
1
 62
7
  6
DIVIDE
 10
114.432898
 20
162.606208
 11
92.072898
 21
162.606208
  0
LINE
  8
1
 62
7
  6
DIVIDE
 10
92.072898
 20
158.306208
 11
114.432898
 21
158.306208
  0
LINE
  8
1
 62
7
  6
DIVIDE
 10
114.432898
 20
158.306208
 11
114.432898
 21
162.606208
  0
LINE
  8
1
 62
7
  6
DIVIDE
 10
92.072898
 20
123.959292
 11
92.072898
 21
119.659292
  0
LINE
  8
1
 62
7
  6
DIVIDE
 10
92.072898
 20
119.659292
 11
114.432898
 21
119.659292
  0
LINE
  8
1
 62
7
  6
DIVIDE
 10
114.432898
 20
119.659292
 11
114.432898
 21
123.959292
  0
LINE
  8
1
 62
7
  6
DIVIDE
 10
114.432898
 20
123.959292
 11
92.072898
 21
123.959292
  0
LINE
  8
1
 62
7
  6
CONTINUOUS
 10
222.460118
 20
88.009437
 11
222.460118
 21
96.532750
  0
LINE
  8
1
 62
7
  6
CONTINUOUS
 10
222.460118
 20
96.532750
 11
224.460118
 21
96.532750
  0
LINE
  8
1
 62
7
  6
CONTINUOUS
 10
222.460118
 20
88.009437
 11
224.060126
 21
88.040113
  0
LINE
  8
1
 62
7
  6
CONTINUOUS
 10
218.460118
 20
96.532750
 11
218.460118
 21
184.482750
  0
LINE
  8
1
 62
7
  6
CONTINUOUS
 10
219.660118
 20
175.115053
 11
224.460118
 21
175.115053
  0
LINE
  8
1
 62
7
  6
CONTINUOUS
 10
219.660118
 20
107.144548
 11
224.460118
 21
107.144548
  0
ARC
  8
1
 62
7
  6
CONTINUOUS
 10
103.236721
 20
141.132750
 40
52.000000
 50
-146.810013
 51
-125.992573
  0
ARC
  8
1
 62
7
  6
CONTINUOUS
 10
103.236721
 20
141.132750
 40
52.000000
 50
36.298119
 51
54.005645
  0
ARC
  8
1
 62
7
  6
CONTINUOUS
 10
139.986721
 20
104.382750
 40
8.000000
 50
45.000000
 51
-135.000000
  0
ARC
  8
1
 62
7
  6
CONTINUOUS
 10
66.486721
 20
104.382750
 40
8.000000
 50
-45.000000
 51
135.000000
  0
ARC
  8
1
 62
7
  6
CONTINUOUS
 10
66.486721
 20
177.882750
 40
8.000000
 50
-135.000000
 51
45.000000
  0
ARC
  8
1
 62
7
  6
CONTINUOUS
 10
139.986721
 20
177.882750
 40
8.000000
 50
135.000000
 51
-45.000000
  0
ARC
  8
1
 62
7
  6
CONTINUOUS
 10
302.618877
 20
104.382750
 40
6.500000
 50
-45.000000
 51
135.035458
  0
ARC
  8
1
 62
7
  6
CONTINUOUS
 10
302.618877
 20
177.882750
 40
6.500000
 50
-135.000000
 51
45.035458
  0
ARC
  8
1
 62
7
  6
CONTINUOUS
 10
376.118877
 20
177.882750
 40
6.500000
 50
135.000000
 51
-44.964542
  0
ARC
  8
1
 62
7
  6
CONTINUOUS
 10
302.618877
 20
104.382750
 40
6.500000
 50
-45.000000
 51
135.035458
  0
ARC
  8
1
 62
7
  6
CONTINUOUS
 10
302.618877
 20
177.882750
 40
6.500000
 50
-135.000000
 51
45.035458
  0
ARC
  8
1
 62
7
  6
CONTINUOUS
 10
376.118877
 20
177.882750
 40
6.500000
 50
135.000000
 51
-44.964542
  0
ARC
  8
1
 62
7
  6
CONTINUOUS
 10
376.118877
 20
104.382750
 40
6.500000
 50
45.000000
 51
-134.964542
  0
ARC
  8
1
 62
7
  6
CONTINUOUS
 10
302.618877
 20
104.382750
 40
4.850000
 50
116.984254
 51
153.015746
  0
CIRCLE
  8
1
 62
7
  6
CONTINUOUS
 10
82.315882
 20
227.988004
 40
5.750000
  0
CIRCLE
  8
1
 62
7
  6
CONTINUOUS
 10
82.315882
 20
227.988004
 40
3.200000
  0
CIRCLE
  8
1
 62
7
  6
CONTINUOUS
 10
103.236721
 20
141.132750
 40
52.000000
  0
CIRCLE
  8
1
 62
7
  6
CONTINUOUS
 10
103.236721
 20
141.132750
 40
4.500000
  0
CIRCLE
  8
1
 62
7
  6
CONTINUOUS
 10
376.118877
 20
177.882750
 40
4.850000
  0
CIRCLE
  8
1
 62
7
  6
CONTINUOUS
 10
302.618877
 20
177.882750
 40
4.850000
  0
CIRCLE
  8
1
 62
7
  6
CONTINUOUS
 10
302.618877
 20
104.382750
 40
4.850000
  0
CIRCLE
  8
1
 62
7
  6
CONTINUOUS
 10
376.118877
 20
104.382750
 40
4.850000
  0
CIRCLE
  8
1
 62
7
  6
CONTINUOUS
 10
66.486721
 20
104.382750
 40
4.800000
  0
CIRCLE
  8
1
 62
7
  6
CONTINUOUS
 10
66.486721
 20
177.882750
 40
4.800000
  0
CIRCLE
  8
1
 62
7
  6
CONTINUOUS
 10
139.986721
 20
177.882750
 40
4.800000
  0
CIRCLE
  8
1
 62
7
  6
CONTINUOUS
 10
139.986721
 20
104.382750
 40
4.800000
  0
ARC
  8
1
 62
7
  6
CONTINUOUS
 10
146.086721
 20
110.303565
 40
0.500000
 50
-135.000000
 51
0.000000
  0
ARC
  8
1
 62
7
  6
CONTINUOUS
 10
72.407536
 20
98.282750
 40
0.500000
 50
135.000000
 51
-90.000000
  0
ARC
  8
1
 62
7
  6
CONTINUOUS
 10
60.386721
 20
171.961935
 40
0.500000
 50
45.000000
 51
180.000000
  0
ARC
  8
1
 62
7
  6
CONTINUOUS
 10
134.065906
 20
98.282750
 40
0.500000
 50
-90.000000
 51
45.000000
  0
ARC
  8
1
 62
7
  6
CONTINUOUS
 10
60.386721
 20
110.303565
 40
0.500000
 50
180.000000
 51
-45.000000
  0
ARC
  8
1
 62
7
  6
CONTINUOUS
 10
72.407536
 20
183.982750
 40
0.500000
 50
90.000000
 51
-135.000000
  0
ARC
  8
1
 62
7
  6
CONTINUOUS
 10
134.065906
 20
183.982750
 40
0.500000
 50
-45.000000
 51
90.000000
  0
ARC
  8
1
 62
7
  6
CONTINUOUS
 10
146.086721
 20
171.961935
 40
0.500000
 50
0.000000
 51
135.000000
  0
ARC
  8
1
 62
7
  6
CONTINUOUS
 10
295.768877
 20
108.139351
 40
1.000000
 50
180.000000
 51
-45.000016
  0
ARC
  8
1
 62
7
  6
CONTINUOUS
 10
306.375478
 20
184.732750
 40
1.000000
 50
90.000000
 51
-135.000016
  0
ARC
  8
1
 62
7
  6
CONTINUOUS
 10
382.968877
 20
174.126149
 40
1.000000
 50
0.000000
 51
134.999984
  0
ARC
  8
1
 62
7
  6
CONTINUOUS
 10
306.375479
 20
97.532750
 40
1.000000
 50
135.000000
 51
-90.000000
  0
ARC
  8
1
 62
7
  6
CONTINUOUS
 10
295.768877
 20
174.126148
 40
1.000000
 50
45.000000
 51
180.000000
  0
ARC
  8
1
 62
7
  6
CONTINUOUS
 10
372.362276
 20
184.732750
 40
1.000000
 50
-45.000000
 51
90.000000
  0
ARC
  8
1
 62
7
  6
CONTINUOUS
 10
372.362277
 20
97.532750
 40
1.000000
 50
-90.000000
 51
44.999984
  0
ARC
  8
1
 62
7
  6
CONTINUOUS
 10
382.968877
 20
108.139352
 40
1.000000
 50
-135.000000
 51
0.000000
  0
ARC
  8
1
 62
7
  6
CONTINUOUS
 10
314.768877
 20
151.322404
 40
20.000000
 50
135.000000
 51
180.000000
  0
ARC
  8
1
 62
7
  6
CONTINUOUS
 10
314.768877
 20
130.943096
 40
20.000000
 50
180.000000
 51
-135.000000
  0
ARC
  8
1
 62
7
  6
CONTINUOUS
 10
329.179224
 20
116.532750
 40
20.000000
 50
-135.000000
 51
-90.000000
  0
ARC
  8
1
 62
7
  6
CONTINUOUS
 10
349.558531
 20
116.532750
 40
20.000000
 50
-90.000000
 51
-45.000000
  0
ARC
  8
1
 62
7
  6
CONTINUOUS
 10
363.968877
 20
130.943096
 40
20.000000
 50
-45.000000
 51
-0.000000
  0
ARC
  8
1
 62
7
  6
CONTINUOUS
 10
363.968877
 20
151.322404
 40
20.000000
 50
0.000000
 51
45.000000
  0
ARC
  8
1
 62
7
  6
CONTINUOUS
 10
349.558531
 20
165.732750
 40
20.000000
 50
45.000000
 51
90.000000
  0
ARC
  8
1
 62
7
  6
CONTINUOUS
 10
329.179224
 20
165.732750
 40
20.000000
 50
90.000000
 51
135.000000
  0
ARC
  8
1
 62
7
  6
CONTINUOUS
 10
95.449506
 20
159.932750
 40
24.000000
 50
90.000000
 51
135.000000
  0
ARC
  8
1
 62
7
  6
CONTINUOUS
 10
84.436721
 20
148.919965
 40
24.000000
 50
135.000000
 51
180.000000
  0
ARC
  8
1
 62
7
  6
CONTINUOUS
 10
84.436721
 20
133.345535
 40
24.000000
 50
180.000000
 51
-135.000000
  0
ARC
  8
1
 62
7
  6
CONTINUOUS
 10
95.449506
 20
122.332750
 40
24.000000
 50
-135.000000
 51
-90.000000
  0
ARC
  8
1
 62
7
  6
CONTINUOUS
 10
111.023936
 20
122.332750
 40
24.000000
 50
-90.000000
 51
-45.000000
  0
ARC
  8
1
 62
7
  6
CONTINUOUS
 10
122.036721
 20
133.345535
 40
24.000000
 50
-45.000000
 51
-0.000000
  0
ARC
  8
1
 62
7
  6
CONTINUOUS
 10
122.036721
 20
148.919965
 40
24.000000
 50
0.000000
 51
45.000000
  0
ARC
  8
1
 62
7
  6
CONTINUOUS
 10
111.023936
 20
159.932750
 40
24.000000
 50
45.000000
 51
90.000000
  0
ARC
  8
1
 62
7
  6
CONTINUOUS
 10
80.886721
 20
97.728902
 40
1.000000
 50
180.000000
 51
-120.000000
  0
ARC
  8
1
 62
7
  6
CONTINUOUS
 10
80.886721
 20
98.857305
 40
1.000000
 50
180.000000
 51
-115.376934
  0
ARC
  8
1
 62
7
  6
CONTINUOUS
 10
125.586721
 20
98.857305
 40
1.000000
 50
-64.623066
 51
0.000000
  0
ARC
  8
1
 62
7
  6
CONTINUOUS
 10
125.586721
 20
97.728902
 40
1.000000
 50
-60.000000
 51
0.000000
  0
ARC
  8
1
 62
7
  6
CONTINUOUS
 10
77.886721
 20
92.532750
 40
5.000000
 50
0.000000
 51
60.000000
  0
ARC
  8
1
 62
7
  6
CONTINUOUS
 10
77.886721
 20
92.532750
 40
6.000000
 50
0.000000
 51
64.623066
  0
ARC
  8
1
 62
7
  6
CONTINUOUS
 10
376.968877
 20
103.532750
 40
7.000000
 50
-90.000000
 51
-0.000000
  0
ARC
  8
1
 62
7
  6
CONTINUOUS
 10
301.768877
 20
103.532750
 40
7.000000
 50
180.000000
 51
-90.000000
  0
ARC
  8
1
 62
7
  6
CONTINUOUS
 10
301.768877
 20
178.732750
 40
7.000000
 50
90.000000
 51
180.000000
  0
ARC
  8
1
 62
7
  6
CONTINUOUS
 10
376.968877
 20
178.732750
 40
7.000000
 50
0.000000
 51
90.000000
  0
ARC
  8
1
 62
7
  6
CONTINUOUS
 10
320.018877
 20
89.932750
 40
2.000000
 50
180.000000
 51
-90.000000
  0
ARC
  8
1
 62
7
  6
CONTINUOUS
 10
358.718852
 20
89.932750
 40
2.000000
 50
-90.000000
 51
-0.000000
  0
ARC
  8
1
 62
7
  6
CONTINUOUS
 10
314.018877
 20
92.532750
 40
4.000000
 50
0.000000
 51
90.000000
  0
ARC
  8
1
 62
7
  6
CONTINUOUS
 10
364.718852
 20
92.532750
 40
4.000000
 50
90.000000
 51
180.000000
  0
ARC
  8
1
 62
7
  6
CONTINUOUS
 10
232.260126
 20
88.454837
 40
0.200000
 50
-90.000000
 51
0.000000
  0
ARC
  8
1
 62
7
  6
CONTINUOUS
 10
234.460126
 20
94.951725
 40
2.000000
 50
90.000000
 51
180.000000
  0
ARC
  8
1
 62
7
  6
CONTINUOUS
 10
277.460118
 20
100.077720
 40
2.000000
 50
-90.000000
 51
-0.000000
  0
ARC
  8
1
 62
7
  6
CONTINUOUS
 10
277.460118
 20
182.187780
 40
2.000000
 50
0.000000
 51
90.000000
  0
ARC
  8
1
 62
7
  6
CONTINUOUS
 10
65.636721
 20
103.532750
 40
7.000000
 50
180.000000
 51
-90.000000
  0
ARC
  8
1
 62
7
  6
CONTINUOUS
 10
140.836721
 20
103.532750
 40
7.000000
 50
-90.000000
 51
-0.000000
  0
ARC
  8
1
 62
7
  6
CONTINUOUS
 10
140.836721
 20
178.732750
 40
7.000000
 50
0.000000
 51
90.000000
  0
ARC
  8
1
 62
7
  6
CONTINUOUS
 10
65.636721
 20
178.732750
 40
7.000000
 50
90.000000
 51
180.000000
  0
ARC
  8
1
 62
7
  6
CONTINUOUS
 10
122.086721
 20
90.432750
 40
0.500000
 50
-90.000000
 51
0.000000
  0
ARC
  8
1
 62
7
  6
CONTINUOUS
 10
84.386721
 20
90.432750
 40
0.500000
 50
180.000000
 51
-90.000000
  0
ARC
  8
1
 62
7
  6
CONTINUOUS
 10
122.586721
 20
89.932750
 40
2.000000
 50
-90.000000
 51
-0.000000
  0
ARC
  8
1
 62
7
  6
CONTINUOUS
 10
83.886746
 20
89.932750
 40
2.000000
 50
180.000000
 51
-90.000000
  0
ARC
  8
1
 62
7
  6
CONTINUOUS
 10
83.886721
 20
90.932750
 40
1.000000
 50
180.000000
 51
-90.000000
  0
ARC
  8
1
 62
7
  6
CONTINUOUS
 10
122.586721
 20
90.932750
 40
1.000000
 50
-90.000000
 51
0.000000
  0
ARC
  8
1
 62
7
  6
CONTINUOUS
 10
128.586721
 20
92.532750
 40
4.000000
 50
90.000000
 51
180.000000
  0
ARC
  8
1
 62
7
  6
CONTINUOUS
 10
77.911746
 20
92.557750
 40
3.975079
 50
-0.360346
 51
89.639654
  0
ARC
  8
1
 62
7
  6
CONTINUOUS
 10
128.586721
 20
92.532750
 40
5.000000
 50
120.000000
 51
180.000000
  0
ARC
  8
1
 62
7
  6
CONTINUOUS
 10
128.586721
 20
92.532750
 40
6.000000
 50
115.376934
 51
180.000000
  0
LINE
  8
1
 62
7
  6
CONTINUOUS
 10
42.826833
 20
224.134690
 11
52.826833
 21
224.134690
  0
LINE
  8
1
 62
7
  6
CONTINUOUS
 10
52.826833
 20
224.134690
 11
52.826833
 21
234.134690
  0
LINE
  8
1
 62
7
  6
CONTINUOUS
 10
52.826833
 20
234.134690
 11
42.826833
 21
234.134690
  0
LINE
  8
1
 62
7
  6
CONTINUOUS
 10
42.826833
 20
234.134690
 11
42.826833
 21
224.134690
  0
LINE
  8
1
 62
7
  6
CONTINUOUS
 10
200.545063
 20
215.222283
 11
155.557149
 21
215.222283
  0
LINE
  8
1
 62
7
  6
CONTINUOUS
 10
155.557149
 20
215.222283
 11
105.498396
 21
160.806285
  0
CIRCLE
  8
1
 62
7
  6
CONTINUOUS
 10
105.498396
 20
160.806285
 40
0.800000
  0
LINE
  8
1
 62
7
  6
CONTINUOUS
 10
203.355174
 20
158.450139
 11
155.557149
 21
158.450139
  0
LINE
  8
1
 62
7
  6
CONTINUOUS
 10
155.557149
 20
158.450139
 11
114.445843
 21
124.119679
  0
LINE
  8
1
 62
7
  6
CONTINUOUS
 10
116.632031
 20
126.494141
 11
117.172095
 21
125.847406
  0
LINE
  8
1
 62
7
  6
CONTINUOUS
 10
117.172095
 20
125.847406
 11
114.445843
 21
124.119679
  0
LINE
  8
1
 62
7
  6
CONTINUOUS
 10
114.445843
 20
124.119679
 11
116.632031
 21
126.494141
  0
LINE
  8
1
 62
7
  6
CONTINUOUS
 10
349.957503
 20
213.889382
 11
266.386433
 21
213.889382
  0
LINE
  8
1
 62
7
  6
CONTINUOUS
 10
266.386433
 20
213.889382
 11
252.565639
 21
203.066712
  0
LINE
  8
1
 62
7
  6
CONTINUOUS
 10
254.825351
 20
205.371313
 11
255.344827
 21
204.707930
  0
LINE
  8
1
 62
7
  6
CONTINUOUS
 10
255.344827
 20
204.707930
 11
252.565639
 21
203.066712
  0
LINE
  8
1
 62
7
  6
CONTINUOUS
 10
252.565639
 20
203.066712
 11
254.825351
 21
205.371313
  0
TEXT
  8
1
 62
7
  6
CONTINUOUS
 10
268.386433
 20
208.889382
 40
4.000000
 41
0.450000
  1
HEIGHT AFTER ROTOR COVER MOUNTED TO MOTOR
  7
KANJI
 50
0.000000
 51
0.000000
  0
TEXT
  8
1
 62
7
  6
CONTINUOUS
 10
157.557149
 20
153.450139
 40
4.000000
 41
0.540000
  1
MATERIAL INDICATION
  7
KANJI
 50
0.000000
 51
0.000000
  0
TEXT
  8
1
 62
7
  6
CONTINUOUS
 10
157.557149
 20
210.222283
 40
4.000000
 41
0.540000
  1
RECOGNITION NUMBER
  7
KANJI
 50
0.000000
 51
0.000000
  0
TEXT
  8
1
 62
7
  6
CONTINUOUS
 10
79.244375
 20
214.872696
 40
4.000000
 41
0.900000
  1
M6
  7
KANJI
 50
0.000000
 51
0.000000
  0
TEXT
  8
1
 62
7
  6
CONTINUOUS
 10
64.391539
 20
208.752752
 40
4.000000
 41
0.450000
  1
PLAIN WASHER
  7
KANJI
 50
0.000000
 51
0.000000
  0
TEXT
  8
1
 62
7
  6
CONTINUOUS
 10
64.935658
 20
214.872696
 40
4.000000
 41
0.900000
  1
ò¢ì└ïÓ
  7
KANJI
 50
0.000000
 51
0.000000
  0
TEXT
  8
1
 62
7
  6
CONTINUOUS
 10
45.639333
 20
226.634690
 40
5.000000
 41
0.900000
  1
A
  7
KANJI
 50
0.000000
 51
0.000000
  0
TEXT
  8
1
 62
7
  6
CONTINUOUS
 10
92.484446
 20
119.659292
 40
4.300000
 41
0.967500
  1
üäPOMüâ
  7
KANJI
 50
0.000000
 51
0.000000
  0
TEXT
  8
1
 62
7
  6
CONTINUOUS
 10
157.557149
 20
159.950139
 40
4.000000
 41
0.900000
  1
ìBÄ┐ò\Äª
  7
KANJI
 50
0.000000
 51
0.000000
  0
TEXT
  8
1
 62
7
  6
CONTINUOUS
 10
157.557149
 20
216.722283
 40
4.000000
 41
0.810000
  1
öFÄ»öÈìåüFé`écéOéXéXéOéR
  7
KANJI
 50
0.000000
 51
0.000000
  0
TEXT
  8
1
 62
7
  6
CONTINUOUS
 10
268.386433
 20
215.389382
 40
4.000000
 41
0.900000
  1
âéü|â^ÄµéÞòté»Ä×é╠ìéé▀
  7
KANJI
 50
0.000000
 51
0.000000
  0
LINE
  8
1
 62
7
  6
CONTINUOUS
 10
58.636721
 20
194.857351
 11
147.836721
 21
194.857351
  0
LINE
  8
1
 62
7
  6
CONTINUOUS
 10
58.636721
 20
179.732750
 11
58.636721
 21
196.357351
  0
LINE
  8
1
 62
7
  6
CONTINUOUS
 10
147.836721
 20
179.732750
 11
147.836721
 21
196.357351
  0
LINE
  8
1
 62
7
  6
CONTINUOUS
 10
58.636721
 20
194.857351
 11
61.836721
 21
195.273351
  0
LINE
  8
1
 62
7
  6
CONTINUOUS
 10
61.836721
 20
195.273351
 11
61.836721
 21
194.441351
  0
LINE
  8
1
 62
7
  6
CONTINUOUS
 10
61.836721
 20
194.441351
 11
58.636721
 21
194.857351
  0
LINE
  8
1
 62
7
  6
CONTINUOUS
 10
147.836721
 20
194.857351
 11
144.636721
 21
194.441351
  0
LINE
  8
1
 62
7
  6
CONTINUOUS
 10
144.636721
 20
194.441351
 11
144.636721
 21
195.273351
  0
LINE
  8
1
 62
7
  6
CONTINUOUS
 10
144.636721
 20
195.273351
 11
147.836721
 21
194.857351
  0
TEXT
  8
1
 62
7
  6
CONTINUOUS
 10
98.610509
 20
196.857351
 40
3.200000
 41
0.900000
  1
89.2
  7
KANJI
 50
0.000000
 51
0.000000
  0
LINE
  8
1
 62
7
  6
CONTINUOUS
 10
318.018878
 20
73.937211
 11
360.718852
 21
73.937211
  0
LINE
  8
1
 62
7
  6
CONTINUOUS
 10
360.718852
 20
88.932750
 11
360.718852
 21
72.437211
  0
LINE
  8
1
 62
7
  6
CONTINUOUS
 10
318.018878
 20
88.932750
 11
318.018878
 21
72.437211
  0
LINE
  8
1
 62
7
  6
CONTINUOUS
 10
318.018878
 20
73.937211
 11
321.218878
 21
74.353211
  0
LINE
  8
1
 62
7
  6
CONTINUOUS
 10
321.218878
 20
74.353211
 11
321.218878
 21
73.521211
  0
LINE
  8
1
 62
7
  6
CONTINUOUS
 10
321.218878
 20
73.521211
 11
318.018878
 21
73.937211
  0
LINE
  8
1
 62
7
  6
CONTINUOUS
 10
360.718852
 20
73.937211
 11
357.518852
 21
73.521211
  0
LINE
  8
1
 62
7
  6
CONTINUOUS
 10
357.518852
 20
73.521211
 11
357.518852
 21
74.353211
  0
LINE
  8
1
 62
7
  6
CONTINUOUS
 10
357.518852
 20
74.353211
 11
360.718852
 21
73.937211
  0
TEXT
  8
1
 62
7
  6
CONTINUOUS
 10
324.272366
 20
75.937211
 40
3.200000
 41
0.900000
  1
45ê╚ë║ MAX
  7
KANJI
 50
0.000000
 51
0.000000
  0
LINE
  8
1
 62
7
  6
CONTINUOUS
 10
48.822560
 20
96.532750
 11
48.822560
 21
185.732750
  0
LINE
  8
1
 62
7
  6
CONTINUOUS
 10
64.636721
 20
96.532750
 11
47.322560
 21
96.532750
  0
LINE
  8
1
 62
7
  6
CONTINUOUS
 10
64.636721
 20
185.732750
 11
47.322560
 21
185.732750
  0
LINE
  8
1
 62
7
  6
CONTINUOUS
 10
48.822560
 20
185.732750
 11
49.238560
 21
182.532750
  0
LINE
  8
1
 62
7
  6
CONTINUOUS
 10
49.238560
 20
182.532750
 11
48.406560
 21
182.532750
  0
LINE
  8
1
 62
7
  6
CONTINUOUS
 10
48.406560
 20
182.532750
 11
48.822560
 21
185.732750
  0
LINE
  8
1
 62
7
  6
CONTINUOUS
 10
48.822560
 20
96.532750
 11
48.406560
 21
99.732750
  0
LINE
  8
1
 62
7
  6
CONTINUOUS
 10
48.406560
 20
99.732750
 11
49.238560
 21
99.732750
  0
LINE
  8
1
 62
7
  6
CONTINUOUS
 10
49.238560
 20
99.732750
 11
48.822560
 21
96.532750
  0
TEXT
  8
1
 62
7
  6
CONTINUOUS
 10
46.822560
 20
136.969416
 40
3.200000
 41
0.900000
  1
89.2
  7
KANJI
 50
90.000000
 51
0.000000
  0
LINE
  8
1
 62
7
  6
CONTINUOUS
 10
211.960118
 20
197.092017
 11
279.460118
 21
197.092017
  0
LINE
  8
1
 62
7
  6
CONTINUOUS
 10
211.960118
 20
187.132750
 11
211.960118
 21
198.592017
  0
LINE
  8
1
 62
7
  6
CONTINUOUS
 10
279.460118
 20
183.187780
 11
279.460118
 21
198.592017
  0
LINE
  8
1
 62
7
  6
CONTINUOUS
 10
211.960118
 20
197.092017
 11
215.160118
 21
197.508017
  0
LINE
  8
1
 62
7
  6
CONTINUOUS
 10
215.160118
 20
197.508017
 11
215.160118
 21
196.676017
  0
LINE
  8
1
 62
7
  6
CONTINUOUS
 10
215.160118
 20
196.676017
 11
211.960118
 21
197.092017
  0
LINE
  8
1
 62
7
  6
CONTINUOUS
 10
279.460118
 20
197.092017
 11
276.260118
 21
196.676017
  0
LINE
  8
1
 62
7
  6
CONTINUOUS
 10
276.260118
 20
196.676017
 11
276.260118
 21
197.508017
  0
LINE
  8
1
 62
7
  6
CONTINUOUS
 10
276.260118
 20
197.508017
 11
279.460118
 21
197.092017
  0
TEXT
  8
1
 62
7
  6
CONTINUOUS
 10
240.871943
 20
199.092017
 40
3.200000
 41
0.900000
  1
67.5
  7
KANJI
 50
0.000000
 51
0.000000
  0
LINE
  8
1
 62
7
  6
CONTINUOUS
 10
218.460118
 20
78.811139
 11
232.460126
 21
78.811139
  0
LINE
  8
1
 62
7
  6
CONTINUOUS
 10
218.460118
 20
95.532750
 11
218.460118
 21
77.311139
  0
LINE
  8
1
 62
7
  6
CONTINUOUS
 10
232.460126
 20
87.454837
 11
232.460126
 21
77.311139
  0
LINE
  8
1
 62
7
  6
CONTINUOUS
 10
218.460118
 20
78.811139
 11
221.660118
 21
79.227139
  0
LINE
  8
1
 62
7
  6
CONTINUOUS
 10
221.660118
 20
79.227139
 11
221.660118
 21
78.395139
  0
LINE
  8
1
 62
7
  6
CONTINUOUS
 10
221.660118
 20
78.395139
 11
218.460118
 21
78.811139
  0
LINE
  8
1
 62
7
  6
CONTINUOUS
 10
232.460126
 20
78.811139
 11
229.260126
 21
78.395139
  0
LINE
  8
1
 62
7
  6
CONTINUOUS
 10
229.260126
 20
78.395139
 11
229.260126
 21
79.227139
  0
LINE
  8
1
 62
7
  6
CONTINUOUS
 10
229.260126
 20
79.227139
 11
232.460126
 21
78.811139
  0
TEXT
  8
1
 62
7
  6
CONTINUOUS
 10
223.524557
 20
80.811139
 40
3.200000
 41
0.900000
  1
14
  7
KANJI
 50
0.000000
 51
0.000000
  0
LINE
  8
1
 62
7
  6
CONTINUOUS
 10
218.460118
 20
69.246054
 11
279.460118
 21
69.246054
  0
LINE
  8
1
 62
7
  6
CONTINUOUS
 10
218.460118
 20
95.532750
 11
218.460118
 21
67.746054
  0
LINE
  8
1
 62
7
  6
CONTINUOUS
 10
279.460118
 20
99.077719
 11
279.460118
 21
67.746054
  0
LINE
  8
1
 62
7
  6
CONTINUOUS
 10
218.460118
 20
69.246054
 11
221.660118
 21
69.662054
  0
LINE
  8
1
 62
7
  6
CONTINUOUS
 10
221.660118
 20
69.662054
 11
221.660118
 21
68.830054
  0
LINE
  8
1
 62
7
  6
CONTINUOUS
 10
221.660118
 20
68.830054
 11
218.460118
 21
69.246054
  0
LINE
  8
1
 62
7
  6
CONTINUOUS
 10
279.460118
 20
69.246054
 11
276.260118
 21
68.830054
  0
LINE
  8
1
 62
7
  6
CONTINUOUS
 10
276.260118
 20
68.830054
 11
276.260118
 21
69.662054
  0
LINE
  8
1
 62
7
  6
CONTINUOUS
 10
276.260118
 20
69.662054
 11
279.460118
 21
69.246054
  0
TEXT
  8
1
 62
7
  6
CONTINUOUS
 10
248.169105
 20
71.246054
 40
3.200000
 41
0.900000
  1
61
  7
KANJI
 50
0.000000
 51
0.000000
  0
LINE
  8
1
 62
7
  6
CONTINUOUS
 10
48.822560
 20
87.932750
 11
48.822560
 21
96.532750
  0
LINE
  8
1
 62
7
  6
CONTINUOUS
 10
48.822560
 20
87.932750
 11
48.822560
 21
81.532750
  0
LINE
  8
1
 62
7
  6
CONTINUOUS
 10
48.822560
 20
96.532750
 11
48.822560
 21
102.932750
  0
LINE
  8
1
 62
7
  6
CONTINUOUS
 10
82.886747
 20
87.932750
 11
47.322560
 21
87.932750
  0
LINE
  8
1
 62
7
  6
CONTINUOUS
 10
64.636721
 20
96.532750
 11
47.322560
 21
96.532750
  0
LINE
  8
1
 62
7
  6
CONTINUOUS
 10
48.822560
 20
87.932750
 11
49.238560
 21
84.732750
  0
LINE
  8
1
 62
7
  6
CONTINUOUS
 10
49.238560
 20
84.732750
 11
48.406560
 21
84.732750
  0
LINE
  8
1
 62
7
  6
CONTINUOUS
 10
48.406560
 20
84.732750
 11
48.822560
 21
87.932750
  0
LINE
  8
1
 62
7
  6
CONTINUOUS
 10
48.822560
 20
96.532750
 11
48.406560
 21
99.732750
  0
LINE
  8
1
 62
7
  6
CONTINUOUS
 10
48.406560
 20
99.732750
 11
49.238560
 21
99.732750
  0
LINE
  8
1
 62
7
  6
CONTINUOUS
 10
49.238560
 20
99.732750
 11
48.822560
 21
96.532750
  0
TEXT
  8
1
 62
7
  6
CONTINUOUS
 10
46.822560
 20
88.601570
 40
3.200000
 41
0.900000
  1
8.6
  7
KANJI
 50
90.000000
 51
0.000000
  0
LINE
  8
1
 62
7
  6
CONTINUOUS
 10
155.690346
 20
193.546309
 11
172.090346
 21
193.546309
  0
LINE
  8
1
 62
7
  6
CONTINUOUS
 10
145.793149
 20
183.675808
 11
155.690346
 21
193.546309
  0
LINE
  8
1
 62
7
  6
CONTINUOUS
 10
145.793149
 20
183.675808
 11
147.765185
 21
186.230045
  0
LINE
  8
1
 62
7
  6
CONTINUOUS
 10
147.765185
 20
186.230045
 11
148.352703
 21
185.640939
  0
LINE
  8
1
 62
7
  6
CONTINUOUS
 10
148.352703
 20
185.640939
 11
145.793149
 21
183.675808
  0
TEXT
  8
1
 62
7
  6
CONTINUOUS
 10
170.170346
 20
195.546309
 40
3.200000
 41
0.900000
  1
7
  7
KANJI
 50
0.000000
 51
0.000000
  0
TEXT
  8
1
 62
7
  6
CONTINUOUS
 10
160.890346
 20
195.546309
 40
3.200000
 41
0.900000
  1
4-R
  7
KANJI
 50
0.000000
 51
0.000000
  0
LINE
  8
1
 62
7
  6
CONTINUOUS
 10
373.825497
 20
108.656262
 11
386.212925
 21
85.573391
  0
LINE
  8
1
 62
7
  6
CONTINUOUS
 10
386.212925
 20
85.573391
 11
406.337369
 21
85.573391
  0
LINE
  8
1
 62
7
  6
CONTINUOUS
 10
378.412259
 20
100.109238
 11
376.532547
 21
102.732164
  0
LINE
  8
1
 62
7
  6
CONTINUOUS
 10
376.532547
 20
102.732164
 11
377.265653
 21
103.125585
  0
LINE
  8
1
 62
7
  6
CONTINUOUS
 10
377.265653
 20
103.125585
 11
378.412259
 21
100.109238
  0
LINE
  8
1
 62
7
  6
CONTINUOUS
 10
373.825497
 20
108.656262
 11
375.705208
 21
106.033336
  0
LINE
  8
1
 62
7
  6
CONTINUOUS
 10
375.705208
 20
106.033336
 11
374.972102
 21
105.639914
  0
LINE
  8
1
 62
7
  6
CONTINUOUS
 10
374.972102
 20
105.639914
 11
373.825497
 21
108.656262
  0
TEXT
  8
1
 62
7
  6
CONTINUOUS
 10
400.497369
 20
87.573391
 40
3.200000
 41
0.900000
  1
9.4
  7
KANJI
 50
0.000000
 51
0.000000
  0
TEXT
  8
1
 62
7
  6
CONTINUOUS
 10
391.412925
 20
87.573391
 40
3.200000
 41
0.900000
  1
4-âË
  7
KANJI
 50
0.000000
 51
0.000000
  0
LINE
  8
1
 62
7
  6
CONTINUOUS
 10
144.147779
 20
173.230808
 11
52.384620
 21
101.235133
  0
LINE
  8
1
 62
7
  6
CONTINUOUS
 10
52.384620
 20
101.235133
 11
33.513431
 21
101.235133
  0
LINE
  8
1
 62
7
  6
CONTINUOUS
 10
62.325664
 20
109.034691
 11
64.586483
 21
111.337245
  0
LINE
  8
1
 62
7
  6
CONTINUOUS
 10
64.586483
 20
111.337245
 11
65.100052
 21
110.682668
  0
LINE
  8
1
 62
7
  6
CONTINUOUS
 10
65.100052
 20
110.682668
 11
62.325664
 21
109.034691
  0
LINE
  8
1
 62
7
  6
CONTINUOUS
 10
144.147779
 20
173.230808
 11
141.886960
 21
170.928255
  0
LINE
  8
1
 62
7
  6
CONTINUOUS
 10
141.886960
 20
170.928255
 11
141.373391
 21
171.582832
  0
LINE
  8
1
 62
7
  6
CONTINUOUS
 10
141.373391
 20
171.582832
 11
144.147779
 21
173.230808
  0
TEXT
  8
1
 62
7
  6
CONTINUOUS
 10
37.157875
 20
102.735206
 40
3.200000
 41
0.900000
  1
104
  7
KANJI
 50
0.000000
 51
0.000000
  0
TEXT
  8
1
 62
7
  6
CONTINUOUS
 10
33.513431
 20
102.735206
 40
3.200000
 41
0.900000
  1
âË
  7
KANJI
 50
0.000000
 51
0.000000
  0
LINE
  8
1
 62
7
  6
CONTINUOUS
 10
68.747813
 20
222.238004
 11
68.747813
 21
233.738004
  0
LINE
  8
1
 62
7
  6
CONTINUOUS
 10
67.147813
 20
222.238004
 11
68.747813
 21
222.238004
  0
LINE
  8
1
 62
7
  6
CONTINUOUS
 10
67.147813
 20
233.738004
 11
67.147813
 21
222.238004
  0
LINE
  8
1
 62
7
  6
CONTINUOUS
 10
68.747813
 20
233.738004
 11
67.147813
 21
233.738004
  0
LINE
  8
1
 62
7
  6
CONTINUOUS
 10
60.923635
 20
238.378698
 11
58.758571
 21
234.628698
  0
LINE
  8
1
 62
7
  6
CONTINUOUS
 10
63.088698
 20
234.628698
 11
60.923635
 21
238.378698
  0
LINE
  8
1
 62
7
  6
CONTINUOUS
 10
58.758571
 20
234.628698
 11
63.088698
 21
234.628698
  0
TEXT
  8
1
 62
7
  6
CONTINUOUS
 10
60.023635
 20
234.878698
 40
2.000000
 41
0.900000
  1
A
  7
KANJI
 50
0.000000
 51
0.000000
  0
LINE
  8
1
 62
7
  6
CONTINUOUS
 10
159.720811
 20
226.303695
 11
157.555747
 21
222.553695
  0
LINE
  8
1
 62
7
  6
CONTINUOUS
 10
161.885874
 20
222.553695
 11
159.720811
 21
226.303695
  0
LINE
  8
1
 62
7
  6
CONTINUOUS
 10
157.555747
 20
222.553695
 11
161.885874
 21
222.553695
  0
TEXT
  8
1
 62
7
  6
CONTINUOUS
 10
158.820811
 20
222.803695
 40
2.000000
 41
0.900000
  1
A
  7
KANJI
 50
0.000000
 51
0.000000
  0
LINE
  8
1
 62
7
  6
CONTINUOUS
 10
159.742401
 20
170.347810
 11
157.577338
 21
166.597810
  0
LINE
  8
1
 62
7
  6
CONTINUOUS
 10
161.907465
 20
166.597810
 11
159.742401
 21
170.347810
  0
LINE
  8
1
 62
7
  6
CONTINUOUS
 10
157.577338
 20
166.597810
 11
161.907465
 21
166.597810
  0
TEXT
  8
1
 62
7
  6
CONTINUOUS
 10
158.842401
 20
166.847810
 40
2.000000
 41
0.900000
  1
A
  7
KANJI
 50
0.000000
 51
0.000000
  0
LINE
  8
1
 62
7
  6
CONTINUOUS
 10
354.433157
 20
212.282900
 11
352.268093
 21
208.532900
  0
LINE
  8
1
 62
7
  6
CONTINUOUS
 10
356.598220
 20
208.532900
 11
354.433157
 21
212.282900
  0
LINE
  8
1
 62
7
  6
CONTINUOUS
 10
352.268093
 20
208.532900
 11
356.598220
 21
208.532900
  0
TEXT
  8
1
 62
7
  6
CONTINUOUS
 10
353.533157
 20
208.782900
 40
2.000000
 41
0.900000
  1
A
  7
KANJI
 50
0.000000
 51
0.000000
  0
LINE
  8
1
 62
7
  6
CONTINUOUS
 10
354.366695
 20
79.510920
 11
352.201632
 21
75.760920
  0
LINE
  8
1
 62
7
  6
CONTINUOUS
 10
356.531759
 20
75.760920
 11
354.366695
 21
79.510920
  0
LINE
  8
1
 62
7
  6
CONTINUOUS
 10
352.201632
 20
75.760920
 11
356.531759
 21
75.760920
  0
TEXT
  8
1
 62
7
  6
CONTINUOUS
 10
353.466695
 20
76.010920
 40
2.000000
 41
0.900000
  1
A
  7
KANJI
 50
0.000000
 51
0.000000
  0
LINE
  8
1
 62
7
  6
DIVIDE
 10
420.000000
 20
297.000000
 11
0.000000
 21
297.000000
  0
LINE
  8
1
 62
7
  6
DIVIDE
 10
0.000000
 20
297.000000
 11
0.000000
 21
0.000000
  0
LINE
  8
1
 62
7
  6
DIVIDE
 10
0.000000
 20
0.000000
 11
420.000000
 21
0.000000
  0
LINE
  8
1
 62
7
  6
DOT
 10
218.460117
 20
186.132750
 11
218.460117
 21
96.532750
  0
LINE
  8
1
 62
7
  6
DOT
 10
218.310117
 20
186.132750
 11
218.460117
 21
186.132750
  0
LINE
  8
1
 62
7
  6
DOT
 10
218.460117
 20
186.132750
 11
211.960117
 21
186.132750
  0
LINE
  8
1
 62
7
  6
DOT
 10
211.960117
 20
186.132750
 11
211.960117
 21
182.632750
  0
LINE
  8
1
 62
7
  6
DOT
 10
209.310117
 20
182.632750
 11
211.960117
 21
182.632750
  0
LINE
  8
1
 62
7
  6
DOT
 10
208.960117
 20
182.282750
 11
208.960117
 21
178.132750
  0
LINE
  8
1
 62
7
  6
DOT
 10
209.310117
 20
182.632750
 11
208.960117
 21
182.282750
  0
LINE
  8
1
 62
7
  6
DOT
 10
221.960117
 20
87.632750
 11
212.960117
 21
87.632750
  0
LINE
  8
1
 62
7
  6
DOT
 10
211.960117
 20
99.632750
 11
211.960117
 21
96.132750
  0
LINE
  8
1
 62
7
  6
DOT
 10
211.960117
 20
99.632750
 11
209.310117
 21
99.632750
  0
LINE
  8
1
 62
7
  6
DOT
 10
209.310117
 20
99.632750
 11
208.960117
 21
99.982750
  0
LINE
  8
1
 62
7
  6
DOT
 10
208.960117
 20
104.132750
 11
208.960117
 21
99.982750
  0
LINE
  8
1
 62
7
  6
DOT
 10
208.960117
 20
146.132750
 11
208.960117
 21
104.132750
  0
LINE
  8
1
 62
7
  6
DOT
 10
208.960117
 20
146.132750
 11
208.960117
 21
178.132750
  0
LINE
  8
1
 62
7
  6
DOT
 10
221.960117
 20
87.632750
 11
221.960117
 21
92.882750
  0
LINE
  8
1
 62
7
  6
DOT
 10
221.960117
 20
96.132750
 11
221.960117
 21
92.882750
  0
LINE
  8
1
 62
7
  6
DOT
 10
221.960125
 20
96.132750
 11
221.960125
 21
96.532750
  0
LINE
  8
1
 62
7
  6
DOT
 10
221.960117
 20
96.132750
 11
221.960125
 21
96.132750
  0
LINE
  8
1
 62
7
  6
DOT
 10
215.629702
 20
141.132750
 11
207.530876
 21
141.132750
  0
LINE
  8
1
 62
7
  6
DOT
 10
211.960117
 20
182.632750
 11
211.960117
 21
97.475221
  0
LINE
  8
1
 62
7
  6
DOT
 10
221.960117
 20
96.132750
 11
211.960117
 21
96.132750
  0
LINE
  8
1
 62
7
  6
DOT
 10
221.960117
 20
90.625550
 11
221.960117
 21
96.132750
  0
LINE
  8
1
 62
7
  6
DOT
 10
215.629702
 20
141.132750
 11
207.530876
 21
141.132750
  0
LINE
  8
1
 62
7
  6
DOT
 10
221.960117
 20
96.132750
 11
221.960117
 21
92.882750
  0
LINE
  8
1
 62
7
  6
DOT
 10
212.960117
 20
87.632750
 11
212.960117
 21
96.132750
  0
LINE
  8
1
 62
7
  6
DOT
 10
211.960117
 20
96.132750
 11
212.960117
 21
96.132750
  0
LINE
  8
1
 62
7
  6
DOT
 10
208.960117
 20
136.132750
 11
207.131183
 21
136.132750
  0
LINE
  8
1
 62
7
  6
DOT
 10
204.971824
 20
146.132750
 11
208.960117
 21
146.132750
  0
LINE
  8
1
 62
7
  6
DOT
 10
199.594104
 20
141.132750
 11
215.629702
 21
141.132750
  0
LINE
  8
1
 62
7
  6
DOT
 10
222.460117
 20
90.625550
 11
221.960117
 21
90.625550
  0
LINE
  8
1
 62
7
  6
DOT
 10
218.460117
 20
96.532750
 11
218.460117
 21
96.132750
  0
ARC
  8
1
 62
7
  6
CONTINUOUS
 10
212.278931
 20
139.306747
 40
10.005317
 50
124.860105
 51
135.587888
  0
ARC
  8
1
 62
7
  6
CONTINUOUS
 10
209.039228
 20
142.591237
 40
5.393163
 50
136.427214
 51
151.835087
  0
ARC
  8
1
 62
7
  6
CONTINUOUS
 10
207.533270
 20
143.484862
 40
3.644534
 50
153.045454
 51
171.978855
  0
ARC
  8
1
 62
7
  6
CONTINUOUS
 10
207.587429
 20
143.537835
 40
3.691259
 50
172.910400
 51
-169.580920
  0
ARC
  8
1
 62
7
  6
CONTINUOUS
 10
209.331172
 20
143.869210
 40
5.466188
 50
-169.470222
 51
-157.296934
  0
ARC
  8
1
 62
7
  6
CONTINUOUS
 10
213.992912
 20
145.780064
 40
10.504292
 50
-157.495627
 51
-150.785459
  0
ARC
  8
1
 62
7
  6
CONTINUOUS
 10
232.784136
 20
156.206668
 40
31.994348
 50
-150.913181
 51
-148.612260
  0
ARC
  8
1
 62
7
  6
CONTINUOUS
 10
162.861936
 20
113.572234
 40
49.900764
 50
29.866210
 51
31.362525
  0
ARC
  8
1
 62
7
  6
CONTINUOUS
 10
194.289954
 20
131.614573
 40
13.662025
 50
24.502263
 51
29.884097
  0
ARC
  8
1
 62
7
  6
CONTINUOUS
 10
200.178378
 20
134.300185
 40
7.190081
 50
14.596095
 51
24.489052
  0
ARC
  8
1
 62
7
  6
CONTINUOUS
 10
202.578678
 20
134.935927
 40
4.707050
 50
-0.337965
 51
14.470229
  0
ARC
  8
1
 62
7
  6
CONTINUOUS
 10
203.261125
 20
134.945443
 40
4.024694
 50
-18.613942
 51
-0.530741
  0
ARC
  8
1
 62
7
  6
CONTINUOUS
 10
202.457233
 20
135.202774
 40
4.868689
 50
-35.694653
 51
-18.464202
  0
ARC
  8
1
 62
7
  6
CONTINUOUS
 10
200.028755
 20
136.837143
 40
7.795061
 50
-48.444677
 51
-35.036055
  0
LINE
  8
1
 62
7
  6
DIVIDE
 10
420.000000
 20
241.000000
 11
420.000000
 21
297.000000
  0
ENDSEC
  0
EOF
