  0
SECTION
  2
HEADER
  9
$ACADVER
  1
AC1003
  9
$INSBASE
 10
0.000000
 20
0.000000
  9
$EXTMIN
 10
0.000000
 20
0.000000
  9
$EXTMAX
 10
210.000000
 20
148.000000
  9
$LIMMIN
 10
0.000000
 20
0.000000
  9
$LIMMAX
 10
210.000000
 20
148.000000
  9
$VIEWCTR
 10
105.000000
 20
74.000000
  9
$VIEWSIZE
 40
148.000000
  9
$PEXTMIN
 10
0.000000
 20
0.000000
 30
0.000000
  9
$PEXTMAX
 10
210.000000
 20
148.000000
 30
0.000000
  9
$SNAPMODE
 70
     0
  9
$SNAPUNIT
 10
1.000000
 20
1.000000
  9
$SNAPBASE
 10
0.000000
 20
0.000000
  9
$SNAPANG
 50
0.000000
  9
$SNAPISOPAIR
 70
     0
  9
$SNAPSTYLE
 70
     0
  9
$GRIDMODE
 70
     0
  9
$GRIDUNIT
 10
0.000000
 20
0.000000
  9
$ORTHOMODE
 70
     0
  9
$REGENMODE
 70
     1
  9
$FILLMODE
 70
     1
  9
$QTEXTMODE
 70
     0
  9
$DRAGMODE
 70
     2
  9
$LTSCALE
 40
0.250000
  9
$OSMODE
 70
     0
  9
$ATTMODE
 70
     1
  9
$TEXTSIZE
 40
0.200000
  9
$TRACEWID
 40
0.050000
  9
$TEXTSTYLE
  7
STANDARD
  9
$CLAYER
  8
0
  9
$CELTYPE
  6
BYLAYER
  9
$CECOLOR
 62
   256
  9
$DIMSCALE
 40
1.000000
  9
$DIMASZ
 40
1.000000
  9
$DIMEXO
 40
0.000000
  9
$DIMDLI
 40
0.500000
  9
$DIMRND
 40
0.000000
  9
$DIMDLE
 40
0.000000
  9
$DIMEXE
 40
0.000000
  9
$DIMTP
 40
0.000000
  9
$DIMTM
 40
0.000000
  9
$DIMTXT
 40
0.180000
  9
$DIMCEN
 40
0.000000
  9
$DIMTSZ
 40
0.000000
  9
$DIMTOL
 70
     0
  9
$DIMLIM
 70
     0
  9
$DIMTIH
 70
     1
  9
$DIMTOH
 70
     1
  9
$DIMSE1
 70
     0
  9
$DIMSE2
 70
     0
  9
$DIMTAD
 70
     0
  9
$DIMZIN
 70
     0
  9
$DIMBLK
  1

  9
$DIMASO
 70
     0
  9
$DIMSHO
 70
     0
  9
$DIMPOST
  1

  9
$DIMAPOST
  1

  9
$DIMALT
 70
     0
  9
$DIMALTD
 70
     0
  9
$DIMALTF
 40
25.400000
  9
$DIMLFAC
 40
1.000000
  9
$DIMTOFL
 70
     0
  9
$DIMTVP
 40
0.000000
  9
$DIMTIX
 70
     0
  9
$DIMSOXD
 70
     0
  9
$DIMSAH
 70
     0
  9
$DIMBLKL
  1

  9
$DIMBLKR
  1

  9
$LUNITS
 70
     2
  9
$LUPREC
 70
     2
  9
$AXISMODE
 70
     0
  9
$AXISUNIT
 10
1.000000
 20
1.000000
  9
$SKETCHINC
 40
0.000000
  9
$FILLETRAD
 40
0.000000
  9
$AUNITS
 70
     1
  9
$AUPREC
 70
     2
  9
$MENU
  1
ACAD
  9
$ELEVATION
 40
0.000000
  9
$THICKNESS
 40
0.000000
  9
$VIEWDIR
 10
0.000000
 20
0.000000
 30
1.000000
  9
$LIMCHECK
 70
     1
  9
$BLIPMODE
 70
     1
  9
$CHAMFERA
 40
0.000000
  9
$CHAMFERB
 40
0.000000
  9
$FASTZOOM
 70
     1
  9
$SKPOLY
 70
     0
  9
$TDCREATE
 40
0.000000
  9
$TDUPDATE
 40
0.000000
  9
$TDINDWG
 40
0.000000
  9
$TDUSRTIMER
 40
0.000000
  9
$USRTIMER
 70
     1
  9
$ANGBASE
 50
0.000000
  9
$ANGDIR
 70
     0
  9
$PDMODE
 70
     0
  9
$PDSIZE
 40
0.000000
  9
$PLINEWID
 40
0.000000
  9
$COORDS
 70
     2
  9
$USERI1
 70
     0
  9
$USERI2
 70
     0
  9
$USERI3
 70
     0
  9
$USERI4
 70
     0
  9
$USERI5
 70
     0
  9
$USERR1
 40
0.000000
  9
$USERR2
 40
0.000000
  9
$USERR3
 40
0.000000
  9
$USERR4
 40
0.000000
  9
$USERR5
 40
0.000000
  0
ENDSEC
  0
SECTION
  2
TABLES
  0
TABLE
  2
LTYPE
 70
     5
  0
LTYPE
  2
CONTINUOUS
 70
    64
  3
Solid line
 72
    65
 73
     0
 40
0.0
  0
LTYPE
  2
HIDDEN
 70
    64
  3
------------------------
 72
    65
 73
     2
 40
12.6
 49
8.4
 49
-4.2
  0
LTYPE
  2
DOT
 70
    64
  3
ÑÑÑÑÑÑÑÑÑÑÑÑÑÑÑÑÑÑÑÑÑÑÑÑ
 72
    65
 73
     2
 40
8.0
 49
6.0
 49
-2.0
  0
LTYPE
  2
DASHDOT
 70
    64
  3
--Ñ--Ñ--Ñ--Ñ--Ñ--Ñ--Ñ--
 72
    65
 73
     4
 40
50.5
 49
30.0
 49
-9.0
 49
2.5
 49
-9.0
  0
LTYPE
  2
DIVIDE
 70
    64
  3
--ÑÑ--ÑÑ--ÑÑ--ÑÑ--ÑÑ--
 72
    65
 73
     6
 40
58.0
 49
30.0
 49
-9.0
 49
2.5
 49
-5.0
 49
2.5
 49
-9.0
  0
ENDTAB
  0
TABLE
  2
LAYER
 70
1
  0
LAYER
  2
1
 70
64
 62
7
  6
CONTINUOUS
  0
ENDTAB
  0
TABLE
  2
STYLE
 70
     2
  0
STYLE
  2
STANDARD
 70
    64
 40
0.0
 41
1.0
 50
0.0
 71
     0
 42
0.2
  3
TXT
  4

  0
STYLE
  2
KANJI
 70
    64
 40
0.0
 41
1.0
 50
0.0
 71
     0
 42
0.2
  3
TXT
  4
BIGFONT
  0
ENDTAB
  0
TABLE
  2
VIEW
 70
     0
  0
ENDTAB
  0
ENDSEC
  0
SECTION
  2
BLOCKS
  0
ENDSEC
  0
SECTION
  2
ENTITIES
  0
LINE
  8
1
 62
7
  6
CONTINUOUS
 10
916.546381
 20
1009.194746
 11
917.444044
 21
1009.194746
  0
LINE
  8
1
 62
7
  6
CONTINUOUS
 10
917.444044
 20
1009.194746
 11
917.444044
 21
1005.827586
  0
LINE
  8
1
 62
7
  6
CONTINUOUS
 10
914.046381
 20
1009.194746
 11
914.944044
 21
1009.194746
  0
LINE
  8
1
 62
7
  6
CONTINUOUS
 10
914.944044
 20
1009.194746
 11
914.944044
 21
1005.827586
  0
LINE
  8
1
 62
7
  6
CONTINUOUS
 10
916.546381
 20
1005.827586
 11
916.546381
 21
1009.194746
  0
LINE
  8
1
 62
7
  6
CONTINUOUS
 10
914.046381
 20
1005.827586
 11
915.120213
 21
1005.827586
  0
LINE
  8
1
 62
7
  6
CONTINUOUS
 10
914.046381
 20
1005.827586
 11
914.046381
 21
1009.194746
  0
LINE
  8
1
 62
7
  6
CONTINUOUS
 10
913.870213
 20
1005.827586
 11
914.046381
 21
1005.827586
  0
LINE
  8
1
 62
7
  6
CONTINUOUS
 10
916.370213
 20
1005.827586
 11
917.620213
 21
1005.827586
  0
LINE
  8
1
 62
7
  6
CONTINUOUS
 10
997.649724
 20
985.130475
 11
999.149724
 21
985.130475
  0
LINE
  8
1
 62
7
  6
CONTINUOUS
 10
997.649724
 20
985.130475
 11
997.649724
 21
993.899611
  0
LINE
  8
1
 62
7
  6
CONTINUOUS
 10
999.149724
 20
985.130475
 11
1000.949724
 21
985.130475
  0
LINE
  8
1
 62
7
  6
CONTINUOUS
 10
999.149724
 20
985.130475
 11
999.149724
 21
993.751766
  0
LINE
  8
1
 62
7
  6
CONTINUOUS
 10
907.324526
 20
980.737275
 11
909.533370
 21
976.000394
  0
LINE
  8
1
 62
7
  6
CONTINUOUS
 10
904.745319
 20
971.140883
 11
902.453020
 21
973.433182
  0
LINE
  8
1
 62
7
  6
DASHDOT
 10
899.705474
 20
983.694505
 11
899.705474
 21
978.704137
  0
LINE
  8
1
 62
7
  6
DASHDOT
 10
934.143191
 20
981.130475
 11
933.855474
 21
981.130475
  0
LINE
  8
1
 62
7
  6
DASHDOT
 10
931.705474
 20
978.704137
 11
931.705474
 21
983.694505
  0
LINE
  8
1
 62
7
  6
DASHDOT
 10
933.855474
 20
981.130475
 11
933.455474
 21
981.130475
  0
LINE
  8
1
 62
7
  6
DASHDOT
 10
933.855474
 20
981.130475
 11
933.455474
 21
981.130475
  0
LINE
  8
1
 62
7
  6
DASHDOT
 10
929.315679
 20
949.130475
 11
933.455474
 21
949.130475
  0
LINE
  8
1
 62
7
  6
DASHDOT
 10
931.705474
 20
946.566445
 11
931.705474
 21
951.556813
  0
LINE
  8
1
 62
7
  6
CONTINUOUS
 10
974.319947
 20
933.588759
 11
944.172018
 21
933.588759
  0
LINE
  8
1
 62
7
  6
DASHDOT
 10
915.705474
 20
965.130475
 11
937.488360
 21
965.130475
  0
LINE
  8
1
 62
7
  6
CONTINUOUS
 10
917.620213
 20
984.130258
 11
917.620213
 21
977.225867
  0
LINE
  8
1
 62
7
  6
CONTINUOUS
 10
916.370213
 20
984.178222
 11
916.370213
 21
977.361741
  0
LINE
  8
1
 62
7
  6
CONTINUOUS
 10
913.870213
 20
984.130475
 11
913.870213
 21
977.243525
  0
LINE
  8
1
 62
7
  6
CONTINUOUS
 10
916.370213
 20
990.743569
 11
916.370213
 21
984.750978
  0
LINE
  8
1
 62
7
  6
CONTINUOUS
 10
917.620213
 20
992.052978
 11
917.620213
 21
1005.827586
  0
LINE
  8
1
 62
7
  6
CONTINUOUS
 10
916.370213
 20
1005.827586
 11
916.370213
 21
991.822560
  0
LINE
  8
1
 62
7
  6
CONTINUOUS
 10
915.120213
 20
992.211314
 11
915.120213
 21
1005.827586
  0
LINE
  8
1
 62
7
  6
CONTINUOUS
 10
913.870213
 20
1005.827586
 11
913.870213
 21
991.901551
  0
LINE
  8
1
 62
7
  6
CONTINUOUS
 10
913.870213
 20
990.822560
 11
913.870213
 21
985.130475
  0
LINE
  8
1
 62
7
  6
CONTINUOUS
 10
915.120213
 20
991.132322
 11
915.120213
 21
977.367000
  0
LINE
  8
1
 62
7
  6
CONTINUOUS
 10
917.620213
 20
990.973986
 11
917.620213
 21
985.130475
  0
LINE
  8
1
 62
7
  6
DASHDOT
 10
897.267758
 20
949.130475
 11
897.955474
 21
949.130475
  0
LINE
  8
1
 62
7
  6
DASHDOT
 10
899.705474
 20
951.556813
 11
899.705474
 21
946.566445
  0
LINE
  8
1
 62
7
  6
DASHDOT
 10
915.705474
 20
965.130475
 11
915.705474
 21
942.966256
  0
LINE
  8
1
 62
7
  6
CONTINUOUS
 10
913.305474
 20
983.630475
 11
913.305474
 21
977.143073
  0
LINE
  8
1
 62
7
  6
CONTINUOUS
 10
918.105474
 20
983.630475
 11
918.105474
 21
977.143073
  0
LINE
  8
1
 62
7
  6
DASHDOT
 10
893.660992
 20
965.130475
 11
915.705474
 21
965.130475
  0
LINE
  8
1
 62
7
  6
DASHDOT
 10
915.705474
 20
987.646256
 11
915.705474
 21
965.130475
  0
LINE
  8
1
 62
7
  6
CONTINUOUS
 10
915.055474
 20
984.630475
 11
915.055474
 21
984.230475
  0
LINE
  8
1
 62
7
  6
CONTINUOUS
 10
916.855474
 20
985.130475
 11
931.705474
 21
985.130475
  0
LINE
  8
1
 62
7
  6
CONTINUOUS
 10
916.355474
 20
984.630475
 11
916.355474
 21
984.230475
  0
LINE
  8
1
 62
7
  6
CONTINUOUS
 10
914.955474
 20
984.130475
 11
913.805474
 21
984.130475
  0
LINE
  8
1
 62
7
  6
CONTINUOUS
 10
916.455474
 20
984.130475
 11
917.605474
 21
984.130475
  0
LINE
  8
1
 62
7
  6
CONTINUOUS
 10
899.705474
 20
985.130475
 11
914.555474
 21
985.130475
  0
LINE
  8
1
 62
7
  6
CONTINUOUS
 10
895.705474
 20
949.130475
 11
895.705474
 21
981.130475
  0
LINE
  8
1
 62
7
  6
CONTINUOUS
 10
935.705474
 20
981.130475
 11
935.705474
 21
949.130475
  0
LINE
  8
1
 62
7
  6
CONTINUOUS
 10
931.705474
 20
945.130475
 11
899.705474
 21
945.130475
  0
LINE
  8
1
 62
7
  6
DASHDOT
 10
1011.760196
 20
965.130475
 11
995.210196
 21
965.130475
  0
LINE
  8
1
 62
7
  6
CONTINUOUS
 10
1000.949724
 20
961.330475
 11
1000.949724
 21
954.102496
  0
LINE
  8
1
 62
7
  6
CONTINUOUS
 10
1009.949724
 20
976.158455
 11
1009.949724
 21
954.102496
  0
LINE
  8
1
 62
7
  6
CONTINUOUS
 10
1000.949724
 20
976.158455
 11
1000.949724
 21
961.330475
  0
LINE
  8
1
 62
7
  6
CONTINUOUS
 10
1009.949724
 20
976.158455
 11
1000.949724
 21
976.158455
  0
LINE
  8
1
 62
7
  6
CONTINUOUS
 10
1009.949724
 20
954.102496
 11
1009.949724
 21
945.130475
  0
LINE
  8
1
 62
7
  6
CONTINUOUS
 10
1000.949724
 20
954.102496
 11
1000.949724
 21
945.130475
  0
LINE
  8
1
 62
7
  6
CONTINUOUS
 10
1009.949724
 20
954.102496
 11
1000.949724
 21
954.102496
  0
LINE
  8
1
 62
7
  6
CONTINUOUS
 10
1009.949724
 20
945.130475
 11
1000.949724
 21
945.130475
  0
LINE
  8
1
 62
7
  6
CONTINUOUS
 10
1009.949724
 20
985.130475
 11
1009.949724
 21
976.158455
  0
LINE
  8
1
 62
7
  6
CONTINUOUS
 10
1000.949724
 20
985.130475
 11
1009.949724
 21
985.130475
  0
LINE
  8
1
 62
7
  6
CONTINUOUS
 10
996.949724
 20
945.130475
 11
996.949724
 21
985.130475
  0
LINE
  8
1
 62
7
  6
CONTINUOUS
 10
1000.949724
 20
945.130475
 11
996.949724
 21
945.130475
  0
LINE
  8
1
 62
7
  6
CONTINUOUS
 10
1000.949724
 20
985.130475
 11
1000.949724
 21
976.158455
  0
LINE
  8
1
 62
7
  6
CONTINUOUS
 10
996.949724
 20
985.130475
 11
997.649724
 21
985.130475
  0
LINE
  8
1
 62
7
  6
CONTINUOUS
 10
901.570950
 20
946.530475
 11
907.086310
 21
946.530475
  0
LINE
  8
1
 62
7
  6
CONTINUOUS
 10
924.324639
 20
946.530475
 11
929.215495
 21
946.530475
  0
LINE
  8
1
 62
7
  6
CONTINUOUS
 10
934.305474
 20
956.511311
 11
934.305474
 21
951.620455
  0
LINE
  8
1
 62
7
  6
CONTINUOUS
 10
897.105474
 20
973.749640
 11
897.105474
 21
979.264999
  0
LINE
  8
1
 62
7
  6
CONTINUOUS
 10
907.086310
 20
983.730475
 11
901.570950
 21
983.730475
  0
LINE
  8
1
 62
7
  6
CONTINUOUS
 10
929.839999
 20
983.730475
 11
924.324639
 21
983.730475
  0
LINE
  8
1
 62
7
  6
CONTINUOUS
 10
934.305474
 20
979.264999
 11
934.305474
 21
973.749640
  0
LINE
  8
1
 62
7
  6
CONTINUOUS
 10
897.105474
 20
950.995951
 11
897.105474
 21
956.511311
  0
LINE
  8
1
 62
7
  6
DASHDOT
 10
902.095270
 20
981.130475
 11
897.955474
 21
981.130475
  0
LINE
  8
1
 62
7
  6
DASHDOT
 10
897.955474
 20
981.130475
 11
897.267758
 21
981.130475
  0
LINE
  8
1
 62
7
  6
DASHDOT
 10
933.455474
 20
981.130475
 11
929.315679
 21
981.130475
  0
LINE
  8
1
 62
7
  6
DASHDOT
 10
933.455474
 20
981.130475
 11
929.315679
 21
981.130475
  0
LINE
  8
1
 62
7
  6
DASHDOT
 10
933.455474
 20
949.130475
 11
934.143191
 21
949.130475
  0
LINE
  8
1
 62
7
  6
DASHDOT
 10
897.955474
 20
949.130475
 11
902.095270
 21
949.130475
  0
LINE
  8
1
 62
7
  6
CONTINUOUS
 10
922.730216
 20
972.148666
 11
923.105216
 21
972.148666
  0
LINE
  8
1
 62
7
  6
CONTINUOUS
 10
922.730216
 20
970.148666
 11
923.105216
 21
970.148666
  0
LINE
  8
1
 62
7
  6
CONTINUOUS
 10
924.605216
 20
972.148666
 11
924.605216
 21
970.148666
  0
LINE
  8
1
 62
7
  6
CONTINUOUS
 10
924.605216
 20
972.148666
 11
924.980216
 21
972.148666
  0
LINE
  8
1
 62
7
  6
CONTINUOUS
 10
924.605216
 20
970.148666
 11
924.980216
 21
970.148666
  0
LINE
  8
1
 62
7
  6
CONTINUOUS
 10
923.855216
 20
972.148666
 11
923.855216
 21
970.148666
  0
LINE
  8
1
 62
7
  6
CONTINUOUS
 10
923.855216
 20
972.148666
 11
924.605216
 21
972.148666
  0
LINE
  8
1
 62
7
  6
CONTINUOUS
 10
923.855216
 20
970.148666
 11
924.605216
 21
970.148666
  0
LINE
  8
1
 62
7
  6
CONTINUOUS
 10
923.105216
 20
972.148666
 11
923.105216
 21
970.148666
  0
LINE
  8
1
 62
7
  6
CONTINUOUS
 10
923.105216
 20
972.148666
 11
923.855216
 21
972.148666
  0
LINE
  8
1
 62
7
  6
CONTINUOUS
 10
923.105216
 20
970.148666
 11
923.855216
 21
970.148666
  0
LINE
  8
1
 62
7
  6
CONTINUOUS
 10
899.130847
 20
957.004485
 11
903.924618
 21
959.772170
  0
LINE
  8
1
 62
7
  6
CONTINUOUS
 10
900.380847
 20
954.839422
 11
905.174618
 21
957.607107
  0
LINE
  8
1
 62
7
  6
CONTINUOUS
 10
926.236331
 20
957.607107
 11
931.030102
 21
954.839422
  0
LINE
  8
1
 62
7
  6
CONTINUOUS
 10
927.486331
 20
959.772170
 11
932.280102
 21
957.004485
  0
LINE
  8
1
 62
7
  6
CONTINUOUS
 10
919.305474
 20
983.170431
 11
919.305474
 21
977.467006
  0
LINE
  8
1
 62
7
  6
CONTINUOUS
 10
912.105474
 20
983.170431
 11
912.105474
 21
977.467006
  0
LINE
  8
1
 62
7
  6
CONTINUOUS
 10
903.493216
 20
966.095666
 11
927.917391
 21
966.095666
  0
LINE
  8
1
 62
7
  6
DASHDOT
 10
909.705474
 20
958.548365
 11
909.705474
 21
957.048365
  0
LINE
  8
1
 62
7
  6
DASHDOT
 10
909.705474
 20
957.048365
 11
921.705474
 21
957.048365
  0
LINE
  8
1
 62
7
  6
DASHDOT
 10
921.705474
 20
957.048365
 11
921.705474
 21
958.548365
  0
LINE
  8
1
 62
7
  6
DASHDOT
 10
921.705474
 20
958.548365
 11
909.705474
 21
958.548365
  0
LINE
  8
1
 62
7
  6
DASHDOT
 10
912.705474
 20
956.048365
 11
912.705474
 21
954.048365
  0
LINE
  8
1
 62
7
  6
DASHDOT
 10
912.705474
 20
954.048365
 11
918.705474
 21
954.048365
  0
LINE
  8
1
 62
7
  6
DASHDOT
 10
918.705474
 20
954.048365
 11
918.705474
 21
956.048365
  0
LINE
  8
1
 62
7
  6
DASHDOT
 10
918.705474
 20
956.048365
 11
912.705474
 21
956.048365
  0
LINE
  8
1
 62
7
  6
CONTINUOUS
 10
899.253438
 20
971.698808
 11
903.990319
 21
969.489964
  0
LINE
  8
1
 62
7
  6
CONTINUOUS
 10
898.880440
 20
959.586945
 11
903.928920
 21
960.939681
  0
LINE
  8
1
 62
7
  6
CONTINUOUS
 10
906.380063
 20
950.068961
 11
909.377901
 21
954.350317
  0
LINE
  8
1
 62
7
  6
CONTINUOUS
 10
918.243150
 20
947.598427
 11
917.787624
 21
952.805109
  0
LINE
  8
1
 62
7
  6
CONTINUOUS
 10
928.918830
 20
953.331334
 11
925.223086
 21
957.027077
  0
LINE
  8
1
 62
7
  6
CONTINUOUS
 10
933.411834
 20
964.585189
 11
928.205152
 21
965.040715
  0
LINE
  8
1
 62
7
  6
CONTINUOUS
 10
929.619836
 20
976.094190
 11
925.338480
 21
973.096353
  0
LINE
  8
1
 62
7
  6
CONTINUOUS
 10
903.446093
 20
962.689663
 11
900.216628
 21
962.972204
  0
LINE
  8
1
 62
7
  6
CONTINUOUS
 10
907.883167
 20
955.380526
 11
905.227639
 21
953.521105
  0
LINE
  8
1
 62
7
  6
CONTINUOUS
 10
915.980386
 20
952.633499
 11
915.141346
 21
949.502159
  0
LINE
  8
1
 62
7
  6
CONTINUOUS
 10
923.948971
 20
955.733946
 11
925.319015
 21
952.795876
  0
LINE
  8
1
 62
7
  6
CONTINUOUS
 10
928.060332
 20
963.231133
 11
930.998401
 21
961.861089
  0
LINE
  8
1
 62
7
  6
CONTINUOUS
 10
926.390718
 20
971.617044
 11
929.522057
 21
972.456084
  0
LINE
  8
1
 62
7
  6
CONTINUOUS
 10
919.721360
 20
976.967817
 11
921.580780
 21
979.623345
  0
LINE
  8
1
 62
7
  6
CONTINUOUS
 10
911.172924
 20
976.779767
 11
910.890383
 21
980.009232
  0
LINE
  8
1
 62
7
  6
CONTINUOUS
 10
899.253438
 20
971.698808
 11
903.990319
 21
969.489964
  0
LINE
  8
1
 62
7
  6
CONTINUOUS
 10
898.880440
 20
959.586945
 11
903.928920
 21
960.939681
  0
LINE
  8
1
 62
7
  6
CONTINUOUS
 10
906.380063
 20
950.068961
 11
909.377901
 21
954.350317
  0
LINE
  8
1
 62
7
  6
CONTINUOUS
 10
918.243150
 20
947.598427
 11
917.787624
 21
952.805109
  0
LINE
  8
1
 62
7
  6
CONTINUOUS
 10
928.918830
 20
953.331334
 11
925.223086
 21
957.027077
  0
LINE
  8
1
 62
7
  6
CONTINUOUS
 10
933.411834
 20
964.585189
 11
928.205152
 21
965.040715
  0
LINE
  8
1
 62
7
  6
CONTINUOUS
 10
929.619836
 20
976.094190
 11
925.338480
 21
973.096353
  0
ARC
  8
1
 62
7
  6
CONTINUOUS
 10
915.705474
 20
965.130475
 40
12.500000
 50
108.384034
 51
119.588566
  0
ARC
  8
1
 62
7
  6
CONTINUOUS
 10
915.705474
 20
965.130475
 40
18.250000
 50
119.847678
 51
136.878887
  0
ARC
  8
1
 62
7
  6
CONTINUOUS
 10
915.705474
 20
965.130475
 40
12.500000
 50
119.588566
 51
151.260205
  0
ARC
  8
1
 62
7
  6
CONTINUOUS
 10
916.632474
 20
963.933475
 40
32.200681
 50
-110.000000
 51
-70.000000
  0
ARC
  8
1
 62
7
  6
CONTINUOUS
 10
915.705474
 20
965.130475
 40
12.500000
 50
-22.263620
 51
71.615966
  0
ARC
  8
1
 62
7
  6
CONTINUOUS
 10
915.705474
 20
965.130475
 40
19.000000
 50
102.804297
 51
-155.427987
  0
ARC
  8
1
 62
7
  6
CONTINUOUS
 10
915.705474
 20
965.130475
 40
12.500000
 50
151.260205
 51
-157.736380
  0
ARC
  8
1
 62
7
  6
CONTINUOUS
 10
915.705474
 20
965.130475
 40
12.500000
 50
-142.263620
 51
-37.736380
  0
ARC
  8
1
 62
7
  6
CONTINUOUS
 10
915.705474
 20
965.130475
 40
19.000000
 50
-144.572013
 51
-35.427987
  0
ARC
  8
1
 62
7
  6
CONTINUOUS
 10
914.555474
 20
984.630475
 40
0.500000
 50
0.000000
 51
90.000000
  0
ARC
  8
1
 62
7
  6
CONTINUOUS
 10
916.855474
 20
984.630475
 40
0.500000
 50
90.000000
 51
180.000000
  0
ARC
  8
1
 62
7
  6
CONTINUOUS
 10
915.705474
 20
965.130475
 40
19.000000
 50
-24.572013
 51
77.195703
  0
ARC
  8
1
 62
7
  6
CONTINUOUS
 10
899.705474
 20
949.130475
 40
3.200000
 50
-54.340912
 51
-0.228950
  0
ARC
  8
1
 62
7
  6
CONTINUOUS
 10
915.705474
 20
965.130475
 40
20.500000
 50
-128.637538
 51
-114.862815
  0
ARC
  8
1
 62
7
  6
CONTINUOUS
 10
915.705474
 20
965.130475
 40
20.500000
 50
-65.137185
 51
-52.731737
  0
ARC
  8
1
 62
7
  6
CONTINUOUS
 10
931.705474
 20
949.130475
 40
3.600000
 50
-174.994818
 51
-133.761743
  0
ARC
  8
1
 62
7
  6
CONTINUOUS
 10
931.705474
 20
949.130475
 40
3.600000
 50
43.761743
 51
84.994818
  0
ARC
  8
1
 62
7
  6
CONTINUOUS
 10
915.705474
 20
965.130475
 40
20.500000
 50
-37.268263
 51
-24.862815
  0
ARC
  8
1
 62
7
  6
CONTINUOUS
 10
899.705474
 20
981.130475
 40
3.200000
 50
-144.340912
 51
-90.228950
  0
ARC
  8
1
 62
7
  6
CONTINUOUS
 10
915.705474
 20
965.130475
 40
20.500000
 50
141.362462
 51
155.137185
  0
ARC
  8
1
 62
7
  6
CONTINUOUS
 10
899.705474
 20
981.130475
 40
3.200000
 50
0.228950
 51
54.340912
  0
ARC
  8
1
 62
7
  6
CONTINUOUS
 10
915.705474
 20
965.130475
 40
20.500000
 50
114.862815
 51
128.637538
  0
ARC
  8
1
 62
7
  6
CONTINUOUS
 10
915.705474
 20
965.130475
 40
20.500000
 50
51.362462
 51
65.137185
  0
ARC
  8
1
 62
7
  6
CONTINUOUS
 10
931.705474
 20
981.130475
 40
3.200000
 50
125.659088
 51
179.771050
  0
ARC
  8
1
 62
7
  6
CONTINUOUS
 10
931.705474
 20
981.130475
 40
3.200000
 50
-89.771050
 51
-35.659088
  0
ARC
  8
1
 62
7
  6
CONTINUOUS
 10
915.705474
 20
965.130475
 40
20.500000
 50
24.862815
 51
38.637538
  0
ARC
  8
1
 62
7
  6
CONTINUOUS
 10
915.705474
 20
965.130475
 40
20.500000
 50
-155.137185
 51
-141.362462
  0
ARC
  8
1
 62
7
  6
CONTINUOUS
 10
899.705474
 20
949.130475
 40
3.200000
 50
90.228950
 51
144.340912
  0
ARC
  8
1
 62
7
  6
CONTINUOUS
 10
915.705474
 20
965.130475
 40
18.250000
 50
159.847678
 51
176.878887
  0
ARC
  8
1
 62
7
  6
CONTINUOUS
 10
915.705474
 20
965.130475
 40
18.250000
 50
-146.072557
 51
-143.121113
  0
ARC
  8
1
 62
7
  6
CONTINUOUS
 10
915.705474
 20
965.130475
 40
18.250000
 50
-120.152322
 51
-103.121113
  0
ARC
  8
1
 62
7
  6
CONTINUOUS
 10
915.705474
 20
965.130475
 40
18.250000
 50
-80.152322
 51
-63.121113
  0
ARC
  8
1
 62
7
  6
CONTINUOUS
 10
915.705474
 20
965.130475
 40
18.250000
 50
-26.072557
 51
-23.121113
  0
ARC
  8
1
 62
7
  6
CONTINUOUS
 10
915.705474
 20
965.130475
 40
18.250000
 50
-0.152322
 51
16.878887
  0
ARC
  8
1
 62
7
  6
CONTINUOUS
 10
915.705474
 20
965.130475
 40
18.250000
 50
39.847678
 51
56.878887
  0
ARC
  8
1
 62
7
  6
CONTINUOUS
 10
915.705474
 20
965.130475
 40
18.250000
 50
-160.152322
 51
-153.927443
  0
ARC
  8
1
 62
7
  6
CONTINUOUS
 10
915.705474
 20
965.130475
 40
18.250000
 50
-40.152322
 51
-33.927443
  0
CIRCLE
  8
1
 62
7
  6
CONTINUOUS
 10
915.705474
 20
965.130475
 40
12.250000
  0
CIRCLE
  8
1
 62
7
  6
CONTINUOUS
 10
899.705474
 20
981.130475
 40
1.750000
  0
CIRCLE
  8
1
 62
7
  6
CONTINUOUS
 10
931.705474
 20
981.130475
 40
1.750000
  0
CIRCLE
  8
1
 62
7
  6
CONTINUOUS
 10
931.705474
 20
949.130475
 40
1.750000
  0
CIRCLE
  8
1
 62
7
  6
CONTINUOUS
 10
899.705474
 20
949.130475
 40
1.750000
  0
ARC
  8
1
 62
7
  6
CONTINUOUS
 10
922.670009
 20
974.399629
 40
18.633715
 50
118.721041
 51
119.957173
  0
ARC
  8
1
 62
7
  6
CONTINUOUS
 10
916.503152
 20
985.659940
 40
5.795307
 50
114.865977
 51
118.750163
  0
ARC
  8
1
 62
7
  6
CONTINUOUS
 10
915.360653
 20
988.131696
 40
3.072282
 50
107.885602
 51
114.917907
  0
ARC
  8
1
 62
7
  6
CONTINUOUS
 10
915.005879
 20
989.235170
 40
1.913181
 50
97.131025
 51
107.923558
  0
ARC
  8
1
 62
7
  6
CONTINUOUS
 10
914.939465
 20
989.750588
 40
1.393506
 50
82.547315
 51
97.052188
  0
ARC
  8
1
 62
7
  6
CONTINUOUS
 10
914.884050
 20
989.474942
 40
1.674121
 50
73.145876
 51
81.890421
  0
ARC
  8
1
 62
7
  6
CONTINUOUS
 10
914.342865
 20
987.677067
 40
3.551681
 50
68.941979
 51
73.199590
  0
ARC
  8
1
 62
7
  6
CONTINUOUS
 10
897.980896
 20
945.112455
 40
49.152779
 50
68.658323
 51
68.970838
  0
ARC
  8
1
 62
7
  6
CONTINUOUS
 10
917.423774
 20
994.870141
 40
4.268685
 50
-111.359928
 51
-107.792382
  0
ARC
  8
1
 62
7
  6
CONTINUOUS
 10
916.700549
 20
992.616529
 40
1.901869
 50
-107.792382
 51
-100.002475
  0
ARC
  8
1
 62
7
  6
CONTINUOUS
 10
916.613038
 20
992.120353
 40
1.398034
 50
-100.002475
 51
-84.837545
  0
ARC
  8
1
 62
7
  6
CONTINUOUS
 10
916.530101
 20
993.038340
 40
2.319761
 50
-84.837545
 51
-75.568865
  0
ARC
  8
1
 62
7
  6
CONTINUOUS
 10
916.411846
 20
993.497875
 40
2.794267
 50
-75.568865
 51
-67.566040
  0
ARC
  8
1
 62
7
  6
CONTINUOUS
 10
914.125676
 20
999.035222
 40
8.784992
 50
-67.566040
 51
-64.926812
  0
ARC
  8
1
 62
7
  6
CONTINUOUS
 10
913.627870
 20
1000.099220
 40
9.959685
 50
-64.926812
 51
-62.549637
  0
ARC
  8
1
 62
7
  6
CONTINUOUS
 10
922.670009
 20
975.478620
 40
18.633715
 50
118.721041
 51
119.957173
  0
ARC
  8
1
 62
7
  6
CONTINUOUS
 10
916.503152
 20
986.738932
 40
5.795307
 50
114.865977
 51
118.750163
  0
ARC
  8
1
 62
7
  6
CONTINUOUS
 10
915.360653
 20
989.210687
 40
3.072282
 50
107.885602
 51
114.917907
  0
ARC
  8
1
 62
7
  6
CONTINUOUS
 10
915.005879
 20
990.314161
 40
1.913181
 50
97.131025
 51
107.923558
  0
ARC
  8
1
 62
7
  6
CONTINUOUS
 10
914.939465
 20
990.829580
 40
1.393506
 50
82.547315
 51
97.052188
  0
ARC
  8
1
 62
7
  6
CONTINUOUS
 10
914.884050
 20
990.553934
 40
1.674121
 50
73.145876
 51
81.890421
  0
ARC
  8
1
 62
7
  6
CONTINUOUS
 10
914.342865
 20
988.756058
 40
3.551681
 50
68.941979
 51
73.199590
  0
ARC
  8
1
 62
7
  6
CONTINUOUS
 10
897.980897
 20
946.191447
 40
49.152779
 50
68.658323
 51
68.970838
  0
ARC
  8
1
 62
7
  6
CONTINUOUS
 10
917.423774
 20
995.949132
 40
4.268685
 50
-111.359928
 51
-107.792382
  0
ARC
  8
1
 62
7
  6
CONTINUOUS
 10
916.700549
 20
993.695521
 40
1.901869
 50
-107.792382
 51
-100.002475
  0
ARC
  8
1
 62
7
  6
CONTINUOUS
 10
916.613038
 20
993.199344
 40
1.398034
 50
-100.002475
 51
-84.837545
  0
ARC
  8
1
 62
7
  6
CONTINUOUS
 10
916.530101
 20
994.117332
 40
2.319761
 50
-84.837545
 51
-75.568865
  0
ARC
  8
1
 62
7
  6
CONTINUOUS
 10
916.411846
 20
994.576867
 40
2.794267
 50
-75.568865
 51
-67.566040
  0
ARC
  8
1
 62
7
  6
CONTINUOUS
 10
914.125676
 20
1000.114213
 40
8.784992
 50
-67.566040
 51
-64.926812
  0
ARC
  8
1
 62
7
  6
CONTINUOUS
 10
913.627870
 20
1001.178212
 40
9.959684
 50
-64.926812
 51
-62.549637
  0
ARC
  8
1
 62
7
  6
CONTINUOUS
 10
1001.408397
 20
995.525275
 40
4.095169
 50
-156.611029
 51
-152.657478
  0
ARC
  8
1
 62
7
  6
CONTINUOUS
 10
999.402509
 20
994.497440
 40
1.841310
 50
-152.398576
 51
-145.916688
  0
ARC
  8
1
 62
7
  6
CONTINUOUS
 10
998.480114
 20
993.881052
 40
0.731966
 50
-145.415619
 51
-133.951757
  0
ARC
  8
1
 62
7
  6
CONTINUOUS
 10
998.158698
 20
993.555710
 40
0.274722
 50
-132.785745
 51
-111.793869
  0
ARC
  8
1
 62
7
  6
CONTINUOUS
 10
998.103629
 20
993.437369
 40
0.144573
 50
-108.940360
 51
-78.083567
  0
ARC
  8
1
 62
7
  6
CONTINUOUS
 10
998.089528
 20
993.475791
 40
0.185172
 50
-76.269130
 51
-51.587795
  0
ARC
  8
1
 62
7
  6
CONTINUOUS
 10
997.948840
 20
993.664053
 40
0.420152
 50
-52.505947
 51
-39.690936
  0
ARC
  8
1
 62
7
  6
CONTINUOUS
 10
997.418021
 20
994.121551
 40
1.120873
 50
-40.357463
 51
-34.807396
  0
ARC
  8
1
 62
7
  6
CONTINUOUS
 10
993.773281
 20
996.681743
 40
5.574929
 50
-35.029613
 51
-33.811925
  0
ARC
  8
1
 62
7
  6
CONTINUOUS
 10
1001.143761
 20
991.743547
 40
3.296923
 50
144.037738
 51
146.161109
  0
ARC
  8
1
 62
7
  6
CONTINUOUS
 10
999.458642
 20
992.967021
 40
1.214494
 50
138.417087
 51
144.070541
  0
ARC
  8
1
 62
7
  6
CONTINUOUS
 10
999.019541
 20
993.356638
 40
0.627458
 50
128.093839
 51
138.417025
  0
ARC
  8
1
 62
7
  6
CONTINUOUS
 10
998.856286
 20
993.563138
 40
0.364223
 50
111.289277
 51
127.923664
  0
ARC
  8
1
 62
7
  6
CONTINUOUS
 10
998.819839
 20
993.650531
 40
0.269570
 50
88.434810
 51
110.815424
  0
ARC
  8
1
 62
7
  6
CONTINUOUS
 10
998.817839
 20
993.605952
 40
0.314188
 50
66.314106
 51
88.292245
  0
ARC
  8
1
 62
7
  6
CONTINUOUS
 10
998.731344
 20
993.387610
 40
0.548950
 50
51.007108
 51
67.201802
  0
LINE
  8
1
 62
7
  6
CONTINUOUS
 10
999.076757
 20
993.814267
 11
999.149724
 21
993.751766
  0
ARC
  8
1
 62
7
  6
CONTINUOUS
 10
906.871372
 20
980.525966
 40
0.500000
 50
25.000000
 51
119.847678
  0
ARC
  8
1
 62
7
  6
CONTINUOUS
 10
904.574340
 20
975.554503
 40
3.000000
 50
136.878887
 51
-135.000000
  0
ARC
  8
1
 62
7
  6
CONTINUOUS
 10
898.880847
 20
957.437498
 40
0.500000
 50
-155.427987
 51
-60.000000
  0
ARC
  8
1
 62
7
  6
CONTINUOUS
 10
900.630847
 20
954.406409
 40
0.500000
 50
120.000000
 51
-144.572013
  0
ARC
  8
1
 62
7
  6
CONTINUOUS
 10
905.424618
 20
957.174094
 40
0.500000
 50
37.736380
 51
120.000000
  0
ARC
  8
1
 62
7
  6
CONTINUOUS
 10
903.674618
 20
960.205183
 40
0.500000
 50
-60.000000
 51
22.263620
  0
ARC
  8
1
 62
7
  6
CONTINUOUS
 10
932.530102
 20
957.437498
 40
0.500000
 50
-120.000000
 51
-24.572013
  0
ARC
  8
1
 62
7
  6
CONTINUOUS
 10
930.780102
 20
954.406409
 40
0.500000
 50
-35.427987
 51
60.000000
  0
ARC
  8
1
 62
7
  6
CONTINUOUS
 10
925.986331
 20
957.174094
 40
0.500000
 50
60.000000
 51
142.263620
  0
ARC
  8
1
 62
7
  6
CONTINUOUS
 10
927.736331
 20
960.205183
 40
0.500000
 50
157.736380
 51
-120.000000
  0
ARC
  8
1
 62
7
  6
CONTINUOUS
 10
917.605474
 20
983.630475
 40
0.500000
 50
0.000000
 51
90.000000
  0
ARC
  8
1
 62
7
  6
CONTINUOUS
 10
913.805474
 20
983.630475
 40
0.500000
 50
90.000000
 51
180.000000
  0
ARC
  8
1
 62
7
  6
CONTINUOUS
 10
919.805474
 20
977.467006
 40
0.500000
 50
180.000000
 51
-108.384034
  0
ARC
  8
1
 62
7
  6
CONTINUOUS
 10
919.805474
 20
983.170431
 40
0.500000
 50
77.195703
 51
180.000000
  0
ARC
  8
1
 62
7
  6
CONTINUOUS
 10
911.605474
 20
983.170431
 40
0.500000
 50
0.000000
 51
102.804297
  0
ARC
  8
1
 62
7
  6
CONTINUOUS
 10
911.605474
 20
977.467006
 40
0.500000
 50
-71.615966
 51
0.000000
  0
ARC
  8
1
 62
7
  6
CONTINUOUS
 10
916.455474
 20
984.230475
 40
0.100000
 50
180.000000
 51
-90.000000
  0
ARC
  8
1
 62
7
  6
CONTINUOUS
 10
914.955474
 20
984.230475
 40
0.100000
 50
-90.000000
 51
0.000000
  0
ARC
  8
1
 62
7
  6
CONTINUOUS
 10
931.705474
 20
949.130475
 40
4.000000
 50
-90.000000
 51
0.000000
  0
ARC
  8
1
 62
7
  6
CONTINUOUS
 10
899.705474
 20
949.130475
 40
4.000000
 50
180.000000
 51
-90.000000
  0
ARC
  8
1
 62
7
  6
CONTINUOUS
 10
899.705474
 20
981.130475
 40
4.000000
 50
90.000000
 51
180.000000
  0
ARC
  8
1
 62
7
  6
CONTINUOUS
 10
931.705474
 20
981.130475
 40
4.000000
 50
0.000000
 51
90.000000
  0
ARC
  8
1
 62
7
  6
CONTINUOUS
 10
900.478095
 20
965.960788
 40
3.000000
 50
176.878887
 51
-95.000000
  0
ARC
  8
1
 62
7
  6
CONTINUOUS
 10
903.506910
 20
955.978561
 40
3.000000
 50
-143.121113
 51
-55.000000
  0
ARC
  8
1
 62
7
  6
CONTINUOUS
 10
912.243569
 20
950.278616
 40
3.000000
 50
-103.121113
 51
-15.000000
  0
ARC
  8
1
 62
7
  6
CONTINUOUS
 10
922.600092
 20
951.528021
 40
3.000000
 50
-63.121113
 51
25.000000
  0
ARC
  8
1
 62
7
  6
CONTINUOUS
 10
929.730547
 20
959.142166
 40
3.000000
 50
-23.121113
 51
65.000000
  0
ARC
  8
1
 62
7
  6
CONTINUOUS
 10
930.298514
 20
969.558307
 40
3.000000
 50
16.878887
 51
105.000000
  0
ARC
  8
1
 62
7
  6
CONTINUOUS
 10
924.038236
 20
977.902616
 40
3.000000
 50
56.878887
 51
145.000000
  0
ARC
  8
1
 62
7
  6
CONTINUOUS
 10
913.878967
 20
980.270699
 40
3.000000
 50
126.239656
 51
-175.000000
  0
ARC
  8
1
 62
7
  6
CONTINUOUS
 10
899.042129
 20
971.245654
 40
0.500000
 50
65.000000
 51
159.847678
  0
ARC
  8
1
 62
7
  6
CONTINUOUS
 10
899.009850
 20
959.103982
 40
0.500000
 50
105.000000
 51
-160.152322
  0
ARC
  8
1
 62
7
  6
CONTINUOUS
 10
906.789639
 20
949.782173
 40
0.500000
 50
145.000000
 51
-120.152322
  0
ARC
  8
1
 62
7
  6
CONTINUOUS
 10
918.741247
 20
947.642005
 40
0.500000
 50
-175.000000
 51
-80.152322
  0
ARC
  8
1
 62
7
  6
CONTINUOUS
 10
929.272383
 20
953.684887
 40
0.500000
 50
-135.000000
 51
-40.152322
  0
ARC
  8
1
 62
7
  6
CONTINUOUS
 10
933.455412
 20
965.083287
 40
0.500000
 50
-95.000000
 51
-0.152322
  0
ARC
  8
1
 62
7
  6
CONTINUOUS
 10
929.333047
 20
976.503766
 40
0.500000
 50
-55.000000
 51
39.847678
  0
LINE
  8
1
 62
7
  6
CONTINUOUS
 10
1010.235167
 20
933.244071
 11
993.292531
 21
933.244071
  0
LINE
  8
1
 62
7
  6
CONTINUOUS
 10
998.292531
 20
933.902333
 11
998.292531
 21
932.585808
  0
LINE
  8
1
 62
7
  6
CONTINUOUS
 10
998.292531
 20
932.585808
 11
993.292531
 21
933.244071
  0
LINE
  8
1
 62
7
  6
CONTINUOUS
 10
993.292531
 20
933.244071
 11
998.292531
 21
933.902333
  0
LINE
  8
1
 62
7
  6
CONTINUOUS
 10
905.619193
 20
933.674733
 11
902.915197
 21
934.658907
  0
LINE
  8
1
 62
7
  6
CONTINUOUS
 10
907.838800
 20
933.567371
 11
907.388521
 21
932.330242
  0
LINE
  8
1
 62
7
  6
CONTINUOUS
 10
907.388521
 20
932.330242
 11
902.915197
 21
934.658907
  0
LINE
  8
1
 62
7
  6
CONTINUOUS
 10
902.915197
 20
934.658907
 11
907.838800
 21
933.567371
  0
LINE
  8
1
 62
7
  6
CONTINUOUS
 10
944.172018
 20
933.588759
 11
932.952951
 21
947.903160
  0
LINE
  8
1
 62
7
  6
CONTINUOUS
 10
935.474664
 20
945.432678
 11
934.749331
 21
944.864190
  0
LINE
  8
1
 62
7
  6
CONTINUOUS
 10
934.749331
 20
944.864190
 11
932.952951
 21
947.903160
  0
LINE
  8
1
 62
7
  6
CONTINUOUS
 10
932.952951
 20
947.903160
 11
935.474664
 21
945.432678
  0
LINE
  8
1
 62
7
  6
CONTINUOUS
 10
859.039523
 20
982.038591
 11
887.273360
 21
982.038591
  0
LINE
  8
1
 62
7
  6
CONTINUOUS
 10
887.273360
 20
982.038591
 11
903.231872
 21
975.077792
  0
CIRCLE
  8
1
 62
7
  6
CONTINUOUS
 10
903.231872
 20
975.077792
 40
0.875000
  0
TEXT
  8
1
 62
7
  6
CONTINUOUS
 10
1000.539173
 20
934.699841
 40
3.500000
 41
0.900000
  1
òùî³
  7
KANJI
 50
0.000000
 51
0.000000
  0
TEXT
  8
1
 62
7
  6
CONTINUOUS
 10
909.839469
 20
934.718137
 40
3.500000
 41
0.900000
  1
ë±ô]ò¹î³
  7
KANJI
 50
0.000000
 51
0.000000
  0
TEXT
  8
1
 62
7
  6
CONTINUOUS
 10
946.029439
 20
934.700454
 40
3.500000
 41
0.900000
  1
4-âË3.5ü}0.3
  7
KANJI
 50
0.000000
 51
0.000000
  0
TEXT
  8
1
 62
7
  6
CONTINUOUS
 10
859.847821
 20
982.882213
 40
3.500000
 41
0.900000
  1
9-BLADES
  7
KANJI
 50
0.000000
 51
0.000000
  0
TEXT
  8
1
 62
7
  6
CONTINUOUS
 10
905.886881
 20
970.159079
 40
2.000000
 41
0.720000
  1
DC ELFIN 13
  7
KANJI
 50
0.000000
 51
0.000000
  0
LINE
  8
1
 62
7
  6
CONTINUOUS
 10
908.703176
 20
1009.194746
 11
908.703176
 21
1023.435945
  0
LINE
  8
1
 62
7
  6
CONTINUOUS
 10
908.703176
 20
1005.827586
 11
908.703176
 21
1009.194746
  0
LINE
  8
1
 62
7
  6
CONTINUOUS
 10
908.703176
 20
998.827586
 11
908.703176
 21
1005.827586
  0
LINE
  8
1
 62
7
  6
CONTINUOUS
 10
914.046381
 20
1009.194746
 11
907.703176
 21
1009.194746
  0
LINE
  8
1
 62
7
  6
CONTINUOUS
 10
913.870213
 20
1005.827586
 11
907.703176
 21
1005.827586
  0
LINE
  8
1
 62
7
  6
CONTINUOUS
 10
908.703176
 20
1009.194746
 11
908.248176
 21
1012.694746
  0
LINE
  8
1
 62
7
  6
CONTINUOUS
 10
908.248176
 20
1012.694746
 11
909.158176
 21
1012.694746
  0
LINE
  8
1
 62
7
  6
CONTINUOUS
 10
909.158176
 20
1012.694746
 11
908.703176
 21
1009.194746
  0
LINE
  8
1
 62
7
  6
CONTINUOUS
 10
908.703176
 20
1005.827586
 11
909.158176
 21
1002.327586
  0
LINE
  8
1
 62
7
  6
CONTINUOUS
 10
909.158176
 20
1002.327586
 11
908.248176
 21
1002.327586
  0
LINE
  8
1
 62
7
  6
CONTINUOUS
 10
908.248176
 20
1002.327586
 11
908.703176
 21
1005.827586
  0
TEXT
  8
1
 62
7
  6
CONTINUOUS
 10
907.703176
 20
1016.715945
 40
3.200000
 41
0.900000
  1
(10)
  7
KANJI
 50
90.000000
 51
0.000000
  0
LINE
  8
1
 62
7
  6
CONTINUOUS
 10
900.519517
 20
1009.194746
 11
900.519517
 21
1026.827945
  0
LINE
  8
1
 62
7
  6
CONTINUOUS
 10
900.519517
 20
985.130475
 11
900.519517
 21
1009.194746
  0
LINE
  8
1
 62
7
  6
CONTINUOUS
 10
914.046381
 20
1009.194746
 11
899.519517
 21
1009.194746
  0
LINE
  8
1
 62
7
  6
CONTINUOUS
 10
899.705474
 20
985.130475
 11
901.519517
 21
985.130475
  0
LINE
  8
1
 62
7
  6
CONTINUOUS
 10
900.519517
 20
1009.194746
 11
900.974517
 21
1005.694746
  0
LINE
  8
1
 62
7
  6
CONTINUOUS
 10
900.974517
 20
1005.694746
 11
900.064517
 21
1005.694746
  0
LINE
  8
1
 62
7
  6
CONTINUOUS
 10
900.064517
 20
1005.694746
 11
900.519517
 21
1009.194746
  0
LINE
  8
1
 62
7
  6
CONTINUOUS
 10
900.519517
 20
985.130475
 11
900.064517
 21
988.630475
  0
LINE
  8
1
 62
7
  6
CONTINUOUS
 10
900.064517
 20
988.630475
 11
900.974517
 21
988.630475
  0
LINE
  8
1
 62
7
  6
CONTINUOUS
 10
900.974517
 20
988.630475
 11
900.519517
 21
985.130475
  0
TEXT
  8
1
 62
7
  6
CONTINUOUS
 10
899.519517
 20
1013.323945
 40
3.200000
 41
0.900000
  1
300
  7
KANJI
 50
90.000000
 51
0.000000
  0
TEXT
  8
1
 62
7
  6
CONTINUOUS
 10
898.879517
 20
1022.603945
 40
1.920000
 41
0.900000
  1
ü}30
  7
KANJI
 50
90.000000
 51
0.000000
  0
LINE
  8
1
 62
7
  6
CONTINUOUS
 10
959.705474
 20
945.130475
 11
959.705474
 21
985.130475
  0
LINE
  8
1
 62
7
  6
CONTINUOUS
 10
931.705474
 20
945.130475
 11
960.705474
 21
945.130475
  0
LINE
  8
1
 62
7
  6
CONTINUOUS
 10
931.705474
 20
985.130475
 11
960.705474
 21
985.130475
  0
LINE
  8
1
 62
7
  6
CONTINUOUS
 10
959.705474
 20
985.130475
 11
960.160474
 21
981.630475
  0
LINE
  8
1
 62
7
  6
CONTINUOUS
 10
960.160474
 20
981.630475
 11
959.250474
 21
981.630475
  0
LINE
  8
1
 62
7
  6
CONTINUOUS
 10
959.250474
 20
981.630475
 11
959.705474
 21
985.130475
  0
LINE
  8
1
 62
7
  6
CONTINUOUS
 10
959.705474
 20
945.130475
 11
959.250474
 21
948.630475
  0
LINE
  8
1
 62
7
  6
CONTINUOUS
 10
959.250474
 20
948.630475
 11
960.160474
 21
948.630475
  0
LINE
  8
1
 62
7
  6
CONTINUOUS
 10
960.160474
 20
948.630475
 11
959.705474
 21
945.130475
  0
TEXT
  8
1
 62
7
  6
CONTINUOUS
 10
957.905474
 20
962.986475
 40
3.200000
 41
0.900000
  1
40
  7
KANJI
 50
90.000000
 51
0.000000
  0
TEXT
  8
1
 62
7
  6
CONTINUOUS
 10
955.825474
 20
969.386475
 40
1.920000
 41
0.900000
  1
+1
  7
KANJI
 50
90.000000
 51
0.000000
  0
TEXT
  8
1
 62
7
  6
CONTINUOUS
 10
958.705474
 20
969.386475
 40
1.920000
 41
0.900000
  1
 0
  7
KANJI
 50
90.000000
 51
0.000000
  0
TEXT
  8
1
 62
7
  6
CONTINUOUS
 10
957.905474
 20
958.186475
 40
3.200000
 41
0.900000
  1
9
  7
KANJI
 50
90.000000
 51
0.000000
  0
LINE
  8
1
 62
7
  6
CONTINUOUS
 10
996.949724
 20
1010.130475
 11
1009.949724
 21
1010.130475
  0
LINE
  8
1
 62
7
  6
CONTINUOUS
 10
996.949724
 20
985.130475
 11
996.949724
 21
1011.130475
  0
LINE
  8
1
 62
7
  6
CONTINUOUS
 10
1009.949724
 20
985.130475
 11
1009.949724
 21
1011.130475
  0
LINE
  8
1
 62
7
  6
CONTINUOUS
 10
996.949724
 20
1010.130475
 11
1000.449724
 21
1010.585475
  0
LINE
  8
1
 62
7
  6
CONTINUOUS
 10
1000.449724
 20
1010.585475
 11
1000.449724
 21
1009.675475
  0
LINE
  8
1
 62
7
  6
CONTINUOUS
 10
1000.449724
 20
1009.675475
 11
996.949724
 21
1010.130475
  0
LINE
  8
1
 62
7
  6
CONTINUOUS
 10
1009.949724
 20
1010.130475
 11
1006.449724
 21
1009.675475
  0
LINE
  8
1
 62
7
  6
CONTINUOUS
 10
1006.449724
 20
1009.675475
 11
1006.449724
 21
1010.585475
  0
LINE
  8
1
 62
7
  6
CONTINUOUS
 10
1006.449724
 20
1010.585475
 11
1009.949724
 21
1010.130475
  0
TEXT
  8
1
 62
7
  6
CONTINUOUS
 10
997.425724
 20
1011.930475
 40
3.200000
 41
0.900000
  1
12.7
  7
KANJI
 50
0.000000
 51
0.000000
  0
TEXT
  8
1
 62
7
  6
CONTINUOUS
 10
1006.785724
 20
1014.010475
 40
1.920000
 41
0.900000
  1
+1
  7
KANJI
 50
0.000000
 51
0.000000
  0
TEXT
  8
1
 62
7
  6
CONTINUOUS
 10
1006.785724
 20
1011.130475
 40
1.920000
 41
0.900000
  1
 0
  7
KANJI
 50
0.000000
 51
0.000000
  0
LINE
  8
1
 62
7
  6
CONTINUOUS
 10
950.705474
 20
949.130475
 11
950.705474
 21
981.130475
  0
LINE
  8
1
 62
7
  6
CONTINUOUS
 10
934.143191
 20
949.130475
 11
951.705474
 21
949.130475
  0
LINE
  8
1
 62
7
  6
CONTINUOUS
 10
934.143191
 20
981.130475
 11
951.705474
 21
981.130475
  0
LINE
  8
1
 62
7
  6
CONTINUOUS
 10
950.705474
 20
949.130475
 11
950.250474
 21
952.630475
  0
LINE
  8
1
 62
7
  6
CONTINUOUS
 10
950.250474
 20
952.630475
 11
951.160474
 21
952.630475
  0
LINE
  8
1
 62
7
  6
CONTINUOUS
 10
951.160474
 20
952.630475
 11
950.705474
 21
949.130475
  0
LINE
  8
1
 62
7
  6
CONTINUOUS
 10
950.705474
 20
981.130475
 11
951.160474
 21
977.630475
  0
LINE
  8
1
 62
7
  6
CONTINUOUS
 10
951.160474
 20
977.630475
 11
950.250474
 21
977.630475
  0
LINE
  8
1
 62
7
  6
CONTINUOUS
 10
950.250474
 20
977.630475
 11
950.705474
 21
981.130475
  0
TEXT
  8
1
 62
7
  6
CONTINUOUS
 10
948.961053
 20
961.451989
 40
3.200000
 41
0.900000
  1
32
  7
KANJI
 50
90.000000
 51
0.000000
  0
TEXT
  8
1
 62
7
  6
CONTINUOUS
 10
948.321053
 20
967.851989
 40
1.920000
 41
0.900000
  1
ü}0.2
  7
KANJI
 50
90.000000
 51
0.000000
  0
TEXT
  8
1
 62
7
  6
CONTINUOUS
 10
948.961053
 20
956.651989
 40
3.200000
 41
0.900000
  1
9
  7
KANJI
 50
90.000000
 51
0.000000
  0
ENDSEC
  0
EOF
