  0
SECTION
  2
HEADER
  9
$ACADVER
  1
AC1003
  9
$INSBASE
 10
0.000000
 20
0.000000
  9
$EXTMIN
 10
0.000000
 20
0.000000
  9
$EXTMAX
 10
420.000000
 20
594.000000
  9
$LIMMIN
 10
0.000000
 20
0.000000
  9
$LIMMAX
 10
420.000000
 20
594.000000
  9
$VIEWCTR
 10
210.000000
 20
297.000000
  9
$VIEWSIZE
 40
594.000000
  9
$PEXTMIN
 10
0.000000
 20
0.000000
 30
0.000000
  9
$PEXTMAX
 10
420.000000
 20
594.000000
 30
0.000000
  9
$SNAPMODE
 70
     0
  9
$SNAPUNIT
 10
1.000000
 20
1.000000
  9
$SNAPBASE
 10
0.000000
 20
0.000000
  9
$SNAPANG
 50
0.000000
  9
$SNAPISOPAIR
 70
     0
  9
$SNAPSTYLE
 70
     0
  9
$GRIDMODE
 70
     0
  9
$GRIDUNIT
 10
0.000000
 20
0.000000
  9
$ORTHOMODE
 70
     0
  9
$REGENMODE
 70
     1
  9
$FILLMODE
 70
     1
  9
$QTEXTMODE
 70
     0
  9
$DRAGMODE
 70
     2
  9
$LTSCALE
 40
0.250000
  9
$OSMODE
 70
     0
  9
$ATTMODE
 70
     1
  9
$TEXTSIZE
 40
0.200000
  9
$TRACEWID
 40
0.050000
  9
$TEXTSTYLE
  7
STANDARD
  9
$CLAYER
  8
0
  9
$CELTYPE
  6
BYLAYER
  9
$CECOLOR
 62
   256
  9
$DIMSCALE
 40
1.000000
  9
$DIMASZ
 40
1.000000
  9
$DIMEXO
 40
0.000000
  9
$DIMDLI
 40
0.500000
  9
$DIMRND
 40
0.000000
  9
$DIMDLE
 40
0.000000
  9
$DIMEXE
 40
0.000000
  9
$DIMTP
 40
0.000000
  9
$DIMTM
 40
0.000000
  9
$DIMTXT
 40
0.180000
  9
$DIMCEN
 40
0.000000
  9
$DIMTSZ
 40
0.000000
  9
$DIMTOL
 70
     0
  9
$DIMLIM
 70
     0
  9
$DIMTIH
 70
     1
  9
$DIMTOH
 70
     1
  9
$DIMSE1
 70
     0
  9
$DIMSE2
 70
     0
  9
$DIMTAD
 70
     0
  9
$DIMZIN
 70
     0
  9
$DIMBLK
  1

  9
$DIMASO
 70
     0
  9
$DIMSHO
 70
     0
  9
$DIMPOST
  1

  9
$DIMAPOST
  1

  9
$DIMALT
 70
     0
  9
$DIMALTD
 70
     0
  9
$DIMALTF
 40
25.400000
  9
$DIMLFAC
 40
1.000000
  9
$DIMTOFL
 70
     0
  9
$DIMTVP
 40
0.000000
  9
$DIMTIX
 70
     0
  9
$DIMSOXD
 70
     0
  9
$DIMSAH
 70
     0
  9
$DIMBLKL
  1

  9
$DIMBLKR
  1

  9
$LUNITS
 70
     2
  9
$LUPREC
 70
     2
  9
$AXISMODE
 70
     0
  9
$AXISUNIT
 10
1.000000
 20
1.000000
  9
$SKETCHINC
 40
0.000000
  9
$FILLETRAD
 40
0.000000
  9
$AUNITS
 70
     1
  9
$AUPREC
 70
     2
  9
$MENU
  1
ACAD
  9
$ELEVATION
 40
0.000000
  9
$THICKNESS
 40
0.000000
  9
$VIEWDIR
 10
0.000000
 20
0.000000
 30
1.000000
  9
$LIMCHECK
 70
     1
  9
$BLIPMODE
 70
     1
  9
$CHAMFERA
 40
0.000000
  9
$CHAMFERB
 40
0.000000
  9
$FASTZOOM
 70
     1
  9
$SKPOLY
 70
     0
  9
$TDCREATE
 40
0.000000
  9
$TDUPDATE
 40
0.000000
  9
$TDINDWG
 40
0.000000
  9
$TDUSRTIMER
 40
0.000000
  9
$USRTIMER
 70
     1
  9
$ANGBASE
 50
0.000000
  9
$ANGDIR
 70
     0
  9
$PDMODE
 70
     0
  9
$PDSIZE
 40
0.000000
  9
$PLINEWID
 40
0.000000
  9
$COORDS
 70
     2
  9
$USERI1
 70
     0
  9
$USERI2
 70
     0
  9
$USERI3
 70
     0
  9
$USERI4
 70
     0
  9
$USERI5
 70
     0
  9
$USERR1
 40
0.000000
  9
$USERR2
 40
0.000000
  9
$USERR3
 40
0.000000
  9
$USERR4
 40
0.000000
  9
$USERR5
 40
0.000000
  0
ENDSEC
  0
SECTION
  2
TABLES
  0
TABLE
  2
LTYPE
 70
     5
  0
LTYPE
  2
CONTINUOUS
 70
    64
  3
Solid line
 72
    65
 73
     0
 40
0.0
  0
LTYPE
  2
HIDDEN
 70
    64
  3
------------------------
 72
    65
 73
     2
 40
12.6
 49
8.4
 49
-4.2
  0
LTYPE
  2
DOT
 70
    64
  3
ÑÑÑÑÑÑÑÑÑÑÑÑÑÑÑÑÑÑÑÑÑÑÑÑ
 72
    65
 73
     2
 40
8.0
 49
6.0
 49
-2.0
  0
LTYPE
  2
DASHDOT
 70
    64
  3
--Ñ--Ñ--Ñ--Ñ--Ñ--Ñ--Ñ--
 72
    65
 73
     4
 40
50.5
 49
30.0
 49
-9.0
 49
2.5
 49
-9.0
  0
LTYPE
  2
DIVIDE
 70
    64
  3
--ÑÑ--ÑÑ--ÑÑ--ÑÑ--ÑÑ--
 72
    65
 73
     6
 40
58.0
 49
30.0
 49
-9.0
 49
2.5
 49
-5.0
 49
2.5
 49
-9.0
  0
ENDTAB
  0
TABLE
  2
LAYER
 70
4
  0
LAYER
  2
1
 70
64
 62
7
  6
CONTINUOUS
  0
LAYER
  2
2
 70
64
 62
134
  6
CONTINUOUS
  0
LAYER
  2
4
 70
64
 62
54
  6
CONTINUOUS
  0
LAYER
  2
128
 70
64
 62
7
  6
CONTINUOUS
  0
ENDTAB
  0
TABLE
  2
STYLE
 70
     2
  0
STYLE
  2
STANDARD
 70
    64
 40
0.0
 41
1.0
 50
0.0
 71
     0
 42
0.2
  3
TXT
  4

  0
STYLE
  2
KANJI
 70
    64
 40
0.0
 41
1.0
 50
0.0
 71
     0
 42
0.2
  3
TXT
  4
BIGFONT
  0
ENDTAB
  0
TABLE
  2
VIEW
 70
     0
  0
ENDTAB
  0
ENDSEC
  0
SECTION
  2
BLOCKS
  0
ENDSEC
  0
SECTION
  2
ENTITIES
  0
LINE
  8
1
 62
7
  6
CONTINUOUS
 10
76.052027
 20
92.811204
 11
72.554342
 21
92.811204
  0
LINE
  8
1
 62
7
  6
CONTINUOUS
 10
177.032255
 20
48.391896
 11
177.032255
 21
22.891014
  0
LINE
  8
1
 62
7
  6
CONTINUOUS
 10
178.032255
 20
48.391896
 11
178.032255
 21
22.891014
  0
LINE
  8
1
 62
7
  6
CONTINUOUS
 10
179.032255
 20
48.391896
 11
179.032255
 21
22.891014
  0
LINE
  8
1
 62
7
  6
CONTINUOUS
 10
180.032255
 20
48.391896
 11
180.032255
 21
22.891014
  0
LINE
  8
1
 62
7
  6
CONTINUOUS
 10
175.032255
 20
48.391896
 11
182.032255
 21
48.391896
  0
LINE
  8
1
 62
7
  6
CONTINUOUS
 10
175.032255
 20
49.422549
 11
182.032255
 21
49.422549
  0
LINE
  8
1
 62
7
  6
CONTINUOUS
 10
180.032255
 20
73.311204
 11
180.032255
 21
49.422549
  0
LINE
  8
1
 62
7
  6
CONTINUOUS
 10
179.032255
 20
73.311204
 11
179.032255
 21
49.422549
  0
LINE
  8
1
 62
7
  6
CONTINUOUS
 10
136.546218
 20
95.311204
 11
193.739411
 21
95.311204
  0
LINE
  8
1
 62
7
  6
CONTINUOUS
 10
187.632236
 20
79.811204
 11
181.996508
 21
79.811204
  0
LINE
  8
1
 62
7
  6
CONTINUOUS
 10
181.996508
 20
110.811204
 11
187.632236
 21
110.811204
  0
LINE
  8
1
 62
7
  6
CONTINUOUS
 10
181.235529
 20
74.311273
 11
181.235529
 21
73.311204
  0
LINE
  8
1
 62
7
  6
CONTINUOUS
 10
176.032255
 20
74.311261
 11
176.032255
 21
73.311204
  0
LINE
  8
1
 62
7
  6
CONTINUOUS
 10
171.532255
 20
78.311204
 11
171.532255
 21
84.311204
  0
LINE
  8
1
 62
7
  6
CONTINUOUS
 10
172.532255
 20
85.311204
 11
172.532255
 21
74.311204
  0
LINE
  8
1
 62
7
  6
CONTINUOUS
 10
173.532255
 20
74.311204
 11
173.532255
 21
86.383795
  0
LINE
  8
1
 62
7
  6
CONTINUOUS
 10
174.532255
 20
87.311204
 11
174.532255
 21
74.311204
  0
LINE
  8
1
 62
7
  6
CONTINUOUS
 10
175.532255
 20
88.311204
 11
175.532255
 21
74.311204
  0
LINE
  8
1
 62
7
  6
CONTINUOUS
 10
176.532255
 20
89.166204
 11
176.532255
 21
78.311204
  0
LINE
  8
1
 62
7
  6
CONTINUOUS
 10
171.532255
 20
101.456204
 11
171.532255
 21
112.311204
  0
LINE
  8
1
 62
7
  6
CONTINUOUS
 10
172.532255
 20
102.311204
 11
172.532255
 21
116.311204
  0
LINE
  8
1
 62
7
  6
CONTINUOUS
 10
173.532255
 20
103.311204
 11
173.532255
 21
116.311204
  0
LINE
  8
1
 62
7
  6
CONTINUOUS
 10
174.532255
 20
116.311204
 11
174.532255
 21
104.238614
  0
LINE
  8
1
 62
7
  6
CONTINUOUS
 10
175.532255
 20
105.311204
 11
175.532255
 21
116.311204
  0
LINE
  8
1
 62
7
  6
CONTINUOUS
 10
176.532255
 20
112.311204
 11
176.532255
 21
106.311204
  0
LINE
  8
1
 62
7
  6
CONTINUOUS
 10
176.032255
 20
78.311230
 11
176.032255
 21
74.311261
  0
LINE
  8
1
 62
7
  6
CONTINUOUS
 10
172.032255
 20
78.311238
 11
172.032255
 21
74.311240
  0
LINE
  8
1
 62
7
  6
CONTINUOUS
 10
176.032255
 20
116.311204
 11
176.032255
 21
112.311204
  0
LINE
  8
1
 62
7
  6
CONTINUOUS
 10
172.032255
 20
116.311204
 11
172.032255
 21
112.311204
  0
LINE
  8
1
 62
7
  6
CONTINUOUS
 10
170.532255
 20
112.311204
 11
170.532255
 21
78.311230
  0
LINE
  8
1
 62
7
  6
CONTINUOUS
 10
177.532255
 20
112.311204
 11
177.532255
 21
78.311230
  0
LINE
  8
1
 62
7
  6
CONTINUOUS
 10
170.532255
 20
78.311230
 11
177.532255
 21
78.311230
  0
LINE
  8
1
 62
7
  6
CONTINUOUS
 10
170.532255
 20
112.311204
 11
177.532255
 21
112.311204
  0
LINE
  8
1
 62
7
  6
CONTINUOUS
 10
178.032255
 20
73.311204
 11
178.032255
 21
49.422549
  0
LINE
  8
1
 62
7
  6
CONTINUOUS
 10
150.532255
 20
97.811204
 11
150.532255
 21
92.811204
  0
LINE
  8
1
 62
7
  6
CONTINUOUS
 10
87.011604
 20
79.811204
 11
92.011604
 21
79.811204
  0
LINE
  8
1
 62
7
  6
CONTINUOUS
 10
163.532207
 20
92.811204
 11
150.532255
 21
92.811204
  0
LINE
  8
4
 62
54
  6
CONTINUOUS
 10
159.532255
 20
80.811204
 11
165.532255
 21
80.811204
  0
LINE
  8
4
 62
54
  6
CONTINUOUS
 10
159.532255
 20
78.811204
 11
165.532255
 21
78.811204
  0
LINE
  8
4
 62
54
  6
CONTINUOUS
 10
159.532255
 20
109.811204
 11
165.532255
 21
109.811204
  0
LINE
  8
4
 62
54
  6
CONTINUOUS
 10
159.532255
 20
111.811204
 11
165.532255
 21
111.811204
  0
LINE
  8
2
 62
134
  6
CONTINUOUS
 10
158.747155
 20
79.811204
 11
166.953355
 21
79.811204
  0
LINE
  8
2
 62
134
  6
CONTINUOUS
 10
89.511604
 20
82.311204
 11
89.511604
 21
77.311204
  0
LINE
  8
2
 62
134
  6
CONTINUOUS
 10
58.511594
 20
82.311204
 11
58.511594
 21
77.311204
  0
LINE
  8
2
 62
134
  6
CONTINUOUS
 10
61.011604
 20
79.811204
 11
56.011604
 21
79.811204
  0
LINE
  8
2
 62
134
  6
CONTINUOUS
 10
61.011604
 20
110.811204
 11
56.011604
 21
110.811204
  0
LINE
  8
2
 62
134
  6
CONTINUOUS
 10
58.511614
 20
108.311204
 11
58.511614
 21
113.311204
  0
LINE
  8
2
 62
134
  6
CONTINUOUS
 10
89.511604
 20
108.311204
 11
89.511604
 21
113.311204
  0
LINE
  8
2
 62
134
  6
CONTINUOUS
 10
87.011604
 20
110.811204
 11
92.011604
 21
110.811204
  0
LINE
  8
2
 62
134
  6
CONTINUOUS
 10
47.090124
 20
95.311204
 11
100.511104
 21
95.311204
  0
LINE
  8
2
 62
134
  6
CONTINUOUS
 10
74.011604
 20
73.311204
 11
74.011604
 21
120.311204
  0
LINE
  8
2
 62
134
  6
CONTINUOUS
 10
158.747155
 20
110.811204
 11
166.953355
 21
110.811204
  0
LINE
  8
1
 62
7
  6
CONTINUOUS
 10
183.832155
 20
77.061204
 11
183.832155
 21
82.561204
  0
LINE
  8
1
 62
7
  6
CONTINUOUS
 10
183.832155
 20
108.061204
 11
183.832155
 21
113.561204
  0
LINE
  8
1
 62
7
  6
CONTINUOUS
 10
186.032255
 20
115.311204
 11
186.032255
 21
75.311204
  0
LINE
  8
1
 62
7
  6
CONTINUOUS
 10
183.832145
 20
82.533907
 11
183.832155
 21
75.311204
  0
LINE
  8
1
 62
7
  6
CONTINUOUS
 10
184.332255
 20
83.399904
 11
185.532255
 21
84.092704
  0
LINE
  8
1
 62
7
  6
CONTINUOUS
 10
183.832155
 20
108.088507
 11
183.832155
 21
115.311204
  0
LINE
  8
1
 62
7
  6
CONTINUOUS
 10
184.332255
 20
107.222504
 11
185.532255
 21
106.529704
  0
LINE
  8
1
 62
7
  6
CONTINUOUS
 10
177.032255
 20
73.311204
 11
177.032255
 21
49.422549
  0
LINE
  8
1
 62
7
  6
CONTINUOUS
 10
176.032255
 20
73.311204
 11
181.235529
 21
73.311204
  0
LINE
  8
1
 62
7
  6
CONTINUOUS
 10
163.532169
 20
84.311204
 11
163.532269
 21
106.311204
  0
LINE
  8
1
 62
7
  6
CONTINUOUS
 10
163.532169
 20
84.311204
 11
165.532255
 21
84.311204
  0
LINE
  8
1
 62
7
  6
CONTINUOUS
 10
163.532269
 20
106.311204
 11
165.532255
 21
106.311204
  0
LINE
  8
1
 62
7
  6
CONTINUOUS
 10
159.532255
 20
81.311204
 11
159.532255
 21
79.811204
  0
LINE
  8
1
 62
7
  6
CONTINUOUS
 10
165.532255
 20
81.311204
 11
159.532255
 21
81.311204
  0
LINE
  8
1
 62
7
  6
CONTINUOUS
 10
159.532255
 20
78.311204
 11
159.532255
 21
79.811204
  0
LINE
  8
1
 62
7
  6
CONTINUOUS
 10
165.532255
 20
78.311204
 11
159.532255
 21
78.311204
  0
LINE
  8
1
 62
7
  6
CONTINUOUS
 10
70.011574
 20
53.811005
 11
78.011604
 21
53.811005
  0
LINE
  8
1
 62
7
  6
CONTINUOUS
 10
76.011604
 20
73.311204
 11
76.011604
 21
53.811005
  0
LINE
  8
1
 62
7
  6
CONTINUOUS
 10
75.011604
 20
73.311204
 11
75.011604
 21
53.811005
  0
LINE
  8
1
 62
7
  6
CONTINUOUS
 10
74.011604
 20
73.311204
 11
74.011604
 21
53.811005
  0
LINE
  8
1
 62
7
  6
CONTINUOUS
 10
73.011604
 20
73.311204
 11
73.011604
 21
53.811005
  0
LINE
  8
1
 62
7
  6
CONTINUOUS
 10
72.011574
 20
73.311204
 11
72.011574
 21
53.811005
  0
LINE
  8
1
 62
7
  6
CONTINUOUS
 10
77.511604
 20
73.311204
 11
77.511604
 21
74.311204
  0
LINE
  8
1
 62
7
  6
CONTINUOUS
 10
70.511574
 20
73.311204
 11
77.511604
 21
73.311204
  0
LINE
  8
1
 62
7
  6
CONTINUOUS
 10
70.511574
 20
74.311204
 11
70.511574
 21
73.311204
  0
LINE
  8
1
 62
7
  6
CONTINUOUS
 10
53.011625
 20
78.340615
 11
53.011633
 21
112.281787
  0
LINE
  8
1
 62
7
  6
CONTINUOUS
 10
90.982149
 20
74.311203
 11
57.041095
 21
74.311161
  0
LINE
  8
1
 62
7
  6
CONTINUOUS
 10
95.011585
 20
78.340634
 11
95.011612
 21
112.281741
  0
LINE
  8
1
 62
7
  6
CONTINUOUS
 10
90.982175
 20
116.311184
 11
57.041101
 21
116.311239
  0
LINE
  8
1
 62
7
  6
CONTINUOUS
 10
169.532255
 20
117.311204
 11
180.532255
 21
117.311204
  0
LINE
  8
1
 62
7
  6
CONTINUOUS
 10
159.532255
 20
109.311204
 11
159.532255
 21
110.811204
  0
LINE
  8
1
 62
7
  6
CONTINUOUS
 10
165.532255
 20
109.311204
 11
159.532255
 21
109.311204
  0
LINE
  8
1
 62
7
  6
CONTINUOUS
 10
159.532255
 20
112.311204
 11
159.532255
 21
110.811204
  0
LINE
  8
1
 62
7
  6
CONTINUOUS
 10
165.532255
 20
112.311204
 11
159.532255
 21
112.311204
  0
LINE
  8
1
 62
7
  6
CONTINUOUS
 10
166.532255
 20
116.311204
 11
185.032255
 21
116.311204
  0
LINE
  8
1
 62
7
  6
CONTINUOUS
 10
165.532255
 20
75.311209
 11
165.532255
 21
115.311204
  0
LINE
  8
1
 62
7
  6
CONTINUOUS
 10
166.532260
 20
74.311209
 11
185.032255
 21
74.311304
  0
LINE
  8
1
 62
7
  6
CONTINUOUS
 10
183.832155
 20
108.061204
 11
184.571355
 21
108.061204
  0
LINE
  8
1
 62
7
  6
CONTINUOUS
 10
183.832155
 20
113.561204
 11
184.571355
 21
113.561204
  0
LINE
  8
1
 62
7
  6
CONTINUOUS
 10
183.832155
 20
108.061204
 11
183.832155
 21
113.561204
  0
LINE
  8
1
 62
7
  6
CONTINUOUS
 10
183.832155
 20
77.061204
 11
184.571355
 21
77.061204
  0
LINE
  8
1
 62
7
  6
CONTINUOUS
 10
183.832155
 20
82.561204
 11
184.571355
 21
82.561204
  0
LINE
  8
1
 62
7
  6
CONTINUOUS
 10
183.832155
 20
77.061204
 11
183.832155
 21
82.561204
  0
LINE
  8
1
 62
7
  6
CONTINUOUS
 10
71.511604
 20
95.311204
 11
71.511604
 21
95.758142
  0
LINE
  8
1
 62
7
  6
CONTINUOUS
 10
150.532255
 20
97.811204
 11
163.532230
 21
97.811204
  0
LINE
  8
1
 62
7
  6
CONTINUOUS
 10
177.032255
 20
22.891014
 11
180.032255
 21
22.891014
  0
LINE
  8
1
 62
7
  6
CONTINUOUS
 10
178.532255
 20
22.891014
 11
178.532255
 21
17.891014
  0
LINE
  8
1
 62
7
  6
CONTINUOUS
 10
178.782255
 20
22.891014
 11
178.782255
 21
17.891014
  0
LINE
  8
1
 62
7
  6
CONTINUOUS
 10
178.282255
 20
22.891014
 11
178.282255
 21
17.891014
  0
LINE
  8
1
 62
7
  6
CONTINUOUS
 10
179.782255
 20
22.891014
 11
179.782255
 21
17.891014
  0
LINE
  8
1
 62
7
  6
CONTINUOUS
 10
179.532255
 20
22.891014
 11
179.532255
 21
17.891014
  0
LINE
  8
1
 62
7
  6
CONTINUOUS
 10
179.282255
 20
22.891014
 11
179.282255
 21
17.891014
  0
LINE
  8
1
 62
7
  6
CONTINUOUS
 10
177.782255
 20
22.891014
 11
177.782255
 21
17.891014
  0
LINE
  8
1
 62
7
  6
CONTINUOUS
 10
177.532255
 20
22.891014
 11
177.532255
 21
17.891014
  0
LINE
  8
1
 62
7
  6
CONTINUOUS
 10
177.282255
 20
22.891014
 11
177.282255
 21
17.891014
  0
ARC
  8
1
 62
7
  6
CONTINUOUS
 10
185.032255
 20
75.311204
 40
0.999900
 50
-90.000000
 51
0.000000
  0
ARC
  8
1
 62
7
  6
CONTINUOUS
 10
185.032255
 20
84.958804
 40
1.000065
 50
-60.002137
 51
0.000000
  0
ARC
  8
1
 62
7
  6
CONTINUOUS
 10
182.832155
 20
75.311204
 40
1.000000
 50
-89.999943
 51
0.000000
  0
ARC
  8
1
 62
7
  6
CONTINUOUS
 10
184.832155
 20
82.533904
 40
1.000010
 50
120.000592
 51
179.999828
  0
ARC
  8
1
 62
7
  6
CONTINUOUS
 10
185.032255
 20
115.311204
 40
1.000000
 50
0.000000
 51
90.000000
  0
ARC
  8
1
 62
7
  6
CONTINUOUS
 10
182.832155
 20
115.311204
 40
1.000000
 50
0.000000
 51
89.999943
  0
ARC
  8
1
 62
7
  6
CONTINUOUS
 10
185.032255
 20
105.663604
 40
1.000000
 50
0.000000
 51
60.002137
  0
ARC
  8
1
 62
7
  6
CONTINUOUS
 10
184.832155
 20
108.088504
 40
1.000000
 50
179.999828
 51
-120.000601
  0
ARC
  8
1
 62
7
  6
CONTINUOUS
 10
74.011604
 20
95.311204
 40
26.999990
 50
-51.057589
 51
-38.942479
  0
ARC
  8
1
 62
7
  6
CONTINUOUS
 10
74.011604
 20
95.311204
 40
27.000000
 50
-141.057487
 51
-128.942295
  0
ARC
  8
1
 62
7
  6
CONTINUOUS
 10
74.011604
 20
95.311204
 40
26.999990
 50
128.942296
 51
141.057487
  0
ARC
  8
1
 62
7
  6
CONTINUOUS
 10
74.011604
 20
95.311204
 40
26.999990
 50
38.942388
 51
51.057518
  0
ARC
  8
1
 62
7
  6
CONTINUOUS
 10
184.571355
 20
109.061204
 40
1.000000
 50
-90.000000
 51
-16.959372
  0
ARC
  8
1
 62
7
  6
CONTINUOUS
 10
184.571355
 20
112.561204
 40
0.999923
 50
16.958537
 51
90.000000
  0
ARC
  8
1
 62
7
  6
CONTINUOUS
 10
178.832155
 20
110.811204
 40
6.999999
 50
-16.957802
 51
16.957683
  0
ARC
  8
1
 62
7
  6
CONTINUOUS
 10
184.571355
 20
78.061204
 40
1.000000
 50
-90.000000
 51
-16.959372
  0
ARC
  8
1
 62
7
  6
CONTINUOUS
 10
184.571355
 20
81.561204
 40
0.999923
 50
16.958537
 51
90.000000
  0
ARC
  8
1
 62
7
  6
CONTINUOUS
 10
178.832155
 20
79.811204
 40
6.999999
 50
-16.957802
 51
16.957683
  0
CIRCLE
  8
1
 62
7
  6
CONTINUOUS
 10
74.011604
 20
95.311204
 40
11.000000
  0
CIRCLE
  8
1
 62
7
  6
CONTINUOUS
 10
74.011604
 20
95.311204
 40
6.145000
  0
CIRCLE
  8
1
 62
7
  6
CONTINUOUS
 10
74.011604
 20
95.311204
 40
2.500000
  0
CIRCLE
  8
1
 62
7
  6
CONTINUOUS
 10
58.511604
 20
79.811204
 40
1.500000
  0
CIRCLE
  8
1
 62
7
  6
CONTINUOUS
 10
58.511604
 20
110.811204
 40
1.500000
  0
CIRCLE
  8
1
 62
7
  6
CONTINUOUS
 10
89.511604
 20
110.811204
 40
1.500000
  0
CIRCLE
  8
1
 62
7
  6
CONTINUOUS
 10
58.511604
 20
79.811204
 40
1.000000
  0
CIRCLE
  8
1
 62
7
  6
CONTINUOUS
 10
58.511604
 20
110.811204
 40
1.000000
  0
CIRCLE
  8
1
 62
7
  6
CONTINUOUS
 10
89.511604
 20
110.811204
 40
1.000000
  0
CIRCLE
  8
1
 62
7
  6
CONTINUOUS
 10
89.511604
 20
79.811204
 40
1.000000
  0
CIRCLE
  8
1
 62
7
  6
CONTINUOUS
 10
89.511604
 20
79.811204
 40
1.500000
  0
ARC
  8
1
 62
7
  6
CONTINUOUS
 10
166.532255
 20
115.311204
 40
1.000000
 50
90.000000
 51
180.000000
  0
ARC
  8
1
 62
7
  6
CONTINUOUS
 10
166.532255
 20
75.311209
 40
1.000000
 50
180.000000
 51
-89.999706
  0
LINE
  8
1
 62
7
  6
CONTINUOUS
 10
116.750740
 20
60.379110
 11
90.224445
 21
109.491410
  0
LINE
  8
1
 62
7
  6
CONTINUOUS
 10
92.115848
 20
106.876055
 11
91.374497
 21
106.475640
  0
LINE
  8
1
 62
7
  6
CONTINUOUS
 10
91.374497
 20
106.475640
 11
90.224445
 21
109.491410
  0
LINE
  8
1
 62
7
  6
CONTINUOUS
 10
90.224445
 20
109.491410
 11
92.115848
 21
106.876055
  0
LINE
  8
1
 62
7
  6
CONTINUOUS
 10
116.750740
 20
60.379110
 11
69.007162
 21
60.379110
  0
LINE
  8
1
 62
7
  6
CONTINUOUS
 10
69.007162
 20
60.379110
 11
59.224437
 21
78.491405
  0
LINE
  8
1
 62
7
  6
CONTINUOUS
 10
61.115841
 20
75.876051
 11
60.374489
 21
75.475636
  0
LINE
  8
1
 62
7
  6
CONTINUOUS
 10
60.374489
 20
75.475636
 11
59.224437
 21
78.491405
  0
LINE
  8
1
 62
7
  6
CONTINUOUS
 10
59.224437
 20
78.491405
 11
61.115841
 21
75.876051
  0
LINE
  8
1
 62
7
  6
CONTINUOUS
 10
224.408496
 20
134.803356
 11
192.272416
 21
134.803356
  0
LINE
  8
1
 62
7
  6
CONTINUOUS
 10
192.272416
 20
134.803356
 11
179.812704
 21
117.311204
  0
LINE
  8
1
 62
7
  6
CONTINUOUS
 10
181.326105
 20
120.162011
 11
182.012380
 21
119.673175
  0
LINE
  8
1
 62
7
  6
CONTINUOUS
 10
182.012380
 20
119.673175
 11
179.812704
 21
117.311204
  0
LINE
  8
1
 62
7
  6
CONTINUOUS
 10
179.812704
 20
117.311204
 11
181.326105
 21
120.162011
  0
TEXT
  8
1
 62
7
  6
CONTINUOUS
 10
193.856183
 20
130.107627
 40
3.000000
 41
0.720000
  1
(NAME PLATE)
  7
KANJI
 50
0.000000
 51
0.000000
  0
TEXT
  8
1
 62
7
  6
CONTINUOUS
 10
196.510461
 20
135.776268
 40
3.200000
 41
0.900000
  1
âlü[âÇâvâîü[âg
  7
KANJI
 50
0.000000
 51
0.000000
  0
TEXT
  8
1
 62
7
  6
CONTINUOUS
 10
182.974749
 20
144.625729
 40
5.000000
 41
0.900000
  1
)
  7
KANJI
 50
90.000000
 51
0.000000
  0
TEXT
  8
1
 62
7
  6
CONTINUOUS
 10
182.974749
 20
122.587716
 40
5.000000
 41
0.900000
  1
(
  7
KANJI
 50
90.000000
 51
0.000000
  0
TEXT
  8
1
 62
7
  6
CONTINUOUS
 10
179.849749
 20
126.651562
 40
2.500000
 41
0.720000
  1
DIRECTION
  7
KANJI
 50
90.000000
 51
0.000000
  0
TEXT
  8
1
 62
7
  6
CONTINUOUS
 10
183.599749
 20
126.651562
 40
2.500000
 41
0.720000
  1
OF LETTER
  7
KANJI
 50
90.000000
 51
0.000000
  0
TEXT
  8
1
 62
7
  6
CONTINUOUS
 10
78.586488
 20
61.535594
 40
4.000000
 41
0.900000
  1
2ü|M3ü~0.5
  7
KANJI
 50
0.000000
 51
0.000000
  0
LINE
  8
1
 62
7
  6
CONTINUOUS
 10
150.532255
 20
161.305860
 11
165.532255
 21
161.305860
  0
LINE
  8
1
 62
7
  6
CONTINUOUS
 10
165.532255
 20
116.311204
 11
165.532255
 21
163.305860
  0
LINE
  8
1
 62
7
  6
CONTINUOUS
 10
150.532255
 20
98.811204
 11
150.532255
 21
163.305860
  0
LINE
  8
1
 62
7
  6
CONTINUOUS
 10
150.532255
 20
161.305860
 11
153.732255
 21
161.721860
  0
LINE
  8
1
 62
7
  6
CONTINUOUS
 10
153.732255
 20
161.721860
 11
153.732255
 21
160.889860
  0
LINE
  8
1
 62
7
  6
CONTINUOUS
 10
153.732255
 20
160.889860
 11
150.532255
 21
161.305860
  0
LINE
  8
1
 62
7
  6
CONTINUOUS
 10
165.532255
 20
161.305860
 11
162.332255
 21
160.889860
  0
LINE
  8
1
 62
7
  6
CONTINUOUS
 10
162.332255
 20
160.889860
 11
162.332255
 21
161.721860
  0
LINE
  8
1
 62
7
  6
CONTINUOUS
 10
162.332255
 20
161.721860
 11
165.532255
 21
161.305860
  0
TEXT
  8
1
 62
7
  6
CONTINUOUS
 10
152.508446
 20
163.305860
 40
3.200000
 41
0.900000
  1
15
  7
KANJI
 50
0.000000
 51
0.000000
  0
TEXT
  8
1
 62
7
  6
CONTINUOUS
 10
157.948446
 20
163.945860
 40
1.920000
 41
0.900000
  1
ü}0.5
  7
KANJI
 50
0.000000
 51
0.000000
  0
LINE
  8
1
 62
7
  6
CONTINUOUS
 10
114.781375
 20
84.311204
 11
114.781375
 21
106.311204
  0
LINE
  8
1
 62
7
  6
CONTINUOUS
 10
162.532269
 20
106.311204
 11
113.781375
 21
106.311204
  0
LINE
  8
1
 62
7
  6
CONTINUOUS
 10
162.532169
 20
84.311204
 11
113.781375
 21
84.311204
  0
LINE
  8
1
 62
7
  6
CONTINUOUS
 10
114.781375
 20
84.311204
 11
114.365375
 21
87.511204
  0
LINE
  8
1
 62
7
  6
CONTINUOUS
 10
114.365375
 20
87.511204
 11
115.197375
 21
87.511204
  0
LINE
  8
1
 62
7
  6
CONTINUOUS
 10
115.197375
 20
87.511204
 11
114.781375
 21
84.311204
  0
LINE
  8
1
 62
7
  6
CONTINUOUS
 10
114.781375
 20
106.311204
 11
115.197375
 21
103.111204
  0
LINE
  8
1
 62
7
  6
CONTINUOUS
 10
115.197375
 20
103.111204
 11
114.365375
 21
103.111204
  0
LINE
  8
1
 62
7
  6
CONTINUOUS
 10
114.365375
 20
103.111204
 11
114.781375
 21
106.311204
  0
TEXT
  8
1
 62
7
  6
CONTINUOUS
 10
111.981375
 20
90.847001
 40
3.200000
 41
0.900000
  1
22
  7
KANJI
 50
90.000000
 51
0.000000
  0
TEXT
  8
1
 62
7
  6
CONTINUOUS
 10
109.901375
 20
97.247001
 40
1.920000
 41
0.900000
  1
 0
  7
KANJI
 50
90.000000
 51
0.000000
  0
TEXT
  8
1
 62
7
  6
CONTINUOUS
 10
112.781375
 20
97.247001
 40
1.920000
 41
0.900000
  1
-0.05
  7
KANJI
 50
90.000000
 51
0.000000
  0
TEXT
  8
1
 62
7
  6
CONTINUOUS
 10
111.981375
 20
87.202557
 40
3.200000
 41
0.900000
  1
âË
  7
KANJI
 50
90.000000
 51
0.000000
  0
LINE
  8
1
 62
7
  6
CONTINUOUS
 10
165.532255
 20
161.311204
 11
186.032255
 21
161.311204
  0
LINE
  8
1
 62
7
  6
CONTINUOUS
 10
165.532255
 20
116.311204
 11
165.532255
 21
162.311204
  0
LINE
  8
1
 62
7
  6
CONTINUOUS
 10
186.032255
 20
116.311204
 11
186.032255
 21
162.311204
  0
LINE
  8
1
 62
7
  6
CONTINUOUS
 10
165.532255
 20
161.311204
 11
168.732255
 21
161.727204
  0
LINE
  8
1
 62
7
  6
CONTINUOUS
 10
168.732255
 20
161.727204
 11
168.732255
 21
160.895204
  0
LINE
  8
1
 62
7
  6
CONTINUOUS
 10
168.732255
 20
160.895204
 11
165.532255
 21
161.311204
  0
LINE
  8
1
 62
7
  6
CONTINUOUS
 10
186.032255
 20
161.311204
 11
182.832255
 21
160.895204
  0
LINE
  8
1
 62
7
  6
CONTINUOUS
 10
182.832255
 20
160.895204
 11
182.832255
 21
161.727204
  0
LINE
  8
1
 62
7
  6
CONTINUOUS
 10
182.832255
 20
161.727204
 11
186.032255
 21
161.311204
  0
TEXT
  8
1
 62
7
  6
CONTINUOUS
 10
174.014126
 20
163.230046
 40
3.200000
 41
0.720000
  1
21
  7
KANJI
 50
0.000000
 51
0.000000
  0
TEXT
  8
1
 62
7
  6
CONTINUOUS
 10
171.934126
 20
163.230046
 40
3.200000
 41
0.900000
  1
(
  7
KANJI
 50
0.000000
 51
0.000000
  0
TEXT
  8
1
 62
7
  6
CONTINUOUS
 10
178.686126
 20
163.230046
 40
3.200000
 41
0.900000
  1
)
  7
KANJI
 50
0.000000
 51
0.000000
  0
LINE
  8
1
 62
7
  6
CONTINUOUS
 10
165.532255
 20
151.364815
 11
178.194411
 21
151.364815
  0
LINE
  8
1
 62
7
  6
CONTINUOUS
 10
163.532269
 20
151.364815
 11
165.532255
 21
151.364815
  0
LINE
  8
1
 62
7
  6
CONTINUOUS
 10
157.132269
 20
151.364815
 11
163.532269
 21
151.364815
  0
LINE
  8
1
 62
7
  6
CONTINUOUS
 10
165.532255
 20
116.311204
 11
165.532255
 21
152.364815
  0
LINE
  8
1
 62
7
  6
CONTINUOUS
 10
163.532269
 20
107.311204
 11
163.532269
 21
152.364815
  0
LINE
  8
1
 62
7
  6
CONTINUOUS
 10
163.532269
 20
151.364815
 11
160.332269
 21
150.948815
  0
LINE
  8
1
 62
7
  6
CONTINUOUS
 10
160.332269
 20
150.948815
 11
160.332269
 21
151.780815
  0
LINE
  8
1
 62
7
  6
CONTINUOUS
 10
160.332269
 20
151.780815
 11
163.532269
 21
151.364815
  0
LINE
  8
1
 62
7
  6
CONTINUOUS
 10
165.532255
 20
151.364815
 11
168.732255
 21
151.780815
  0
LINE
  8
1
 62
7
  6
CONTINUOUS
 10
168.732255
 20
151.780815
 11
168.732255
 21
150.948815
  0
LINE
  8
1
 62
7
  6
CONTINUOUS
 10
168.732255
 20
150.948815
 11
165.532255
 21
151.364815
  0
TEXT
  8
1
 62
7
  6
CONTINUOUS
 10
168.866411
 20
153.364815
 40
3.200000
 41
0.900000
  1
2
  7
KANJI
 50
0.000000
 51
0.000000
  0
TEXT
  8
1
 62
7
  6
CONTINUOUS
 10
172.386411
 20
154.004815
 40
1.920000
 41
0.900000
  1
ü}0.2
  7
KANJI
 50
0.000000
 51
0.000000
  0
LINE
  8
128
 62
7
  6
CONTINUOUS
 10
24.011604
 20
74.311161
 11
24.011604
 21
116.311239
  0
LINE
  8
128
 62
7
  6
CONTINUOUS
 10
56.041101
 20
116.311239
 11
23.011604
 21
116.311239
  0
LINE
  8
128
 62
7
  6
CONTINUOUS
 10
56.041095
 20
74.311161
 11
23.011604
 21
74.311161
  0
LINE
  8
128
 62
7
  6
CONTINUOUS
 10
24.011604
 20
116.311239
 11
24.427604
 21
113.111239
  0
LINE
  8
128
 62
7
  6
CONTINUOUS
 10
24.427604
 20
113.111239
 11
23.595604
 21
113.111239
  0
LINE
  8
128
 62
7
  6
CONTINUOUS
 10
23.595604
 20
113.111239
 11
24.011604
 21
116.311239
  0
LINE
  8
128
 62
7
  6
CONTINUOUS
 10
24.011604
 20
74.311161
 11
23.595604
 21
77.511161
  0
LINE
  8
128
 62
7
  6
CONTINUOUS
 10
23.595604
 20
77.511161
 11
24.427604
 21
77.511161
  0
LINE
  8
128
 62
7
  6
CONTINUOUS
 10
24.427604
 20
77.511161
 11
24.011604
 21
74.311161
  0
TEXT
  8
128
 62
7
  6
CONTINUOUS
 10
22.411604
 20
92.911200
 40
3.200000
 41
0.900000
  1
42
  7
KANJI
 50
90.000000
 51
0.000000
  0
TEXT
  8
128
 62
7
  6
CONTINUOUS
 10
22.411604
 20
90.831200
 40
3.200000
 41
0.900000
  1
(
  7
KANJI
 50
90.000000
 51
0.000000
  0
TEXT
  8
128
 62
7
  6
CONTINUOUS
 10
22.411604
 20
99.311200
 40
3.200000
 41
0.900000
  1
)
  7
KANJI
 50
90.000000
 51
0.000000
  0
LINE
  8
128
 62
7
  6
CONTINUOUS
 10
34.011604
 20
79.811204
 11
34.011604
 21
110.811204
  0
LINE
  8
128
 62
7
  6
CONTINUOUS
 10
55.011604
 20
110.811204
 11
33.011604
 21
110.811204
  0
LINE
  8
128
 62
7
  6
CONTINUOUS
 10
55.011604
 20
79.811204
 11
33.011604
 21
79.811204
  0
LINE
  8
128
 62
7
  6
CONTINUOUS
 10
34.011604
 20
110.811204
 11
34.427604
 21
107.611204
  0
LINE
  8
128
 62
7
  6
CONTINUOUS
 10
34.427604
 20
107.611204
 11
33.595604
 21
107.611204
  0
LINE
  8
128
 62
7
  6
CONTINUOUS
 10
33.595604
 20
107.611204
 11
34.011604
 21
110.811204
  0
LINE
  8
128
 62
7
  6
CONTINUOUS
 10
34.011604
 20
79.811204
 11
33.595604
 21
83.011204
  0
LINE
  8
128
 62
7
  6
CONTINUOUS
 10
33.595604
 20
83.011204
 11
34.427604
 21
83.011204
  0
LINE
  8
128
 62
7
  6
CONTINUOUS
 10
34.427604
 20
83.011204
 11
34.011604
 21
79.811204
  0
TEXT
  8
128
 62
7
  6
CONTINUOUS
 10
32.411604
 20
89.203204
 40
3.200000
 41
0.900000
  1
31
  7
KANJI
 50
90.000000
 51
0.000000
  0
TEXT
  8
128
 62
7
  6
CONTINUOUS
 10
31.931604
 20
94.643204
 40
2.240000
 41
0.900000
  1
ü}0.2
  7
KANJI
 50
90.000000
 51
0.000000
  0
LINE
  8
128
 62
7
  6
CONTINUOUS
 10
53.011633
 20
145.311204
 11
95.011612
 21
145.311204
  0
LINE
  8
128
 62
7
  6
CONTINUOUS
 10
53.011633
 20
113.281787
 11
53.011633
 21
146.311204
  0
LINE
  8
128
 62
7
  6
CONTINUOUS
 10
95.011612
 20
113.281741
 11
95.011612
 21
146.311204
  0
LINE
  8
128
 62
7
  6
CONTINUOUS
 10
53.011633
 20
145.311204
 11
56.211633
 21
145.727204
  0
LINE
  8
128
 62
7
  6
CONTINUOUS
 10
56.211633
 20
145.727204
 11
56.211633
 21
144.895204
  0
LINE
  8
128
 62
7
  6
CONTINUOUS
 10
56.211633
 20
144.895204
 11
53.011633
 21
145.311204
  0
LINE
  8
128
 62
7
  6
CONTINUOUS
 10
95.011612
 20
145.311204
 11
91.811612
 21
144.895204
  0
LINE
  8
128
 62
7
  6
CONTINUOUS
 10
91.811612
 20
144.895204
 11
91.811612
 21
145.727204
  0
LINE
  8
128
 62
7
  6
CONTINUOUS
 10
91.811612
 20
145.727204
 11
95.011612
 21
145.311204
  0
TEXT
  8
128
 62
7
  6
CONTINUOUS
 10
71.611623
 20
146.911204
 40
3.200000
 41
0.900000
  1
42
  7
KANJI
 50
0.000000
 51
0.000000
  0
TEXT
  8
128
 62
7
  6
CONTINUOUS
 10
69.531623
 20
146.911204
 40
3.200000
 41
0.900000
  1
(
  7
KANJI
 50
0.000000
 51
0.000000
  0
TEXT
  8
128
 62
7
  6
CONTINUOUS
 10
78.011623
 20
146.911204
 40
3.200000
 41
0.900000
  1
)
  7
KANJI
 50
0.000000
 51
0.000000
  0
LINE
  8
128
 62
7
  6
CONTINUOUS
 10
58.511614
 20
135.311204
 11
89.511604
 21
135.311204
  0
LINE
  8
128
 62
7
  6
CONTINUOUS
 10
58.511614
 20
114.311204
 11
58.511614
 21
136.311204
  0
LINE
  8
128
 62
7
  6
CONTINUOUS
 10
89.511604
 20
114.311204
 11
89.511604
 21
136.311204
  0
LINE
  8
128
 62
7
  6
CONTINUOUS
 10
58.511614
 20
135.311204
 11
61.711614
 21
135.727204
  0
LINE
  8
128
 62
7
  6
CONTINUOUS
 10
61.711614
 20
135.727204
 11
61.711614
 21
134.895204
  0
LINE
  8
128
 62
7
  6
CONTINUOUS
 10
61.711614
 20
134.895204
 11
58.511614
 21
135.311204
  0
LINE
  8
128
 62
7
  6
CONTINUOUS
 10
89.511604
 20
135.311204
 11
86.311604
 21
134.895204
  0
LINE
  8
128
 62
7
  6
CONTINUOUS
 10
86.311604
 20
134.895204
 11
86.311604
 21
135.727204
  0
LINE
  8
128
 62
7
  6
CONTINUOUS
 10
86.311604
 20
135.727204
 11
89.511604
 21
135.311204
  0
TEXT
  8
128
 62
7
  6
CONTINUOUS
 10
67.903609
 20
136.911204
 40
3.200000
 41
0.900000
  1
31
  7
KANJI
 50
0.000000
 51
0.000000
  0
TEXT
  8
128
 62
7
  6
CONTINUOUS
 10
73.343609
 20
137.391204
 40
2.240000
 41
0.900000
  1
ü}0.2
  7
KANJI
 50
0.000000
 51
0.000000
  0
LINE
  8
1
 62
7
  6
CONTINUOUS
 10
159.532255
 20
61.864648
 11
147.912816
 21
61.864648
  0
LINE
  8
1
 62
7
  6
CONTINUOUS
 10
159.532255
 20
61.864648
 11
165.532255
 21
61.864648
  0
LINE
  8
1
 62
7
  6
CONTINUOUS
 10
171.932255
 20
61.864648
 11
165.532255
 21
61.864648
  0
LINE
  8
1
 62
7
  6
CONTINUOUS
 10
165.532255
 20
77.311204
 11
165.532255
 21
59.864648
  0
LINE
  8
1
 62
7
  6
CONTINUOUS
 10
159.532255
 20
77.311204
 11
159.532255
 21
59.864648
  0
LINE
  8
1
 62
7
  6
CONTINUOUS
 10
165.532255
 20
61.864648
 11
168.732255
 21
62.280648
  0
LINE
  8
1
 62
7
  6
CONTINUOUS
 10
168.732255
 20
62.280648
 11
168.732255
 21
61.448648
  0
LINE
  8
1
 62
7
  6
CONTINUOUS
 10
168.732255
 20
61.448648
 11
165.532255
 21
61.864648
  0
LINE
  8
1
 62
7
  6
CONTINUOUS
 10
159.532255
 20
61.864648
 11
156.332255
 21
61.448648
  0
LINE
  8
1
 62
7
  6
CONTINUOUS
 10
156.332255
 20
61.448648
 11
156.332255
 21
62.280648
  0
LINE
  8
1
 62
7
  6
CONTINUOUS
 10
156.332255
 20
62.280648
 11
159.532255
 21
61.864648
  0
TEXT
  8
1
 62
7
  6
CONTINUOUS
 10
147.912816
 20
63.864648
 40
3.200000
 41
0.900000
  1
6
  7
KANJI
 50
0.000000
 51
0.000000
  0
TEXT
  8
1
 62
7
  6
CONTINUOUS
 10
151.432816
 20
64.504648
 40
1.920000
 41
0.900000
  1
ü}1
  7
KANJI
 50
0.000000
 51
0.000000
  0
LINE
  8
1
 62
7
  6
CONTINUOUS
 10
126.140940
 20
97.811204
 11
126.140940
 21
104.211204
  0
LINE
  8
1
 62
7
  6
CONTINUOUS
 10
126.140940
 20
92.811204
 11
126.140940
 21
86.411204
  0
LINE
  8
1
 62
7
  6
CONTINUOUS
 10
126.140940
 20
92.811204
 11
126.140940
 21
97.811204
  0
LINE
  8
1
 62
7
  6
CONTINUOUS
 10
149.532255
 20
97.811204
 11
124.640940
 21
97.811204
  0
LINE
  8
1
 62
7
  6
CONTINUOUS
 10
162.532207
 20
92.811204
 11
124.640940
 21
92.811204
  0
LINE
  8
1
 62
7
  6
CONTINUOUS
 10
126.140940
 20
97.811204
 11
125.724940
 21
101.011204
  0
LINE
  8
1
 62
7
  6
CONTINUOUS
 10
125.724940
 20
101.011204
 11
126.556940
 21
101.011204
  0
LINE
  8
1
 62
7
  6
CONTINUOUS
 10
126.556940
 20
101.011204
 11
126.140940
 21
97.811204
  0
LINE
  8
1
 62
7
  6
CONTINUOUS
 10
126.140940
 20
92.811204
 11
126.556940
 21
89.611204
  0
LINE
  8
1
 62
7
  6
CONTINUOUS
 10
126.556940
 20
89.611204
 11
125.724940
 21
89.611204
  0
LINE
  8
1
 62
7
  6
CONTINUOUS
 10
125.724940
 20
89.611204
 11
126.140940
 21
92.811204
  0
TEXT
  8
1
 62
7
  6
CONTINUOUS
 10
123.340940
 20
91.999001
 40
3.200000
 41
0.900000
  1
5
  7
KANJI
 50
90.000000
 51
0.000000
  0
TEXT
  8
1
 62
7
  6
CONTINUOUS
 10
121.260940
 20
95.519001
 40
1.920000
 41
0.900000
  1
 0
  7
KANJI
 50
90.000000
 51
0.000000
  0
TEXT
  8
1
 62
7
  6
CONTINUOUS
 10
124.140940
 20
95.519001
 40
1.920000
 41
0.900000
  1
-0.011
  7
KANJI
 50
90.000000
 51
0.000000
  0
TEXT
  8
1
 62
7
  6
CONTINUOUS
 10
123.340940
 20
88.354557
 40
3.200000
 41
0.900000
  1
âË
  7
KANJI
 50
90.000000
 51
0.000000
  0
LINE
  8
1
 62
7
  6
CONTINUOUS
 10
212.374715
 20
17.891014
 11
212.374715
 21
74.311304
  0
LINE
  8
1
 62
7
  6
CONTINUOUS
 10
180.532255
 20
17.891014
 11
213.874715
 21
17.891014
  0
LINE
  8
1
 62
7
  6
CONTINUOUS
 10
186.032255
 20
74.311304
 11
213.874715
 21
74.311304
  0
LINE
  8
1
 62
7
  6
CONTINUOUS
 10
212.374715
 20
74.311304
 11
212.790715
 21
71.111304
  0
LINE
  8
1
 62
7
  6
CONTINUOUS
 10
212.790715
 20
71.111304
 11
211.958715
 21
71.111304
  0
LINE
  8
1
 62
7
  6
CONTINUOUS
 10
211.958715
 20
71.111304
 11
212.374715
 21
74.311304
  0
LINE
  8
1
 62
7
  6
CONTINUOUS
 10
212.374715
 20
17.891014
 11
211.958715
 21
21.091014
  0
LINE
  8
1
 62
7
  6
CONTINUOUS
 10
211.958715
 20
21.091014
 11
212.790715
 21
21.091014
  0
LINE
  8
1
 62
7
  6
CONTINUOUS
 10
212.790715
 20
21.091014
 11
212.374715
 21
17.891014
  0
TEXT
  8
1
 62
7
  6
CONTINUOUS
 10
209.574715
 20
39.830659
 40
3.200000
 41
0.900000
  1
300
  7
KANJI
 50
90.000000
 51
0.000000
  0
TEXT
  8
1
 62
7
  6
CONTINUOUS
 10
207.494715
 20
49.110659
 40
1.920000
 41
0.900000
  1
+40
  7
KANJI
 50
90.000000
 51
0.000000
  0
TEXT
  8
1
 62
7
  6
CONTINUOUS
 10
210.374715
 20
50.838659
 40
1.920000
 41
0.900000
  1
 0
  7
KANJI
 50
90.000000
 51
0.000000
  0
LINE
  8
1
 62
7
  6
CONTINUOUS
 10
197.676510
 20
11.491014
 11
197.676510
 21
17.891014
  0
LINE
  8
1
 62
7
  6
CONTINUOUS
 10
197.676510
 20
17.891014
 11
197.676510
 21
22.891014
  0
LINE
  8
1
 62
7
  6
CONTINUOUS
 10
197.676510
 20
22.891014
 11
197.676510
 21
34.611617
  0
LINE
  8
1
 62
7
  6
CONTINUOUS
 10
180.282255
 20
17.891014
 11
199.176510
 21
17.891014
  0
LINE
  8
1
 62
7
  6
CONTINUOUS
 10
181.032255
 20
22.891014
 11
199.176510
 21
22.891014
  0
LINE
  8
1
 62
7
  6
CONTINUOUS
 10
197.676510
 20
22.891014
 11
197.260510
 21
26.091014
  0
LINE
  8
1
 62
7
  6
CONTINUOUS
 10
197.260510
 20
26.091014
 11
198.092510
 21
26.091014
  0
LINE
  8
1
 62
7
  6
CONTINUOUS
 10
198.092510
 20
26.091014
 11
197.676510
 21
22.891014
  0
LINE
  8
1
 62
7
  6
CONTINUOUS
 10
197.676510
 20
17.891014
 11
198.092510
 21
14.691014
  0
LINE
  8
1
 62
7
  6
CONTINUOUS
 10
198.092510
 20
14.691014
 11
197.260510
 21
14.691014
  0
LINE
  8
1
 62
7
  6
CONTINUOUS
 10
197.260510
 20
14.691014
 11
197.676510
 21
17.891014
  0
TEXT
  8
1
 62
7
  6
CONTINUOUS
 10
195.676510
 20
27.891617
 40
3.200000
 41
0.900000
  1
(10)
  7
KANJI
 50
90.000000
 51
0.000000
  0
LINE
  8
1
 62
7
  6
CONTINUOUS
 10
144.294121
 20
163.585618
 11
148.624248
 21
163.585618
  0
LINE
  8
1
 62
7
  6
CONTINUOUS
 10
148.624248
 20
163.585618
 11
146.459184
 21
167.335618
  0
LINE
  8
1
 62
7
  6
CONTINUOUS
 10
146.459184
 20
167.335618
 11
144.294121
 21
163.585618
  0
TEXT
  8
1
 62
7
  6
CONTINUOUS
 10
145.559184
 20
163.835618
 40
2.000000
 41
0.900000
  1
A
  7
KANJI
 50
0.000000
 51
0.000000
  0
LINE
  8
1
 62
7
  6
CONTINUOUS
 10
172.082009
 20
122.981488
 11
172.082009
 21
125.481488
  0
LINE
  8
1
 62
7
  6
CONTINUOUS
 10
169.582009
 20
124.481488
 11
172.082009
 21
122.981488
  0
LINE
  8
1
 62
7
  6
CONTINUOUS
 10
174.582009
 20
124.481488
 11
169.582009
 21
124.481488
  0
LINE
  8
1
 62
7
  6
CONTINUOUS
 10
169.082009
 20
127.481488
 11
175.082009
 21
127.481488
  0
LINE
  8
1
 62
7
  6
CONTINUOUS
 10
175.082009
 20
121.481488
 11
169.082009
 21
121.481488
  0
LINE
  8
1
 62
7
  6
CONTINUOUS
 10
175.082009
 20
147.481488
 11
175.082009
 21
121.481488
  0
LINE
  8
1
 62
7
  6
CONTINUOUS
 10
169.082009
 20
147.481488
 11
175.082009
 21
147.481488
  0
LINE
  8
1
 62
7
  6
CONTINUOUS
 10
169.082009
 20
121.481488
 11
169.082009
 21
147.481488
  0
TEXT
  8
1
 62
7
  6
CONTINUOUS
 10
174.082009
 20
128.528234
 40
4.000000
 41
0.900000
  1
òÂÄÜâmî³âL
  7
KANJI
 50
90.000000
 51
0.000000
  0
LINE
  8
1
 62
7
  6
CONTINUOUS
 10
168.386478
 20
167.219932
 11
166.221414
 21
163.469932
  0
LINE
  8
1
 62
7
  6
CONTINUOUS
 10
170.551541
 20
163.469932
 11
168.386478
 21
167.219932
  0
LINE
  8
1
 62
7
  6
CONTINUOUS
 10
166.221414
 20
163.469932
 11
170.551541
 21
163.469932
  0
TEXT
  8
1
 62
7
  6
CONTINUOUS
 10
167.486478
 20
163.719932
 40
2.000000
 41
0.900000
  1
A
  7
KANJI
 50
0.000000
 51
0.000000
  0
ENDSEC
  0
EOF
