  0
SECTION
  2
HEADER
  9
$ACADVER
  1
AC1003
  9
$INSBASE
 10
0.000000
 20
0.000000
  9
$EXTMIN
 10
0.000000
 20
0.000000
  9
$EXTMAX
 10
420.000000
 20
297.000000
  9
$LIMMIN
 10
0.000000
 20
0.000000
  9
$LIMMAX
 10
420.000000
 20
297.000000
  9
$VIEWCTR
 10
210.000000
 20
148.500000
  9
$VIEWSIZE
 40
297.000000
  9
$PEXTMIN
 10
0.000000
 20
0.000000
 30
0.000000
  9
$PEXTMAX
 10
420.000000
 20
297.000000
 30
0.000000
  9
$SNAPMODE
 70
     0
  9
$SNAPUNIT
 10
1.000000
 20
1.000000
  9
$SNAPBASE
 10
0.000000
 20
0.000000
  9
$SNAPANG
 50
0.000000
  9
$SNAPISOPAIR
 70
     0
  9
$SNAPSTYLE
 70
     0
  9
$GRIDMODE
 70
     0
  9
$GRIDUNIT
 10
0.000000
 20
0.000000
  9
$ORTHOMODE
 70
     0
  9
$REGENMODE
 70
     1
  9
$FILLMODE
 70
     1
  9
$QTEXTMODE
 70
     0
  9
$DRAGMODE
 70
     2
  9
$LTSCALE
 40
0.250000
  9
$OSMODE
 70
     0
  9
$ATTMODE
 70
     1
  9
$TEXTSIZE
 40
0.200000
  9
$TRACEWID
 40
0.050000
  9
$TEXTSTYLE
  7
STANDARD
  9
$CLAYER
  8
0
  9
$CELTYPE
  6
BYLAYER
  9
$CECOLOR
 62
   256
  9
$DIMSCALE
 40
1.000000
  9
$DIMASZ
 40
1.000000
  9
$DIMEXO
 40
0.000000
  9
$DIMDLI
 40
0.500000
  9
$DIMRND
 40
0.000000
  9
$DIMDLE
 40
0.000000
  9
$DIMEXE
 40
0.000000
  9
$DIMTP
 40
0.000000
  9
$DIMTM
 40
0.000000
  9
$DIMTXT
 40
0.180000
  9
$DIMCEN
 40
0.000000
  9
$DIMTSZ
 40
0.000000
  9
$DIMTOL
 70
     0
  9
$DIMLIM
 70
     0
  9
$DIMTIH
 70
     1
  9
$DIMTOH
 70
     1
  9
$DIMSE1
 70
     0
  9
$DIMSE2
 70
     0
  9
$DIMTAD
 70
     0
  9
$DIMZIN
 70
     0
  9
$DIMBLK
  1

  9
$DIMASO
 70
     0
  9
$DIMSHO
 70
     0
  9
$DIMPOST
  1

  9
$DIMAPOST
  1

  9
$DIMALT
 70
     0
  9
$DIMALTD
 70
     0
  9
$DIMALTF
 40
25.400000
  9
$DIMLFAC
 40
1.000000
  9
$DIMTOFL
 70
     0
  9
$DIMTVP
 40
0.000000
  9
$DIMTIX
 70
     0
  9
$DIMSOXD
 70
     0
  9
$DIMSAH
 70
     0
  9
$DIMBLKL
  1

  9
$DIMBLKR
  1

  9
$LUNITS
 70
     2
  9
$LUPREC
 70
     2
  9
$AXISMODE
 70
     0
  9
$AXISUNIT
 10
1.000000
 20
1.000000
  9
$SKETCHINC
 40
0.000000
  9
$FILLETRAD
 40
0.000000
  9
$AUNITS
 70
     1
  9
$AUPREC
 70
     2
  9
$MENU
  1
ACAD
  9
$ELEVATION
 40
0.000000
  9
$THICKNESS
 40
0.000000
  9
$VIEWDIR
 10
0.000000
 20
0.000000
 30
1.000000
  9
$LIMCHECK
 70
     1
  9
$BLIPMODE
 70
     1
  9
$CHAMFERA
 40
0.000000
  9
$CHAMFERB
 40
0.000000
  9
$FASTZOOM
 70
     1
  9
$SKPOLY
 70
     0
  9
$TDCREATE
 40
0.000000
  9
$TDUPDATE
 40
0.000000
  9
$TDINDWG
 40
0.000000
  9
$TDUSRTIMER
 40
0.000000
  9
$USRTIMER
 70
     1
  9
$ANGBASE
 50
0.000000
  9
$ANGDIR
 70
     0
  9
$PDMODE
 70
     0
  9
$PDSIZE
 40
0.000000
  9
$PLINEWID
 40
0.000000
  9
$COORDS
 70
     2
  9
$USERI1
 70
     0
  9
$USERI2
 70
     0
  9
$USERI3
 70
     0
  9
$USERI4
 70
     0
  9
$USERI5
 70
     0
  9
$USERR1
 40
0.000000
  9
$USERR2
 40
0.000000
  9
$USERR3
 40
0.000000
  9
$USERR4
 40
0.000000
  9
$USERR5
 40
0.000000
  0
ENDSEC
  0
SECTION
  2
TABLES
  0
TABLE
  2
LTYPE
 70
     5
  0
LTYPE
  2
CONTINUOUS
 70
    64
  3
Solid line
 72
    65
 73
     0
 40
0.0
  0
LTYPE
  2
HIDDEN
 70
    64
  3
------------------------
 72
    65
 73
     2
 40
12.6
 49
8.4
 49
-4.2
  0
LTYPE
  2
DOT
 70
    64
  3
ÑÑÑÑÑÑÑÑÑÑÑÑÑÑÑÑÑÑÑÑÑÑÑÑ
 72
    65
 73
     2
 40
8.0
 49
6.0
 49
-2.0
  0
LTYPE
  2
DASHDOT
 70
    64
  3
--Ñ--Ñ--Ñ--Ñ--Ñ--Ñ--Ñ--
 72
    65
 73
     4
 40
50.5
 49
30.0
 49
-9.0
 49
2.5
 49
-9.0
  0
LTYPE
  2
DIVIDE
 70
    64
  3
--ÑÑ--ÑÑ--ÑÑ--ÑÑ--ÑÑ--
 72
    65
 73
     6
 40
58.0
 49
30.0
 49
-9.0
 49
2.5
 49
-5.0
 49
2.5
 49
-9.0
  0
ENDTAB
  0
TABLE
  2
LAYER
 70
1
  0
LAYER
  2
1
 70
64
 62
7
  6
CONTINUOUS
  0
ENDTAB
  0
TABLE
  2
STYLE
 70
     2
  0
STYLE
  2
STANDARD
 70
    64
 40
0.0
 41
1.0
 50
0.0
 71
     0
 42
0.2
  3
TXT
  4

  0
STYLE
  2
KANJI
 70
    64
 40
0.0
 41
1.0
 50
0.0
 71
     0
 42
0.2
  3
TXT
  4
BIGFONT
  0
ENDTAB
  0
TABLE
  2
VIEW
 70
     0
  0
ENDTAB
  0
ENDSEC
  0
SECTION
  2
BLOCKS
  0
ENDSEC
  0
SECTION
  2
ENTITIES
  0
LINE
  8
1
 62
7
  6
CONTINUOUS
 10
162.149628
 20
65.943155
 11
162.149628
 21
74.396499
  0
LINE
  8
1
 62
7
  6
CONTINUOUS
 10
163.149628
 20
65.943155
 11
163.149628
 21
73.405901
  0
LINE
  8
1
 62
7
  6
CONTINUOUS
 10
160.149628
 20
100.943155
 11
160.149628
 21
93.480408
  0
LINE
  8
1
 62
7
  6
CONTINUOUS
 10
161.149628
 20
100.943155
 11
161.149628
 21
92.489811
  0
LINE
  8
1
 62
7
  6
CONTINUOUS
 10
157.149628
 20
69.443155
 11
157.149628
 21
79.349487
  0
LINE
  8
1
 62
7
  6
CONTINUOUS
 10
161.149628
 20
65.943155
 11
161.149628
 21
75.387097
  0
LINE
  8
1
 62
7
  6
CONTINUOUS
 10
160.149628
 20
65.943155
 11
160.149628
 21
76.563431
  0
LINE
  8
1
 62
7
  6
CONTINUOUS
 10
159.149628
 20
65.943155
 11
159.149628
 21
77.430204
  0
LINE
  8
1
 62
7
  6
CONTINUOUS
 10
158.149628
 20
65.943155
 11
158.149628
 21
78.544627
  0
LINE
  8
1
 62
7
  6
CONTINUOUS
 10
169.849628
 20
12.943155
 11
169.849628
 21
15.943155
  0
LINE
  8
1
 62
7
  6
CONTINUOUS
 10
169.449628
 20
15.943155
 11
169.449628
 21
12.943155
  0
LINE
  8
1
 62
7
  6
CONTINUOUS
 10
168.849628
 20
12.943155
 11
168.849628
 21
15.943155
  0
LINE
  8
1
 62
7
  6
CONTINUOUS
 10
168.449628
 20
15.943155
 11
168.449628
 21
12.943155
  0
LINE
  8
1
 62
7
  6
CONTINUOUS
 10
168.149628
 20
15.943155
 11
170.149628
 21
15.943155
  0
LINE
  8
1
 62
7
  6
CONTINUOUS
 10
170.149628
 20
40.824569
 11
170.149628
 21
15.943155
  0
LINE
  8
1
 62
7
  6
CONTINUOUS
 10
169.149628
 20
15.943155
 11
169.149628
 21
40.824569
  0
LINE
  8
1
 62
7
  6
CONTINUOUS
 10
168.149628
 20
40.824569
 11
168.149628
 21
15.943155
  0
LINE
  8
1
 62
7
  6
CONTINUOUS
 10
167.149628
 20
40.824569
 11
171.149628
 21
40.824569
  0
LINE
  8
1
 62
7
  6
CONTINUOUS
 10
51.913628
 20
83.443155
 11
83.613225
 21
83.443155
  0
LINE
  8
1
 62
7
  6
CONTINUOUS
 10
145.649628
 20
80.943155
 11
133.649628
 21
80.943155
  0
LINE
  8
1
 62
7
  6
CONTINUOUS
 10
175.649628
 20
66.943055
 11
175.649628
 21
67.826826
  0
LINE
  8
1
 62
7
  6
CONTINUOUS
 10
175.649628
 20
68.589280
 11
175.649628
 21
67.826826
  0
LINE
  8
1
 62
7
  6
CONTINUOUS
 10
175.649628
 20
72.943155
 11
175.649628
 21
72.193155
  0
LINE
  8
1
 62
7
  6
CONTINUOUS
 10
174.899628
 20
67.991613
 11
174.149628
 21
67.991613
  0
LINE
  8
1
 62
7
  6
CONTINUOUS
 10
175.649628
 20
72.193155
 11
175.649628
 21
68.741613
  0
LINE
  8
1
 62
7
  6
CONTINUOUS
 10
174.149628
 20
72.943155
 11
174.899628
 21
72.943155
  0
LINE
  8
1
 62
7
  6
CONTINUOUS
 10
174.149628
 20
73.943155
 11
175.649628
 21
74.943155
  0
LINE
  8
1
 62
7
  6
CONTINUOUS
 10
174.149628
 20
71.943155
 11
174.149628
 21
73.943155
  0
LINE
  8
1
 62
7
  6
CONTINUOUS
 10
175.649628
 20
93.943155
 11
175.649628
 21
94.762944
  0
LINE
  8
1
 62
7
  6
CONTINUOUS
 10
175.649628
 20
98.943155
 11
175.649628
 21
97.897057
  0
LINE
  8
1
 62
7
  6
CONTINUOUS
 10
175.649628
 20
98.193155
 11
175.649628
 21
94.693155
  0
LINE
  8
1
 62
7
  6
CONTINUOUS
 10
174.881679
 20
93.943155
 11
174.899628
 21
93.943155
  0
LINE
  8
1
 62
7
  6
CONTINUOUS
 10
174.881679
 20
98.943155
 11
174.899628
 21
98.943155
  0
LINE
  8
1
 62
7
  6
CONTINUOUS
 10
174.149628
 20
94.377092
 11
174.149628
 21
93.098286
  0
LINE
  8
1
 62
7
  6
CONTINUOUS
 10
174.149628
 20
93.943155
 11
174.881679
 21
93.943155
  0
LINE
  8
1
 62
7
  6
CONTINUOUS
 10
174.149628
 20
98.943155
 11
174.881679
 21
98.943155
  0
LINE
  8
1
 62
7
  6
CONTINUOUS
 10
174.149628
 20
93.098286
 11
175.649628
 21
92.098286
  0
LINE
  8
1
 62
7
  6
CONTINUOUS
 10
174.149628
 20
94.943155
 11
174.149628
 21
94.377092
  0
LINE
  8
1
 62
7
  6
CONTINUOUS
 10
144.967111
 20
96.443155
 11
150.962227
 21
96.443155
  0
LINE
  8
1
 62
7
  6
CONTINUOUS
 10
133.649628
 20
85.943155
 11
133.649628
 21
80.943155
  0
LINE
  8
1
 62
7
  6
CONTINUOUS
 10
145.649628
 20
85.943155
 11
133.649628
 21
85.943155
  0
LINE
  8
1
 62
7
  6
CONTINUOUS
 10
174.149628
 20
71.943155
 11
174.149628
 21
65.943155
  0
LINE
  8
1
 62
7
  6
CONTINUOUS
 10
175.649628
 20
93.943155
 11
175.649628
 21
72.943155
  0
LINE
  8
1
 62
7
  6
CONTINUOUS
 10
168.149628
 20
64.943155
 11
168.149628
 21
43.910170
  0
LINE
  8
1
 62
7
  6
CONTINUOUS
 10
169.149628
 20
64.943155
 11
169.149628
 21
41.824569
  0
LINE
  8
1
 62
7
  6
CONTINUOUS
 10
170.149628
 20
65.943155
 11
170.149628
 21
41.824569
  0
LINE
  8
1
 62
7
  6
CONTINUOUS
 10
145.649628
 20
84.643155
 11
145.649628
 21
72.443155
  0
LINE
  8
1
 62
7
  6
CONTINUOUS
 10
147.649628
 20
72.443155
 11
145.649628
 21
72.443155
  0
LINE
  8
1
 62
7
  6
CONTINUOUS
 10
160.878806
 20
105.812118
 11
160.878806
 21
108.312118
  0
LINE
  8
1
 62
7
  6
CONTINUOUS
 10
158.378806
 20
107.312118
 11
160.878806
 21
105.812118
  0
LINE
  8
1
 62
7
  6
CONTINUOUS
 10
163.378806
 20
107.312118
 11
158.378806
 21
107.312118
  0
LINE
  8
1
 62
7
  6
CONTINUOUS
 10
157.878806
 20
110.312118
 11
163.878806
 21
110.312118
  0
LINE
  8
1
 62
7
  6
CONTINUOUS
 10
163.878806
 20
104.312118
 11
157.878806
 21
104.312118
  0
LINE
  8
1
 62
7
  6
CONTINUOUS
 10
163.878806
 20
130.312118
 11
163.878806
 21
104.312118
  0
LINE
  8
1
 62
7
  6
CONTINUOUS
 10
157.878806
 20
130.312118
 11
163.878806
 21
130.312118
  0
LINE
  8
1
 62
7
  6
CONTINUOUS
 10
157.878806
 20
104.312118
 11
157.878806
 21
130.312118
  0
LINE
  8
1
 62
7
  6
CONTINUOUS
 10
168.149628
 20
43.910170
 11
168.149628
 21
42.662689
  0
LINE
  8
1
 62
7
  6
CONTINUOUS
 10
168.149628
 20
42.662689
 11
168.149628
 21
41.824569
  0
LINE
  8
1
 62
7
  6
CONTINUOUS
 10
162.149628
 20
100.943155
 11
162.149628
 21
91.499213
  0
LINE
  8
1
 62
7
  6
CONTINUOUS
 10
163.149628
 20
100.943155
 11
163.149628
 21
90.322878
  0
LINE
  8
1
 62
7
  6
CONTINUOUS
 10
164.149628
 20
100.943155
 11
164.149628
 21
89.456105
  0
LINE
  8
1
 62
7
  6
CONTINUOUS
 10
165.149628
 20
100.943155
 11
165.149628
 21
88.341683
  0
LINE
  8
1
 62
7
  6
CONTINUOUS
 10
166.149628
 20
97.443155
 11
166.149628
 21
87.536823
  0
LINE
  8
1
 62
7
  6
CONTINUOUS
 10
156.149628
 20
102.443155
 11
167.149628
 21
102.443155
  0
LINE
  8
1
 62
7
  6
CONTINUOUS
 10
174.149628
 20
100.943155
 11
174.149628
 21
94.943155
  0
LINE
  8
1
 62
7
  6
CONTINUOUS
 10
166.149628
 20
100.943155
 11
166.149628
 21
97.443155
  0
LINE
  8
1
 62
7
  6
CONTINUOUS
 10
157.149628
 20
100.943155
 11
157.149628
 21
97.443155
  0
LINE
  8
1
 62
7
  6
CONTINUOUS
 10
166.149628
 20
69.443155
 11
166.149628
 21
65.943155
  0
LINE
  8
1
 62
7
  6
CONTINUOUS
 10
157.149628
 20
69.443155
 11
157.149628
 21
65.943155
  0
LINE
  8
1
 62
7
  6
CONTINUOUS
 10
156.149628
 20
97.443155
 11
156.149628
 21
69.443155
  0
LINE
  8
1
 62
7
  6
CONTINUOUS
 10
167.149628
 20
97.443155
 11
167.149628
 21
69.443155
  0
LINE
  8
1
 62
7
  6
CONTINUOUS
 10
156.149628
 20
69.443155
 11
167.149628
 21
69.443155
  0
LINE
  8
1
 62
7
  6
CONTINUOUS
 10
156.149628
 20
97.443155
 11
167.149628
 21
97.443155
  0
LINE
  8
1
 62
7
  6
CONTINUOUS
 10
131.000512
 20
83.443155
 11
193.597319
 21
83.443155
  0
LINE
  8
1
 62
7
  6
CONTINUOUS
 10
141.653067
 20
96.443155
 11
144.967111
 21
96.443155
  0
LINE
  8
1
 62
7
  6
CONTINUOUS
 10
145.649628
 20
94.443155
 11
145.649628
 21
83.743155
  0
LINE
  8
1
 62
7
  6
CONTINUOUS
 10
145.649628
 20
94.443155
 11
147.649628
 21
94.443155
  0
LINE
  8
1
 62
7
  6
CONTINUOUS
 10
147.649628
 20
100.943155
 11
147.649628
 21
65.943155
  0
LINE
  8
1
 62
7
  6
CONTINUOUS
 10
175.649628
 20
99.943155
 11
175.649628
 21
98.943155
  0
LINE
  8
1
 62
7
  6
CONTINUOUS
 10
147.649628
 20
65.943155
 11
174.649728
 21
65.943155
  0
LINE
  8
1
 62
7
  6
CONTINUOUS
 10
147.649628
 20
100.943155
 11
174.649628
 21
100.943155
  0
LINE
  8
1
 62
7
  6
CONTINUOUS
 10
41.649628
 20
100.943155
 11
70.649628
 21
100.943155
  0
LINE
  8
1
 62
7
  6
CONTINUOUS
 10
41.649628
 20
65.943155
 11
54.149628
 21
65.943155
  0
LINE
  8
1
 62
7
  6
CONTINUOUS
 10
38.649628
 20
97.943155
 11
38.649628
 21
68.943155
  0
LINE
  8
1
 62
7
  6
CONTINUOUS
 10
73.649628
 20
97.943155
 11
70.649628
 21
100.943155
  0
LINE
  8
1
 62
7
  6
CONTINUOUS
 10
73.649628
 20
68.943155
 11
70.649628
 21
65.943155
  0
LINE
  8
1
 62
7
  6
CONTINUOUS
 10
38.649628
 20
68.943155
 11
41.649628
 21
65.943155
  0
LINE
  8
1
 62
7
  6
CONTINUOUS
 10
38.649628
 20
97.943155
 11
41.649628
 21
100.943155
  0
LINE
  8
1
 62
7
  6
CONTINUOUS
 10
31.173702
 20
83.443155
 11
51.913628
 21
83.443155
  0
LINE
  8
1
 62
7
  6
CONTINUOUS
 10
56.149628
 20
106.319846
 11
56.149628
 21
65.943155
  0
LINE
  8
1
 62
7
  6
CONTINUOUS
 10
73.649628
 20
97.943155
 11
73.649628
 21
68.943155
  0
LINE
  8
1
 62
7
  6
CONTINUOUS
 10
66.478635
 20
96.443155
 11
71.649628
 21
96.443155
  0
LINE
  8
1
 62
7
  6
CONTINUOUS
 10
69.149628
 20
98.894697
 11
69.149628
 21
93.611959
  0
LINE
  8
1
 62
7
  6
CONTINUOUS
 10
43.149628
 20
93.772162
 11
43.149628
 21
98.943155
  0
LINE
  8
1
 62
7
  6
CONTINUOUS
 10
45.820620
 20
70.443155
 11
40.649628
 21
70.443155
  0
LINE
  8
1
 62
7
  6
CONTINUOUS
 10
40.698086
 20
96.443155
 11
45.980823
 21
96.443155
  0
LINE
  8
1
 62
7
  6
CONTINUOUS
 10
43.149628
 20
67.991613
 11
43.149628
 21
73.274350
  0
LINE
  8
1
 62
7
  6
CONTINUOUS
 10
72.831294
 20
70.443155
 11
65.475584
 21
70.443155
  0
LINE
  8
1
 62
7
  6
CONTINUOUS
 10
69.149628
 20
74.174219
 11
69.149628
 21
72.601281
  0
LINE
  8
1
 62
7
  6
CONTINUOUS
 10
69.149628
 20
74.174219
 11
69.149628
 21
66.889709
  0
LINE
  8
1
 62
7
  6
CONTINUOUS
 10
168.149628
 20
65.943155
 11
168.149628
 21
64.943155
  0
LINE
  8
1
 62
7
  6
CONTINUOUS
 10
169.149628
 20
65.943155
 11
169.149628
 21
64.943155
  0
LINE
  8
1
 62
7
  6
CONTINUOUS
 10
167.149628
 20
41.824569
 11
171.149628
 21
41.824569
  0
LINE
  8
1
 62
7
  6
CONTINUOUS
 10
58.149628
 20
65.943155
 11
58.149628
 21
41.824569
  0
LINE
  8
1
 62
7
  6
CONTINUOUS
 10
58.149628
 20
65.943155
 11
70.649628
 21
65.943155
  0
LINE
  8
1
 62
7
  6
CONTINUOUS
 10
57.149628
 20
65.943155
 11
57.149628
 21
41.824569
  0
LINE
  8
1
 62
7
  6
CONTINUOUS
 10
57.149628
 20
65.943155
 11
58.149628
 21
65.943155
  0
LINE
  8
1
 62
7
  6
CONTINUOUS
 10
56.149628
 20
65.943155
 11
56.149628
 21
41.824569
  0
LINE
  8
1
 62
7
  6
CONTINUOUS
 10
56.149628
 20
65.943155
 11
57.149628
 21
65.943155
  0
LINE
  8
1
 62
7
  6
CONTINUOUS
 10
55.149628
 20
65.943155
 11
55.149628
 21
41.824569
  0
LINE
  8
1
 62
7
  6
CONTINUOUS
 10
55.149628
 20
65.943155
 11
56.149628
 21
65.943155
  0
LINE
  8
1
 62
7
  6
CONTINUOUS
 10
54.149628
 20
65.943155
 11
55.149628
 21
65.943155
  0
LINE
  8
1
 62
7
  6
CONTINUOUS
 10
53.149628
 20
41.824569
 11
60.149628
 21
41.824569
  0
CIRCLE
  8
1
 62
7
  6
CONTINUOUS
 10
56.149628
 20
83.443155
 40
2.500000
  0
CIRCLE
  8
1
 62
7
  6
CONTINUOUS
 10
56.149628
 20
83.443155
 40
2.500000
  0
CIRCLE
  8
1
 62
7
  6
CONTINUOUS
 10
56.149628
 20
83.443155
 40
11.000000
  0
CIRCLE
  8
1
 62
7
  6
CONTINUOUS
 10
43.149628
 20
96.443155
 40
1.500000
  0
CIRCLE
  8
1
 62
7
  6
CONTINUOUS
 10
43.149628
 20
70.443155
 40
1.500000
  0
CIRCLE
  8
1
 62
7
  6
CONTINUOUS
 10
43.149628
 20
96.443155
 40
1.000000
  0
CIRCLE
  8
1
 62
7
  6
CONTINUOUS
 10
43.149628
 20
70.443155
 40
1.000000
  0
CIRCLE
  8
1
 62
7
  6
CONTINUOUS
 10
69.149628
 20
96.443155
 40
1.500000
  0
CIRCLE
  8
1
 62
7
  6
CONTINUOUS
 10
69.149628
 20
96.443155
 40
1.000000
  0
CIRCLE
  8
1
 62
7
  6
CONTINUOUS
 10
69.149628
 20
70.443155
 40
1.500000
  0
CIRCLE
  8
1
 62
7
  6
CONTINUOUS
 10
69.149628
 20
70.443155
 40
1.000000
  0
CIRCLE
  8
1
 62
7
  6
CONTINUOUS
 10
56.149628
 20
83.443155
 40
5.000000
  0
ARC
  8
1
 62
7
  6
CONTINUOUS
 10
174.649728
 20
66.943055
 40
0.999900
 50
-90.000000
 51
0.000000
  0
ARC
  8
1
 62
7
  6
CONTINUOUS
 10
174.899628
 20
68.741613
 40
0.750000
 50
-90.000000
 51
0.000000
  0
ARC
  8
1
 62
7
  6
CONTINUOUS
 10
174.899628
 20
72.193155
 40
0.750000
 50
0.000000
 51
90.000000
  0
ARC
  8
1
 62
7
  6
CONTINUOUS
 10
174.899628
 20
94.693155
 40
0.750000
 50
-90.000000
 51
0.000000
  0
ARC
  8
1
 62
7
  6
CONTINUOUS
 10
174.899628
 20
98.193155
 40
0.750000
 50
0.000000
 51
90.000000
  0
ARC
  8
1
 62
7
  6
CONTINUOUS
 10
174.649628
 20
99.943155
 40
1.000000
 50
0.000000
 51
90.000000
  0
LINE
  8
1
 62
7
  6
CONTINUOUS
 10
84.629972
 20
32.069801
 11
149.595992
 21
32.069801
  0
LINE
  8
1
 62
7
  6
CONTINUOUS
 10
149.595992
 20
32.069801
 11
168.149628
 21
47.861541
  0
LINE
  8
1
 62
7
  6
CONTINUOUS
 10
165.985852
 20
45.466638
 11
165.439734
 21
46.108269
  0
LINE
  8
1
 62
7
  6
CONTINUOUS
 10
165.439734
 20
46.108269
 11
168.149628
 21
47.861541
  0
LINE
  8
1
 62
7
  6
CONTINUOUS
 10
168.149628
 20
47.861541
 11
165.985852
 21
45.466638
  0
LINE
  8
1
 62
7
  6
CONTINUOUS
 10
131.191971
 20
52.580933
 11
74.667839
 21
52.580933
  0
LINE
  8
1
 62
7
  6
CONTINUOUS
 10
74.667839
 20
52.580933
 11
69.700761
 21
69.048073
  0
LINE
  8
1
 62
7
  6
CONTINUOUS
 10
71.028209
 20
66.106073
 11
70.221532
 21
65.862751
  0
LINE
  8
1
 62
7
  6
CONTINUOUS
 10
70.221532
 20
65.862751
 11
69.700761
 21
69.048073
  0
LINE
  8
1
 62
7
  6
CONTINUOUS
 10
69.700761
 20
69.048073
 11
71.028209
 21
66.106073
  0
LINE
  8
1
 62
7
  6
CONTINUOUS
 10
169.646875
 20
153.712186
 11
204.005849
 21
153.712186
  0
LINE
  8
1
 62
7
  6
CONTINUOUS
 10
204.005849
 20
153.712186
 11
167.149628
 21
102.443155
  0
LINE
  8
1
 62
7
  6
CONTINUOUS
 10
168.675412
 20
105.287353
 11
169.359555
 21
104.795537
  0
LINE
  8
1
 62
7
  6
CONTINUOUS
 10
169.359555
 20
104.795537
 11
167.149628
 21
102.443155
  0
LINE
  8
1
 62
7
  6
CONTINUOUS
 10
167.149628
 20
102.443155
 11
168.675412
 21
105.287353
  0
TEXT
  8
1
 62
7
  6
CONTINUOUS
 10
173.330728
 20
154.438667
 40
3.500000
 41
0.900000
  1
âlü[âÇâvâîü[âg
  7
KANJI
 50
0.000000
 51
0.000000
  0
TEXT
  8
1
 62
7
  6
CONTINUOUS
 10
169.619332
 20
127.365670
 40
4.000000
 41
0.900000
  1
)
  7
KANJI
 50
90.000000
 51
0.000000
  0
TEXT
  8
1
 62
7
  6
CONTINUOUS
 10
165.619332
 20
112.057338
 40
4.000000
 41
0.900000
  1
)
  7
KANJI
 50
270.000000
 51
0.000000
  0
TEXT
  8
1
 62
7
  6
CONTINUOUS
 10
162.478806
 20
113.158863
 40
3.200000
 41
0.900000
  1
òÂÄÜâmî³âL
  7
KANJI
 50
90.000000
 51
0.000000
  0
TEXT
  8
1
 62
7
  6
CONTINUOUS
 10
166.944332
 20
111.761611
 40
1.800000
 41
0.900000
  1
DIRECTION
  7
KANJI
 50
90.000000
 51
0.000000
  0
TEXT
  8
1
 62
7
  6
CONTINUOUS
 10
170.094332
 20
111.761611
 40
1.800000
 41
0.900000
  1
OF LETTERS
  7
KANJI
 50
90.000000
 51
0.000000
  0
TEXT
  8
1
 62
7
  6
CONTINUOUS
 10
89.558525
 20
33.898379
 40
5.000000
 41
0.450000
  1
ékédé`écü@évéhéqédüFétékéRéQéUéUü@é`évéféQéU
  7
KANJI
 50
0.000000
 51
0.000000
  0
TEXT
  8
1
 62
7
  6
CONTINUOUS
 10
77.333605
 20
47.479787
 40
3.500000
 41
0.630000
  1
É[âT(DEPTH) 3 ê╚ÅÒ(MIN.)
  7
KANJI
 50
0.000000
 51
0.000000
  0
TEXT
  8
1
 62
7
  6
CONTINUOUS
 10
79.333605
 20
53.762721
 40
3.500000
 41
0.720000
  1
4-M3ü~0.5
  7
KANJI
 50
0.000000
 51
0.000000
  0
TEXT
  8
1
 62
7
  6
CONTINUOUS
 10
171.363420
 20
149.308055
 40
3.200000
 41
0.720000
  1
(NAME PLATE)
  7
KANJI
 50
0.000000
 51
0.000000
  0
LINE
  8
1
 62
7
  6
CONTINUOUS
 10
194.817718
 20
12.943155
 11
194.817718
 21
65.943155
  0
LINE
  8
1
 62
7
  6
CONTINUOUS
 10
175.649728
 20
65.943155
 11
196.817718
 21
65.943155
  0
LINE
  8
1
 62
7
  6
CONTINUOUS
 10
170.849628
 20
12.943155
 11
196.817718
 21
12.943155
  0
LINE
  8
1
 62
7
  6
CONTINUOUS
 10
194.817718
 20
12.943155
 11
194.401718
 21
16.143155
  0
LINE
  8
1
 62
7
  6
CONTINUOUS
 10
194.401718
 20
16.143155
 11
195.233718
 21
16.143155
  0
LINE
  8
1
 62
7
  6
CONTINUOUS
 10
195.233718
 20
16.143155
 11
194.817718
 21
12.943155
  0
LINE
  8
1
 62
7
  6
CONTINUOUS
 10
194.817718
 20
65.943155
 11
195.233718
 21
62.743155
  0
LINE
  8
1
 62
7
  6
CONTINUOUS
 10
195.233718
 20
62.743155
 11
194.401718
 21
62.743155
  0
LINE
  8
1
 62
7
  6
CONTINUOUS
 10
194.401718
 20
62.743155
 11
194.817718
 21
65.943155
  0
TEXT
  8
1
 62
7
  6
CONTINUOUS
 10
192.017718
 20
33.216894
 40
3.200000
 41
0.900000
  1
300
  7
KANJI
 50
90.000000
 51
0.000000
  0
TEXT
  8
1
 62
7
  6
CONTINUOUS
 10
189.937718
 20
42.496894
 40
1.920000
 41
0.900000
  1
+40
  7
KANJI
 50
90.000000
 51
0.000000
  0
TEXT
  8
1
 62
7
  6
CONTINUOUS
 10
192.817718
 20
44.224894
 40
1.920000
 41
0.900000
  1
 0
  7
KANJI
 50
90.000000
 51
0.000000
  0
LINE
  8
1
 62
7
  6
CONTINUOUS
 10
180.653632
 20
6.543155
 11
180.653632
 21
12.943155
  0
LINE
  8
1
 62
7
  6
CONTINUOUS
 10
180.653632
 20
12.943155
 11
180.653632
 21
15.943155
  0
LINE
  8
1
 62
7
  6
CONTINUOUS
 10
180.653632
 20
15.943155
 11
180.653632
 21
29.507399
  0
LINE
  8
1
 62
7
  6
CONTINUOUS
 10
170.849628
 20
12.943155
 11
182.653632
 21
12.943155
  0
LINE
  8
1
 62
7
  6
CONTINUOUS
 10
171.149628
 20
15.943155
 11
182.653632
 21
15.943155
  0
LINE
  8
1
 62
7
  6
CONTINUOUS
 10
180.653632
 20
15.943155
 11
180.237632
 21
19.143155
  0
LINE
  8
1
 62
7
  6
CONTINUOUS
 10
180.237632
 20
19.143155
 11
181.069632
 21
19.143155
  0
LINE
  8
1
 62
7
  6
CONTINUOUS
 10
181.069632
 20
19.143155
 11
180.653632
 21
15.943155
  0
LINE
  8
1
 62
7
  6
CONTINUOUS
 10
180.653632
 20
12.943155
 11
181.069632
 21
9.743155
  0
LINE
  8
1
 62
7
  6
CONTINUOUS
 10
181.069632
 20
9.743155
 11
180.237632
 21
9.743155
  0
LINE
  8
1
 62
7
  6
CONTINUOUS
 10
180.237632
 20
9.743155
 11
180.653632
 21
12.943155
  0
TEXT
  8
1
 62
7
  6
CONTINUOUS
 10
178.653632
 20
20.787399
 40
3.200000
 41
0.900000
  1
(3.5)
  7
KANJI
 50
90.000000
 51
0.000000
  0
LINE
  8
1
 62
7
  6
CONTINUOUS
 10
101.649628
 20
72.443155
 11
101.649628
 21
94.443155
  0
LINE
  8
1
 62
7
  6
CONTINUOUS
 10
144.649628
 20
94.443155
 11
99.649628
 21
94.443155
  0
LINE
  8
1
 62
7
  6
CONTINUOUS
 10
144.649628
 20
72.443155
 11
99.649628
 21
72.443155
  0
LINE
  8
1
 62
7
  6
CONTINUOUS
 10
101.649628
 20
94.443155
 11
102.065628
 21
91.243155
  0
LINE
  8
1
 62
7
  6
CONTINUOUS
 10
102.065628
 20
91.243155
 11
101.233628
 21
91.243155
  0
LINE
  8
1
 62
7
  6
CONTINUOUS
 10
101.233628
 20
91.243155
 11
101.649628
 21
94.443155
  0
LINE
  8
1
 62
7
  6
CONTINUOUS
 10
101.649628
 20
72.443155
 11
101.233628
 21
75.643155
  0
LINE
  8
1
 62
7
  6
CONTINUOUS
 10
101.233628
 20
75.643155
 11
102.065628
 21
75.643155
  0
LINE
  8
1
 62
7
  6
CONTINUOUS
 10
102.065628
 20
75.643155
 11
101.649628
 21
72.443155
  0
TEXT
  8
1
 62
7
  6
CONTINUOUS
 10
98.849628
 20
75.259155
 40
3.200000
 41
0.900000
  1
âË22
  7
KANJI
 50
90.000000
 51
0.000000
  0
TEXT
  8
1
 62
7
  6
CONTINUOUS
 10
96.769628
 20
84.859155
 40
1.920000
 41
0.900000
  1
 0
  7
KANJI
 50
90.000000
 51
0.000000
  0
TEXT
  8
1
 62
7
  6
CONTINUOUS
 10
99.649628
 20
84.859155
 40
1.920000
 41
0.900000
  1
-0.05
  7
KANJI
 50
90.000000
 51
0.000000
  0
LINE
  8
1
 62
7
  6
CONTINUOUS
 10
145.649628
 20
110.943155
 11
137.181539
 21
110.943155
  0
LINE
  8
1
 62
7
  6
CONTINUOUS
 10
145.649628
 20
110.943155
 11
147.649628
 21
110.943155
  0
LINE
  8
1
 62
7
  6
CONTINUOUS
 10
154.049628
 20
110.943155
 11
147.649628
 21
110.943155
  0
LINE
  8
1
 62
7
  6
CONTINUOUS
 10
147.649628
 20
101.943155
 11
147.649628
 21
112.943155
  0
LINE
  8
1
 62
7
  6
CONTINUOUS
 10
145.649628
 20
95.443155
 11
145.649628
 21
112.943155
  0
LINE
  8
1
 62
7
  6
CONTINUOUS
 10
145.649628
 20
110.943155
 11
142.449628
 21
110.527155
  0
LINE
  8
1
 62
7
  6
CONTINUOUS
 10
142.449628
 20
110.527155
 11
142.449628
 21
111.359155
  0
LINE
  8
1
 62
7
  6
CONTINUOUS
 10
142.449628
 20
111.359155
 11
145.649628
 21
110.943155
  0
LINE
  8
1
 62
7
  6
CONTINUOUS
 10
147.649628
 20
110.943155
 11
150.849628
 21
111.359155
  0
LINE
  8
1
 62
7
  6
CONTINUOUS
 10
150.849628
 20
111.359155
 11
150.849628
 21
110.527155
  0
LINE
  8
1
 62
7
  6
CONTINUOUS
 10
150.849628
 20
110.527155
 11
147.649628
 21
110.943155
  0
TEXT
  8
1
 62
7
  6
CONTINUOUS
 10
137.181539
 20
112.103056
 40
3.200000
 41
0.900000
  1
(2)
  7
KANJI
 50
0.000000
 51
0.000000
  0
LINE
  8
1
 62
7
  6
CONTINUOUS
 10
119.042965
 20
74.543155
 11
119.042965
 21
80.943155
  0
LINE
  8
1
 62
7
  6
CONTINUOUS
 10
119.042965
 20
80.943155
 11
119.042965
 21
85.943155
  0
LINE
  8
1
 62
7
  6
CONTINUOUS
 10
119.042965
 20
85.943155
 11
119.042965
 21
111.067885
  0
LINE
  8
1
 62
7
  6
CONTINUOUS
 10
132.649628
 20
80.943155
 11
117.042965
 21
80.943155
  0
LINE
  8
1
 62
7
  6
CONTINUOUS
 10
132.649628
 20
85.943155
 11
117.042965
 21
85.943155
  0
LINE
  8
1
 62
7
  6
CONTINUOUS
 10
119.042965
 20
85.943155
 11
118.626965
 21
89.143155
  0
LINE
  8
1
 62
7
  6
CONTINUOUS
 10
118.626965
 20
89.143155
 11
119.458965
 21
89.143155
  0
LINE
  8
1
 62
7
  6
CONTINUOUS
 10
119.458965
 20
89.143155
 11
119.042965
 21
85.943155
  0
LINE
  8
1
 62
7
  6
CONTINUOUS
 10
119.042965
 20
80.943155
 11
119.458965
 21
77.743155
  0
LINE
  8
1
 62
7
  6
CONTINUOUS
 10
119.458965
 20
77.743155
 11
118.626965
 21
77.743155
  0
LINE
  8
1
 62
7
  6
CONTINUOUS
 10
118.626965
 20
77.743155
 11
119.042965
 21
80.943155
  0
TEXT
  8
1
 62
7
  6
CONTINUOUS
 10
116.242965
 20
97.003885
 40
3.200000
 41
0.900000
  1
âË5
  7
KANJI
 50
90.000000
 51
0.000000
  0
TEXT
  8
1
 62
7
  6
CONTINUOUS
 10
114.162965
 20
103.723885
 40
1.920000
 41
0.900000
  1
 0
  7
KANJI
 50
90.000000
 51
0.000000
  0
TEXT
  8
1
 62
7
  6
CONTINUOUS
 10
117.042965
 20
103.723885
 40
1.920000
 41
0.900000
  1
-0.011
  7
KANJI
 50
90.000000
 51
0.000000
  0
LINE
  8
1
 62
7
  6
CONTINUOUS
 10
133.649628
 20
135.749954
 11
147.649628
 21
135.749954
  0
LINE
  8
1
 62
7
  6
CONTINUOUS
 10
133.649628
 20
86.943155
 11
133.649628
 21
137.749954
  0
LINE
  8
1
 62
7
  6
CONTINUOUS
 10
147.649628
 20
101.943155
 11
147.649628
 21
137.749954
  0
LINE
  8
1
 62
7
  6
CONTINUOUS
 10
133.649628
 20
135.749954
 11
136.849628
 21
136.165954
  0
LINE
  8
1
 62
7
  6
CONTINUOUS
 10
136.849628
 20
136.165954
 11
136.849628
 21
135.333954
  0
LINE
  8
1
 62
7
  6
CONTINUOUS
 10
136.849628
 20
135.333954
 11
133.649628
 21
135.749954
  0
LINE
  8
1
 62
7
  6
CONTINUOUS
 10
147.649628
 20
135.749954
 11
144.449628
 21
135.333954
  0
LINE
  8
1
 62
7
  6
CONTINUOUS
 10
144.449628
 20
135.333954
 11
144.449628
 21
136.165954
  0
LINE
  8
1
 62
7
  6
CONTINUOUS
 10
144.449628
 20
136.165954
 11
147.649628
 21
135.749954
  0
TEXT
  8
1
 62
7
  6
CONTINUOUS
 10
135.004879
 20
137.749954
 40
3.200000
 41
0.900000
  1
14
  7
KANJI
 50
0.000000
 51
0.000000
  0
TEXT
  8
1
 62
7
  6
CONTINUOUS
 10
140.444879
 20
138.389954
 40
1.920000
 41
0.900000
  1
ü}0.5
  7
KANJI
 50
0.000000
 51
0.000000
  0
LINE
  8
1
 62
7
  6
CONTINUOUS
 10
147.649628
 20
135.749954
 11
175.649628
 21
135.749954
  0
LINE
  8
1
 62
7
  6
CONTINUOUS
 10
147.649628
 20
101.943155
 11
147.649628
 21
136.749954
  0
LINE
  8
1
 62
7
  6
CONTINUOUS
 10
175.649628
 20
100.943155
 11
175.649628
 21
136.749954
  0
LINE
  8
1
 62
7
  6
CONTINUOUS
 10
147.649628
 20
135.749954
 11
150.849628
 21
136.165954
  0
LINE
  8
1
 62
7
  6
CONTINUOUS
 10
150.849628
 20
136.165954
 11
150.849628
 21
135.333954
  0
LINE
  8
1
 62
7
  6
CONTINUOUS
 10
150.849628
 20
135.333954
 11
147.649628
 21
135.749954
  0
LINE
  8
1
 62
7
  6
CONTINUOUS
 10
175.649628
 20
135.749954
 11
172.449628
 21
135.333954
  0
LINE
  8
1
 62
7
  6
CONTINUOUS
 10
172.449628
 20
135.333954
 11
172.449628
 21
136.165954
  0
LINE
  8
1
 62
7
  6
CONTINUOUS
 10
172.449628
 20
136.165954
 11
175.649628
 21
135.749954
  0
TEXT
  8
1
 62
7
  6
CONTINUOUS
 10
157.646824
 20
137.749954
 40
3.200000
 41
0.900000
  1
(25)
  7
KANJI
 50
0.000000
 51
0.000000
  0
LINE
  8
1
 62
7
  6
CONTINUOUS
 10
38.649628
 20
120.943155
 11
73.649628
 21
120.943155
  0
LINE
  8
1
 62
7
  6
CONTINUOUS
 10
73.649628
 20
98.943155
 11
73.649628
 21
121.943155
  0
LINE
  8
1
 62
7
  6
CONTINUOUS
 10
38.649628
 20
98.943155
 11
38.649628
 21
121.943155
  0
LINE
  8
1
 62
7
  6
CONTINUOUS
 10
38.649628
 20
120.943155
 11
41.849628
 21
121.359155
  0
LINE
  8
1
 62
7
  6
CONTINUOUS
 10
41.849628
 20
121.359155
 11
41.849628
 21
120.527155
  0
LINE
  8
1
 62
7
  6
CONTINUOUS
 10
41.849628
 20
120.527155
 11
38.649628
 21
120.943155
  0
LINE
  8
1
 62
7
  6
CONTINUOUS
 10
73.649628
 20
120.943155
 11
70.449628
 21
120.527155
  0
LINE
  8
1
 62
7
  6
CONTINUOUS
 10
70.449628
 20
120.527155
 11
70.449628
 21
121.359155
  0
LINE
  8
1
 62
7
  6
CONTINUOUS
 10
70.449628
 20
121.359155
 11
73.649628
 21
120.943155
  0
TEXT
  8
1
 62
7
  6
CONTINUOUS
 10
51.175953
 20
122.943155
 40
3.200000
 41
0.900000
  1
(35)
  7
KANJI
 50
0.000000
 51
0.000000
  0
LINE
  8
1
 62
7
  6
CONTINUOUS
 10
43.149628
 20
110.943155
 11
69.149628
 21
110.943155
  0
LINE
  8
1
 62
7
  6
CONTINUOUS
 10
69.149628
 20
99.894697
 11
69.149628
 21
111.943155
  0
LINE
  8
1
 62
7
  6
CONTINUOUS
 10
43.149628
 20
99.943155
 11
43.149628
 21
111.943155
  0
LINE
  8
1
 62
7
  6
CONTINUOUS
 10
43.149628
 20
110.943155
 11
46.349628
 21
111.359155
  0
LINE
  8
1
 62
7
  6
CONTINUOUS
 10
46.349628
 20
111.359155
 11
46.349628
 21
110.527155
  0
LINE
  8
1
 62
7
  6
CONTINUOUS
 10
46.349628
 20
110.527155
 11
43.149628
 21
110.943155
  0
LINE
  8
1
 62
7
  6
CONTINUOUS
 10
69.149628
 20
110.943155
 11
65.949628
 21
110.527155
  0
LINE
  8
1
 62
7
  6
CONTINUOUS
 10
65.949628
 20
110.527155
 11
65.949628
 21
111.359155
  0
LINE
  8
1
 62
7
  6
CONTINUOUS
 10
65.949628
 20
111.359155
 11
69.149628
 21
110.943155
  0
TEXT
  8
1
 62
7
  6
CONTINUOUS
 10
50.232995
 20
112.943155
 40
3.200000
 41
0.900000
  1
26
  7
KANJI
 50
0.000000
 51
0.000000
  0
TEXT
  8
1
 62
7
  6
CONTINUOUS
 10
56.632995
 20
113.583155
 40
1.920000
 41
0.900000
  1
ü}0.2
  7
KANJI
 50
0.000000
 51
0.000000
  0
LINE
  8
1
 62
7
  6
CONTINUOUS
 10
28.649628
 20
70.443155
 11
28.649628
 21
96.443155
  0
LINE
  8
1
 62
7
  6
CONTINUOUS
 10
39.698086
 20
96.443155
 11
27.649628
 21
96.443155
  0
LINE
  8
1
 62
7
  6
CONTINUOUS
 10
39.649628
 20
70.443155
 11
27.649628
 21
70.443155
  0
LINE
  8
1
 62
7
  6
CONTINUOUS
 10
28.649628
 20
96.443155
 11
29.065628
 21
93.243155
  0
LINE
  8
1
 62
7
  6
CONTINUOUS
 10
29.065628
 20
93.243155
 11
28.233628
 21
93.243155
  0
LINE
  8
1
 62
7
  6
CONTINUOUS
 10
28.233628
 20
93.243155
 11
28.649628
 21
96.443155
  0
LINE
  8
1
 62
7
  6
CONTINUOUS
 10
28.649628
 20
70.443155
 11
28.233628
 21
73.643155
  0
LINE
  8
1
 62
7
  6
CONTINUOUS
 10
28.233628
 20
73.643155
 11
29.065628
 21
73.643155
  0
LINE
  8
1
 62
7
  6
CONTINUOUS
 10
29.065628
 20
73.643155
 11
28.649628
 21
70.443155
  0
TEXT
  8
1
 62
7
  6
CONTINUOUS
 10
26.649628
 20
77.374839
 40
3.200000
 41
0.900000
  1
26
  7
KANJI
 50
90.000000
 51
0.000000
  0
TEXT
  8
1
 62
7
  6
CONTINUOUS
 10
26.009628
 20
83.774839
 40
1.920000
 41
0.900000
  1
ü}0.2
  7
KANJI
 50
90.000000
 51
0.000000
  0
LINE
  8
1
 62
7
  6
CONTINUOUS
 10
18.649628
 20
65.943155
 11
18.649628
 21
100.943155
  0
LINE
  8
1
 62
7
  6
CONTINUOUS
 10
40.649628
 20
100.943155
 11
17.649628
 21
100.943155
  0
LINE
  8
1
 62
7
  6
CONTINUOUS
 10
40.649628
 20
65.943155
 11
17.649628
 21
65.943155
  0
LINE
  8
1
 62
7
  6
CONTINUOUS
 10
18.649628
 20
100.943155
 11
19.065628
 21
97.743155
  0
LINE
  8
1
 62
7
  6
CONTINUOUS
 10
19.065628
 20
97.743155
 11
18.233628
 21
97.743155
  0
LINE
  8
1
 62
7
  6
CONTINUOUS
 10
18.233628
 20
97.743155
 11
18.649628
 21
100.943155
  0
LINE
  8
1
 62
7
  6
CONTINUOUS
 10
18.649628
 20
65.943155
 11
18.233628
 21
69.143155
  0
LINE
  8
1
 62
7
  6
CONTINUOUS
 10
18.233628
 20
69.143155
 11
19.065628
 21
69.143155
  0
LINE
  8
1
 62
7
  6
CONTINUOUS
 10
19.065628
 20
69.143155
 11
18.649628
 21
65.943155
  0
TEXT
  8
1
 62
7
  6
CONTINUOUS
 10
16.649628
 20
78.758144
 40
3.200000
 41
0.900000
  1
(35)
  7
KANJI
 50
90.000000
 51
0.000000
  0
ENDSEC
  0
EOF
