  0
SECTION
  2
HEADER
  9
$ACADVER
  1
AC1003
  9
$INSBASE
 10
0.000000
 20
0.000000
  9
$EXTMIN
 10
0.000000
 20
0.000000
  9
$EXTMAX
 10
420.000000
 20
297.000000
  9
$LIMMIN
 10
0.000000
 20
0.000000
  9
$LIMMAX
 10
420.000000
 20
297.000000
  9
$VIEWCTR
 10
210.000000
 20
148.500000
  9
$VIEWSIZE
 40
297.000000
  9
$PEXTMIN
 10
0.000000
 20
0.000000
 30
0.000000
  9
$PEXTMAX
 10
420.000000
 20
297.000000
 30
0.000000
  9
$SNAPMODE
 70
     0
  9
$SNAPUNIT
 10
1.000000
 20
1.000000
  9
$SNAPBASE
 10
0.000000
 20
0.000000
  9
$SNAPANG
 50
0.000000
  9
$SNAPISOPAIR
 70
     0
  9
$SNAPSTYLE
 70
     0
  9
$GRIDMODE
 70
     0
  9
$GRIDUNIT
 10
0.000000
 20
0.000000
  9
$ORTHOMODE
 70
     0
  9
$REGENMODE
 70
     1
  9
$FILLMODE
 70
     1
  9
$QTEXTMODE
 70
     0
  9
$DRAGMODE
 70
     2
  9
$LTSCALE
 40
0.250000
  9
$OSMODE
 70
     0
  9
$ATTMODE
 70
     1
  9
$TEXTSIZE
 40
0.200000
  9
$TRACEWID
 40
0.050000
  9
$TEXTSTYLE
  7
STANDARD
  9
$CLAYER
  8
0
  9
$CELTYPE
  6
BYLAYER
  9
$CECOLOR
 62
   256
  9
$DIMSCALE
 40
1.000000
  9
$DIMASZ
 40
1.000000
  9
$DIMEXO
 40
0.000000
  9
$DIMDLI
 40
0.500000
  9
$DIMRND
 40
0.000000
  9
$DIMDLE
 40
0.000000
  9
$DIMEXE
 40
0.000000
  9
$DIMTP
 40
0.000000
  9
$DIMTM
 40
0.000000
  9
$DIMTXT
 40
0.180000
  9
$DIMCEN
 40
0.000000
  9
$DIMTSZ
 40
0.000000
  9
$DIMTOL
 70
     0
  9
$DIMLIM
 70
     0
  9
$DIMTIH
 70
     1
  9
$DIMTOH
 70
     1
  9
$DIMSE1
 70
     0
  9
$DIMSE2
 70
     0
  9
$DIMTAD
 70
     0
  9
$DIMZIN
 70
     0
  9
$DIMBLK
  1

  9
$DIMASO
 70
     0
  9
$DIMSHO
 70
     0
  9
$DIMPOST
  1

  9
$DIMAPOST
  1

  9
$DIMALT
 70
     0
  9
$DIMALTD
 70
     0
  9
$DIMALTF
 40
25.400000
  9
$DIMLFAC
 40
1.000000
  9
$DIMTOFL
 70
     0
  9
$DIMTVP
 40
0.000000
  9
$DIMTIX
 70
     0
  9
$DIMSOXD
 70
     0
  9
$DIMSAH
 70
     0
  9
$DIMBLKL
  1

  9
$DIMBLKR
  1

  9
$LUNITS
 70
     2
  9
$LUPREC
 70
     2
  9
$AXISMODE
 70
     0
  9
$AXISUNIT
 10
1.000000
 20
1.000000
  9
$SKETCHINC
 40
0.000000
  9
$FILLETRAD
 40
0.000000
  9
$AUNITS
 70
     1
  9
$AUPREC
 70
     2
  9
$MENU
  1
ACAD
  9
$ELEVATION
 40
0.000000
  9
$THICKNESS
 40
0.000000
  9
$VIEWDIR
 10
0.000000
 20
0.000000
 30
1.000000
  9
$LIMCHECK
 70
     1
  9
$BLIPMODE
 70
     1
  9
$CHAMFERA
 40
0.000000
  9
$CHAMFERB
 40
0.000000
  9
$FASTZOOM
 70
     1
  9
$SKPOLY
 70
     0
  9
$TDCREATE
 40
0.000000
  9
$TDUPDATE
 40
0.000000
  9
$TDINDWG
 40
0.000000
  9
$TDUSRTIMER
 40
0.000000
  9
$USRTIMER
 70
     1
  9
$ANGBASE
 50
0.000000
  9
$ANGDIR
 70
     0
  9
$PDMODE
 70
     0
  9
$PDSIZE
 40
0.000000
  9
$PLINEWID
 40
0.000000
  9
$COORDS
 70
     2
  9
$USERI1
 70
     0
  9
$USERI2
 70
     0
  9
$USERI3
 70
     0
  9
$USERI4
 70
     0
  9
$USERI5
 70
     0
  9
$USERR1
 40
0.000000
  9
$USERR2
 40
0.000000
  9
$USERR3
 40
0.000000
  9
$USERR4
 40
0.000000
  9
$USERR5
 40
0.000000
  0
ENDSEC
  0
SECTION
  2
TABLES
  0
TABLE
  2
LTYPE
 70
     5
  0
LTYPE
  2
CONTINUOUS
 70
    64
  3
Solid line
 72
    65
 73
     0
 40
0.0
  0
LTYPE
  2
HIDDEN
 70
    64
  3
------------------------
 72
    65
 73
     2
 40
12.6
 49
8.4
 49
-4.2
  0
LTYPE
  2
DOT
 70
    64
  3
ÑÑÑÑÑÑÑÑÑÑÑÑÑÑÑÑÑÑÑÑÑÑÑÑ
 72
    65
 73
     2
 40
8.0
 49
6.0
 49
-2.0
  0
LTYPE
  2
DASHDOT
 70
    64
  3
--Ñ--Ñ--Ñ--Ñ--Ñ--Ñ--Ñ--
 72
    65
 73
     4
 40
50.5
 49
30.0
 49
-9.0
 49
2.5
 49
-9.0
  0
LTYPE
  2
DIVIDE
 70
    64
  3
--ÑÑ--ÑÑ--ÑÑ--ÑÑ--ÑÑ--
 72
    65
 73
     6
 40
58.0
 49
30.0
 49
-9.0
 49
2.5
 49
-5.0
 49
2.5
 49
-9.0
  0
ENDTAB
  0
TABLE
  2
LAYER
 70
4
  0
LAYER
  2
1
 70
64
 62
7
  6
CONTINUOUS
  0
LAYER
  2
2
 70
64
 62
134
  6
CONTINUOUS
  0
LAYER
  2
4
 70
64
 62
54
  6
CONTINUOUS
  0
LAYER
  2
128
 70
64
 62
7
  6
CONTINUOUS
  0
ENDTAB
  0
TABLE
  2
STYLE
 70
     2
  0
STYLE
  2
STANDARD
 70
    64
 40
0.0
 41
1.0
 50
0.0
 71
     0
 42
0.2
  3
TXT
  4

  0
STYLE
  2
KANJI
 70
    64
 40
0.0
 41
1.0
 50
0.0
 71
     0
 42
0.2
  3
TXT
  4
BIGFONT
  0
ENDTAB
  0
TABLE
  2
VIEW
 70
     0
  0
ENDTAB
  0
ENDSEC
  0
SECTION
  2
BLOCKS
  0
ENDSEC
  0
SECTION
  2
ENTITIES
  0
LINE
  8
1
 62
7
  6
CONTINUOUS
 10
204.020000
 20
91.929751
 11
200.020000
 21
91.929751
  0
LINE
  8
1
 62
7
  6
CONTINUOUS
 10
200.020000
 20
93.187981
 11
204.020000
 21
93.187981
  0
LINE
  8
1
 62
7
  6
CONTINUOUS
 10
202.020000
 20
91.929751
 11
202.020000
 21
60.983897
  0
LINE
  8
1
 62
7
  6
CONTINUOUS
 10
201.020000
 20
91.929751
 11
201.020000
 21
60.983897
  0
LINE
  8
1
 62
7
  6
CONTINUOUS
 10
203.020000
 20
93.187981
 11
203.020000
 21
106.797379
  0
LINE
  8
1
 62
7
  6
CONTINUOUS
 10
203.020000
 20
60.983897
 11
203.020000
 21
91.929751
  0
LINE
  8
1
 62
7
  6
CONTINUOUS
 10
202.020000
 20
106.797379
 11
202.020000
 21
93.187981
  0
LINE
  8
1
 62
7
  6
CONTINUOUS
 10
201.020000
 20
106.797379
 11
201.020000
 21
93.187981
  0
LINE
  8
1
 62
7
  6
CONTINUOUS
 10
51.741843
 20
83.207640
 11
59.463016
 21
83.207640
  0
LINE
  8
1
 62
7
  6
CONTINUOUS
 10
56.454002
 20
83.207640
 11
56.454002
 21
106.797379
  0
LINE
  8
1
 62
7
  6
CONTINUOUS
 10
55.454002
 20
106.797379
 11
55.454002
 21
83.207640
  0
LINE
  8
1
 62
7
  6
CONTINUOUS
 10
57.454002
 20
83.207640
 11
57.454002
 21
106.797379
  0
LINE
  8
1
 62
7
  6
CONTINUOUS
 10
54.454002
 20
106.797379
 11
54.454002
 21
83.207640
  0
LINE
  8
1
 62
7
  6
CONTINUOUS
 10
43.954002
 20
106.797379
 11
67.954002
 21
106.797379
  0
LINE
  8
1
 62
7
  6
CONTINUOUS
 10
169.418332
 20
179.817549
 11
169.418332
 21
165.691241
  0
LINE
  8
1
 62
7
  6
CONTINUOUS
 10
34.953993
 20
115.347380
 11
34.954000
 21
147.347380
  0
LINE
  8
1
 62
7
  6
CONTINUOUS
 10
42.640248
 20
108.347379
 11
43.004002
 21
108.347379
  0
LINE
  8
1
 62
7
  6
CONTINUOUS
 10
169.918333
 20
110.347379
 11
197.818332
 21
110.347389
  0
LINE
  8
4
 62
54
  6
CONTINUOUS
 10
195.418332
 20
142.656579
 11
195.418332
 21
152.347379
  0
LINE
  8
4
 62
54
  6
CONTINUOUS
 10
194.618332
 20
143.926379
 11
194.618332
 21
152.347379
  0
LINE
  8
4
 62
54
  6
CONTINUOUS
 10
193.818332
 20
145.196179
 11
193.818332
 21
152.347379
  0
LINE
  8
4
 62
54
  6
CONTINUOUS
 10
193.018332
 20
146.465979
 11
193.018332
 21
152.347379
  0
LINE
  8
4
 62
54
  6
CONTINUOUS
 10
192.218332
 20
147.735779
 11
192.218332
 21
152.347379
  0
LINE
  8
4
 62
54
  6
CONTINUOUS
 10
191.418332
 20
149.005479
 11
191.418332
 21
152.347379
  0
LINE
  8
4
 62
54
  6
CONTINUOUS
 10
197.018332
 20
152.347379
 11
197.018332
 21
140.117079
  0
LINE
  8
4
 62
54
  6
CONTINUOUS
 10
196.218332
 20
152.347379
 11
196.218332
 21
141.386779
  0
LINE
  8
4
 62
54
  6
CONTINUOUS
 10
182.118232
 20
120.038079
 11
182.118232
 21
110.347279
  0
LINE
  8
4
 62
54
  6
CONTINUOUS
 10
182.918232
 20
118.768279
 11
182.918232
 21
110.347279
  0
LINE
  8
4
 62
54
  6
CONTINUOUS
 10
183.718232
 20
117.498479
 11
183.718232
 21
110.347279
  0
LINE
  8
4
 62
54
  6
CONTINUOUS
 10
184.518232
 20
116.228679
 11
184.518232
 21
110.347279
  0
LINE
  8
4
 62
54
  6
CONTINUOUS
 10
185.318232
 20
114.958979
 11
185.318232
 21
110.347279
  0
LINE
  8
4
 62
54
  6
CONTINUOUS
 10
186.118232
 20
113.689179
 11
186.118232
 21
110.347279
  0
LINE
  8
4
 62
54
  6
CONTINUOUS
 10
180.518232
 20
110.347383
 11
180.518232
 21
122.577579
  0
LINE
  8
4
 62
54
  6
CONTINUOUS
 10
181.318232
 20
110.347283
 11
181.318232
 21
121.307879
  0
LINE
  8
2
 62
134
  6
CONTINUOUS
 10
55.954002
 20
103.669222
 11
55.954002
 21
156.347379
  0
LINE
  8
2
 62
134
  6
CONTINUOUS
 10
29.032522
 20
131.347379
 11
82.453502
 21
131.347379
  0
LINE
  8
2
 62
134
  6
CONTINUOUS
 10
68.954002
 20
146.847379
 11
73.954002
 21
146.847379
  0
LINE
  8
2
 62
134
  6
CONTINUOUS
 10
71.454002
 20
144.347379
 11
71.454002
 21
149.347379
  0
LINE
  8
2
 62
134
  6
CONTINUOUS
 10
40.454012
 20
144.347379
 11
40.454012
 21
149.347379
  0
LINE
  8
2
 62
134
  6
CONTINUOUS
 10
42.954002
 20
146.847379
 11
37.954002
 21
146.847379
  0
LINE
  8
2
 62
134
  6
CONTINUOUS
 10
42.954002
 20
115.847379
 11
37.954002
 21
115.847379
  0
LINE
  8
2
 62
134
  6
CONTINUOUS
 10
40.453992
 20
118.347379
 11
40.453992
 21
113.347379
  0
LINE
  8
2
 62
134
  6
CONTINUOUS
 10
71.454002
 20
118.347379
 11
71.454002
 21
113.347379
  0
LINE
  8
2
 62
134
  6
CONTINUOUS
 10
68.954002
 20
115.847379
 11
73.954002
 21
115.847379
  0
LINE
  8
1
 62
7
  6
CONTINUOUS
 10
179.718332
 20
116.347479
 11
197.818332
 21
116.347379
  0
LINE
  8
1
 62
7
  6
CONTINUOUS
 10
179.718332
 20
146.347379
 11
197.818332
 21
146.347379
  0
LINE
  8
1
 62
7
  6
CONTINUOUS
 10
207.818332
 20
152.347379
 11
169.918332
 21
152.347379
  0
LINE
  8
1
 62
7
  6
CONTINUOUS
 10
182.804878
 20
153.528587
 11
194.213778
 21
153.528587
  0
LINE
  8
1
 62
7
  6
CONTINUOUS
 10
71.954002
 20
152.347379
 11
39.954000
 21
152.347379
  0
LINE
  8
1
 62
7
  6
CONTINUOUS
 10
76.954002
 20
115.347379
 11
76.954002
 21
147.347379
  0
LINE
  8
1
 62
7
  6
CONTINUOUS
 10
39.953993
 20
110.347379
 11
71.954002
 21
110.347379
  0
LINE
  8
1
 62
7
  6
CONTINUOUS
 10
43.954002
 20
153.347379
 11
67.954002
 21
153.347379
  0
LINE
  8
1
 62
7
  6
CONTINUOUS
 10
167.418332
 20
142.347379
 11
169.418332
 21
142.347379
  0
LINE
  8
1
 62
7
  6
CONTINUOUS
 10
167.418232
 20
120.347379
 11
169.418332
 21
120.347379
  0
LINE
  8
1
 62
7
  6
CONTINUOUS
 10
167.418232
 20
120.347379
 11
167.418332
 21
142.347379
  0
LINE
  8
1
 62
7
  6
CONTINUOUS
 10
179.718332
 20
146.347379
 11
179.718332
 21
152.347379
  0
LINE
  8
1
 62
7
  6
CONTINUOUS
 10
179.718332
 20
146.347379
 11
181.718332
 21
146.347379
  0
LINE
  8
1
 62
7
  6
CONTINUOUS
 10
197.818332
 20
146.347379
 11
197.818332
 21
152.347379
  0
LINE
  8
1
 62
7
  6
CONTINUOUS
 10
195.818332
 20
146.347379
 11
197.818332
 21
146.347379
  0
LINE
  8
1
 62
7
  6
CONTINUOUS
 10
179.718332
 20
146.347379
 11
179.718232
 21
116.347379
  0
LINE
  8
1
 62
7
  6
CONTINUOUS
 10
179.718232
 20
116.347379
 11
179.718332
 21
116.347479
  0
LINE
  8
1
 62
7
  6
CONTINUOUS
 10
179.718332
 20
116.347479
 11
179.718232
 21
110.347379
  0
LINE
  8
1
 62
7
  6
CONTINUOUS
 10
197.818332
 20
146.347379
 11
197.818332
 21
116.347379
  0
LINE
  8
1
 62
7
  6
CONTINUOUS
 10
197.818332
 20
116.347379
 11
195.818332
 21
116.347379
  0
LINE
  8
1
 62
7
  6
CONTINUOUS
 10
169.418332
 20
151.847379
 11
169.418332
 21
110.847379
  0
LINE
  8
1
 62
7
  6
CONTINUOUS
 10
208.818332
 20
151.347379
 11
208.818317
 21
111.347379
  0
LINE
  8
1
 62
7
  6
CONTINUOUS
 10
140.740063
 20
131.347379
 11
210.818232
 21
131.347379
  0
LINE
  8
1
 62
7
  6
CONTINUOUS
 10
197.818332
 20
108.347379
 11
197.818332
 21
116.347379
  0
LINE
  8
1
 62
7
  6
CONTINUOUS
 10
197.818332
 20
108.347379
 11
207.818321
 21
108.347379
  0
LINE
  8
1
 62
7
  6
CONTINUOUS
 10
208.818321
 20
109.347381
 11
208.818317
 21
111.347379
  0
LINE
  8
1
 62
7
  6
CONTINUOUS
 10
197.818332
 20
108.347379
 11
197.818332
 21
107.297379
  0
LINE
  8
1
 62
7
  6
CONTINUOUS
 10
198.318332
 20
106.797379
 11
206.318316
 21
106.797379
  0
LINE
  8
1
 62
7
  6
CONTINUOUS
 10
206.818316
 20
107.297379
 11
206.818316
 21
108.347379
  0
LINE
  8
1
 62
7
  6
CONTINUOUS
 10
43.304002
 20
108.647379
 11
43.304002
 21
110.347379
  0
LINE
  8
1
 62
7
  6
CONTINUOUS
 10
68.604002
 20
110.347379
 11
68.604002
 21
108.647379
  0
LINE
  8
1
 62
7
  6
CONTINUOUS
 10
68.904002
 20
108.347379
 11
69.267755
 21
108.347379
  0
LINE
  8
1
 62
7
  6
CONTINUOUS
 10
43.454002
 20
107.297379
 11
43.454002
 21
110.347379
  0
LINE
  8
1
 62
7
  6
CONTINUOUS
 10
68.454002
 20
107.297379
 11
68.454002
 21
110.347379
  0
LINE
  8
1
 62
7
  6
CONTINUOUS
 10
76.954102
 20
152.347379
 11
76.954002
 21
152.347379
  0
LINE
  8
1
 62
7
  6
CONTINUOUS
 10
145.418332
 20
133.847379
 11
167.418294
 21
133.847379
  0
LINE
  8
1
 62
7
  6
CONTINUOUS
 10
145.418332
 20
128.847379
 11
167.418271
 21
128.847379
  0
LINE
  8
1
 62
7
  6
CONTINUOUS
 10
145.418332
 20
133.847379
 11
145.418332
 21
128.847379
  0
LINE
  8
1
 62
7
  6
CONTINUOUS
 10
201.020000
 20
60.983897
 11
203.020000
 21
60.983897
  0
LINE
  8
1
 62
7
  6
CONTINUOUS
 10
201.520000
 20
60.983897
 11
201.520000
 21
55.983897
  0
LINE
  8
1
 62
7
  6
CONTINUOUS
 10
202.520000
 20
55.983897
 11
202.520000
 21
60.983897
  0
ARC
  8
1
 62
7
  6
CONTINUOUS
 10
207.818332
 20
151.347379
 40
1.000000
 50
0.000000
 51
90.000000
  0
ARC
  8
1
 62
7
  6
CONTINUOUS
 10
39.811821
 20
108.347379
 40
2.000000
 50
19.471221
 51
90.000000
  0
ARC
  8
1
 62
7
  6
CONTINUOUS
 10
72.096182
 20
108.347379
 40
2.000000
 50
90.000000
 51
160.528779
  0
CIRCLE
  8
1
 62
7
  6
CONTINUOUS
 10
55.954002
 20
131.347379
 40
2.500000
  0
CIRCLE
  8
4
 62
54
  6
CONTINUOUS
 10
40.454002
 20
146.847379
 40
1.000010
  0
CIRCLE
  8
4
 62
54
  6
CONTINUOUS
 10
71.454002
 20
146.847379
 40
1.000000
  0
CIRCLE
  8
4
 62
54
  6
CONTINUOUS
 10
40.453992
 20
115.847379
 40
1.000010
  0
CIRCLE
  8
4
 62
54
  6
CONTINUOUS
 10
71.454002
 20
115.847379
 40
1.000000
  0
CIRCLE
  8
1
 62
7
  6
CONTINUOUS
 10
71.454002
 20
146.847379
 40
1.500000
  0
CIRCLE
  8
1
 62
7
  6
CONTINUOUS
 10
40.454002
 20
146.847379
 40
1.500000
  0
CIRCLE
  8
1
 62
7
  6
CONTINUOUS
 10
40.453992
 20
115.847379
 40
1.500000
  0
CIRCLE
  8
1
 62
7
  6
CONTINUOUS
 10
71.454002
 20
115.847379
 40
1.500000
  0
CIRCLE
  8
1
 62
7
  6
CONTINUOUS
 10
55.954002
 20
131.347379
 40
11.000000
  0
CIRCLE
  8
1
 62
7
  6
CONTINUOUS
 10
55.954002
 20
131.347379
 40
15.000000
  0
CIRCLE
  8
1
 62
7
  6
CONTINUOUS
 10
55.954002
 20
131.347379
 40
12.000000
  0
CIRCLE
  8
1
 62
7
  6
CONTINUOUS
 10
55.954002
 20
131.347379
 40
4.500000
  0
ARC
  8
1
 62
7
  6
CONTINUOUS
 10
198.318332
 20
107.297379
 40
0.500000
 50
180.000000
 51
-90.000000
  0
ARC
  8
1
 62
7
  6
CONTINUOUS
 10
206.318316
 20
107.297379
 40
0.500000
 50
-90.000000
 51
0.000000
  0
ARC
  8
1
 62
7
  6
CONTINUOUS
 10
43.954002
 20
107.297379
 40
0.500000
 50
180.000000
 51
-90.000000
  0
ARC
  8
1
 62
7
  6
CONTINUOUS
 10
67.954002
 20
107.297379
 40
0.500000
 50
-90.000000
 51
0.000000
  0
ARC
  8
1
 62
7
  6
CONTINUOUS
 10
169.918332
 20
110.847379
 40
0.500000
 50
180.000000
 51
-89.999979
  0
ARC
  8
1
 62
7
  6
CONTINUOUS
 10
169.918332
 20
151.847379
 40
0.500000
 50
90.000000
 51
180.000000
  0
ARC
  8
1
 62
7
  6
CONTINUOUS
 10
207.818321
 20
109.347379
 40
1.000000
 50
-90.000000
 51
0.000100
  0
ARC
  8
1
 62
7
  6
CONTINUOUS
 10
43.004002
 20
108.647379
 40
0.300000
 50
-90.000000
 51
0.000000
  0
ARC
  8
1
 62
7
  6
CONTINUOUS
 10
68.904002
 20
108.647379
 40
0.300000
 50
180.000000
 51
-90.000000
  0
ARC
  8
1
 62
7
  6
CONTINUOUS
 10
39.954000
 20
147.347379
 40
5.000000
 50
90.000000
 51
179.999985
  0
ARC
  8
1
 62
7
  6
CONTINUOUS
 10
71.954002
 20
147.347379
 40
5.000000
 50
0.000000
 51
90.000000
  0
ARC
  8
1
 62
7
  6
CONTINUOUS
 10
71.954002
 20
115.347379
 40
5.000000
 50
-90.000000
 51
-0.000000
  0
ARC
  8
1
 62
7
  6
CONTINUOUS
 10
39.953993
 20
115.347379
 40
5.000000
 50
179.999987
 51
-90.000000
  0
ARC
  8
1
 62
7
  6
CONTINUOUS
 10
42.640248
 20
109.347379
 40
1.000000
 50
-160.528779
 51
-90.000000
  0
ARC
  8
1
 62
7
  6
CONTINUOUS
 10
69.267755
 20
109.347379
 40
1.000000
 50
-90.000000
 51
-19.471221
  0
LINE
  8
1
 62
7
  6
CONTINUOUS
 10
86.286892
 20
178.862876
 11
122.693532
 21
178.862876
  0
LINE
  8
1
 62
7
  6
CONTINUOUS
 10
122.693532
 20
178.862876
 11
182.804878
 21
153.528587
  0
LINE
  8
1
 62
7
  6
CONTINUOUS
 10
179.692453
 20
154.383162
 11
180.019687
 21
155.159598
  0
LINE
  8
1
 62
7
  6
CONTINUOUS
 10
180.019687
 20
155.159598
 11
182.804878
 21
153.528587
  0
LINE
  8
1
 62
7
  6
CONTINUOUS
 10
182.804878
 20
153.528587
 11
179.692453
 21
154.383162
  0
LINE
  8
1
 62
7
  6
CONTINUOUS
 10
135.395574
 20
79.993961
 11
98.238847
 21
79.993961
  0
LINE
  8
1
 62
7
  6
CONTINUOUS
 10
98.238847
 20
79.993961
 11
72.448401
 21
114.724361
  0
LINE
  8
1
 62
7
  6
CONTINUOUS
 10
74.694425
 20
112.406418
 11
74.017966
 21
111.904086
  0
LINE
  8
1
 62
7
  6
CONTINUOUS
 10
74.017966
 20
111.904086
 11
72.448401
 21
114.724361
  0
LINE
  8
1
 62
7
  6
CONTINUOUS
 10
72.448401
 20
114.724361
 11
74.694425
 21
112.406418
  0
TEXT
  8
1
 62
7
  6
CONTINUOUS
 10
98.861504
 20
73.840838
 40
4.000000
 41
0.540000
  1
ùLî°É[âT(écédéoéségüjü@éSéléhémüD
  7
KANJI
 50
0.000975
 51
0.000000
  0
TEXT
  8
1
 62
7
  6
CONTINUOUS
 10
99.761030
 20
82.519804
 40
4.000000
 41
0.900000
  1
4-M3ü~0.5
  7
KANJI
 50
0.000000
 51
0.000000
  0
TEXT
  8
1
 62
7
  6
CONTINUOUS
 10
90.630269
 20
179.571665
 40
5.000000
 41
0.720000
  1
âlü|âÇâvâîü|âg
  7
KANJI
 50
0.000000
 51
0.000000
  0
TEXT
  8
1
 62
7
  6
CONTINUOUS
 10
88.654621
 20
173.819984
 40
3.000000
 41
0.900000
  1
(NAME PLATE)
  7
KANJI
 50
0.000000
 51
0.000000
  0
LINE
  8
1
 62
7
  6
CONTINUOUS
 10
101.954740
 20
116.747379
 11
101.954740
 21
110.347379
  0
LINE
  8
1
 62
7
  6
CONTINUOUS
 10
101.954740
 20
106.797379
 11
101.954740
 21
110.347379
  0
LINE
  8
1
 62
7
  6
CONTINUOUS
 10
101.954740
 20
106.797379
 11
101.954740
 21
96.207765
  0
LINE
  8
1
 62
7
  6
CONTINUOUS
 10
68.954002
 20
106.797379
 11
103.454740
 21
106.797379
  0
LINE
  8
1
 62
7
  6
CONTINUOUS
 10
72.954002
 20
110.347379
 11
103.454740
 21
110.347379
  0
LINE
  8
1
 62
7
  6
CONTINUOUS
 10
101.954740
 20
110.347379
 11
101.538740
 21
113.547379
  0
LINE
  8
1
 62
7
  6
CONTINUOUS
 10
101.538740
 20
113.547379
 11
102.370740
 21
113.547379
  0
LINE
  8
1
 62
7
  6
CONTINUOUS
 10
102.370740
 20
113.547379
 11
101.954740
 21
110.347379
  0
LINE
  8
1
 62
7
  6
CONTINUOUS
 10
101.954740
 20
106.797379
 11
102.370740
 21
103.597379
  0
LINE
  8
1
 62
7
  6
CONTINUOUS
 10
102.370740
 20
103.597379
 11
101.538740
 21
103.597379
  0
LINE
  8
1
 62
7
  6
CONTINUOUS
 10
101.538740
 20
103.597379
 11
101.954740
 21
106.797379
  0
TEXT
  8
1
 62
7
  6
CONTINUOUS
 10
99.954740
 20
98.287765
 40
3.200000
 41
0.900000
  1
4
  7
KANJI
 50
90.000000
 51
0.000000
  0
TEXT
  8
1
 62
7
  6
CONTINUOUS
 10
99.954740
 20
96.207765
 40
3.200000
 41
0.900000
  1
(
  7
KANJI
 50
90.000000
 51
0.000000
  0
TEXT
  8
1
 62
7
  6
CONTINUOUS
 10
99.954740
 20
101.807765
 40
3.200000
 41
0.900000
  1
)
  7
KANJI
 50
90.000000
 51
0.000000
  0
LINE
  8
1
 62
7
  6
CONTINUOUS
 10
167.418332
 20
179.860015
 11
154.251508
 21
179.860015
  0
LINE
  8
1
 62
7
  6
CONTINUOUS
 10
167.418332
 20
179.860015
 11
169.418332
 21
179.860015
  0
LINE
  8
1
 62
7
  6
CONTINUOUS
 10
175.818332
 20
179.860015
 11
169.418332
 21
179.860015
  0
LINE
  8
1
 62
7
  6
CONTINUOUS
 10
169.418332
 20
152.847379
 11
169.418332
 21
181.360015
  0
LINE
  8
1
 62
7
  6
CONTINUOUS
 10
167.418332
 20
143.347379
 11
167.418332
 21
181.360015
  0
LINE
  8
1
 62
7
  6
CONTINUOUS
 10
167.418332
 20
179.860015
 11
164.218332
 21
179.444015
  0
LINE
  8
1
 62
7
  6
CONTINUOUS
 10
164.218332
 20
179.444015
 11
164.218332
 21
180.276015
  0
LINE
  8
1
 62
7
  6
CONTINUOUS
 10
164.218332
 20
180.276015
 11
167.418332
 21
179.860015
  0
LINE
  8
1
 62
7
  6
CONTINUOUS
 10
169.418332
 20
179.860015
 11
172.618332
 21
180.276015
  0
LINE
  8
1
 62
7
  6
CONTINUOUS
 10
172.618332
 20
180.276015
 11
172.618332
 21
179.444015
  0
LINE
  8
1
 62
7
  6
CONTINUOUS
 10
172.618332
 20
179.444015
 11
169.418332
 21
179.860015
  0
TEXT
  8
1
 62
7
  6
CONTINUOUS
 10
154.251508
 20
181.860015
 40
3.200000
 41
0.900000
  1
2
  7
KANJI
 50
0.000000
 51
0.000000
  0
TEXT
  8
1
 62
7
  6
CONTINUOUS
 10
157.771508
 20
182.500015
 40
1.920000
 41
0.900000
  1
ü}0.2
  7
KANJI
 50
0.000000
 51
0.000000
  0
LINE
  8
1
 62
7
  6
CONTINUOUS
 10
169.418332
 20
190.096792
 11
208.818332
 21
190.096792
  0
LINE
  8
1
 62
7
  6
CONTINUOUS
 10
208.818332
 20
152.347379
 11
208.818332
 21
191.596792
  0
LINE
  8
1
 62
7
  6
CONTINUOUS
 10
169.418332
 20
152.847379
 11
169.418332
 21
191.596792
  0
LINE
  8
1
 62
7
  6
CONTINUOUS
 10
169.418332
 20
190.096792
 11
172.618332
 21
190.512792
  0
LINE
  8
1
 62
7
  6
CONTINUOUS
 10
172.618332
 20
190.512792
 11
172.618332
 21
189.680792
  0
LINE
  8
1
 62
7
  6
CONTINUOUS
 10
172.618332
 20
189.680792
 11
169.418332
 21
190.096792
  0
LINE
  8
1
 62
7
  6
CONTINUOUS
 10
208.818332
 20
190.096792
 11
205.618332
 21
189.680792
  0
LINE
  8
1
 62
7
  6
CONTINUOUS
 10
205.618332
 20
189.680792
 11
205.618332
 21
190.512792
  0
LINE
  8
1
 62
7
  6
CONTINUOUS
 10
205.618332
 20
190.512792
 11
208.818332
 21
190.096792
  0
TEXT
  8
1
 62
7
  6
CONTINUOUS
 10
181.625837
 20
192.096792
 40
3.200000
 41
0.900000
  1
48MAX.
  7
KANJI
 50
0.000000
 51
0.000000
  0
LINE
  8
1
 62
7
  6
CONTINUOUS
 10
91.954002
 20
115.847379
 11
91.954002
 21
146.847379
  0
LINE
  8
1
 62
7
  6
CONTINUOUS
 10
74.954002
 20
115.847379
 11
92.954002
 21
115.847379
  0
LINE
  8
1
 62
7
  6
CONTINUOUS
 10
74.954002
 20
146.847379
 11
92.954002
 21
146.847379
  0
LINE
  8
1
 62
7
  6
CONTINUOUS
 10
91.954002
 20
146.847379
 11
92.370002
 21
143.647379
  0
LINE
  8
1
 62
7
  6
CONTINUOUS
 10
92.370002
 20
143.647379
 11
91.538002
 21
143.647379
  0
LINE
  8
1
 62
7
  6
CONTINUOUS
 10
91.538002
 20
143.647379
 11
91.954002
 21
146.847379
  0
LINE
  8
1
 62
7
  6
CONTINUOUS
 10
91.954002
 20
115.847379
 11
91.538002
 21
119.047379
  0
LINE
  8
1
 62
7
  6
CONTINUOUS
 10
91.538002
 20
119.047379
 11
92.370002
 21
119.047379
  0
LINE
  8
1
 62
7
  6
CONTINUOUS
 10
92.370002
 20
119.047379
 11
91.954002
 21
115.847379
  0
TEXT
  8
1
 62
7
  6
CONTINUOUS
 10
89.954002
 20
125.723379
 40
3.200000
 41
0.900000
  1
31
  7
KANJI
 50
90.000000
 51
0.000000
  0
TEXT
  8
1
 62
7
  6
CONTINUOUS
 10
89.314002
 20
131.163379
 40
1.920000
 41
0.900000
  1
ü}0.2
  7
KANJI
 50
90.000000
 51
0.000000
  0
LINE
  8
1
 62
7
  6
CONTINUOUS
 10
101.954740
 20
110.347379
 11
101.954740
 21
152.347379
  0
LINE
  8
1
 62
7
  6
CONTINUOUS
 10
72.954002
 20
110.347379
 11
102.954740
 21
110.347379
  0
LINE
  8
1
 62
7
  6
CONTINUOUS
 10
77.954102
 20
152.347379
 11
102.954740
 21
152.347379
  0
LINE
  8
1
 62
7
  6
CONTINUOUS
 10
101.954740
 20
110.347379
 11
101.538740
 21
113.547379
  0
LINE
  8
1
 62
7
  6
CONTINUOUS
 10
101.538740
 20
113.547379
 11
102.370740
 21
113.547379
  0
LINE
  8
1
 62
7
  6
CONTINUOUS
 10
102.370740
 20
113.547379
 11
101.954740
 21
110.347379
  0
LINE
  8
1
 62
7
  6
CONTINUOUS
 10
101.954740
 20
152.347379
 11
102.370740
 21
149.147379
  0
LINE
  8
1
 62
7
  6
CONTINUOUS
 10
102.370740
 20
149.147379
 11
101.538740
 21
149.147379
  0
LINE
  8
1
 62
7
  6
CONTINUOUS
 10
101.538740
 20
149.147379
 11
101.954740
 21
152.347379
  0
TEXT
  8
1
 62
7
  6
CONTINUOUS
 10
99.954740
 20
128.232381
 40
3.200000
 41
0.900000
  1
42
  7
KANJI
 50
90.000000
 51
0.000000
  0
TEXT
  8
1
 62
7
  6
CONTINUOUS
 10
99.954740
 20
126.152381
 40
3.200000
 41
0.900000
  1
(
  7
KANJI
 50
90.000000
 51
0.000000
  0
TEXT
  8
1
 62
7
  6
CONTINUOUS
 10
99.954740
 20
134.632381
 40
3.200000
 41
0.900000
  1
)
  7
KANJI
 50
90.000000
 51
0.000000
  0
LINE
  8
128
 62
7
  6
CONTINUOUS
 10
40.454012
 20
172.347379
 11
71.454002
 21
172.347379
  0
LINE
  8
128
 62
7
  6
CONTINUOUS
 10
40.454012
 20
149.347379
 11
40.454012
 21
173.347379
  0
LINE
  8
128
 62
7
  6
CONTINUOUS
 10
71.454002
 20
149.347379
 11
71.454002
 21
173.347379
  0
LINE
  8
128
 62
7
  6
CONTINUOUS
 10
40.454012
 20
172.347379
 11
43.654012
 21
172.763379
  0
LINE
  8
128
 62
7
  6
CONTINUOUS
 10
43.654012
 20
172.763379
 11
43.654012
 21
171.931379
  0
LINE
  8
128
 62
7
  6
CONTINUOUS
 10
43.654012
 20
171.931379
 11
40.454012
 21
172.347379
  0
LINE
  8
128
 62
7
  6
CONTINUOUS
 10
71.454002
 20
172.347379
 11
68.254002
 21
171.931379
  0
LINE
  8
128
 62
7
  6
CONTINUOUS
 10
68.254002
 20
171.931379
 11
68.254002
 21
172.763379
  0
LINE
  8
128
 62
7
  6
CONTINUOUS
 10
68.254002
 20
172.763379
 11
71.454002
 21
172.347379
  0
TEXT
  8
128
 62
7
  6
CONTINUOUS
 10
50.284145
 20
173.947379
 40
3.200000
 41
0.900000
  1
31
  7
KANJI
 50
0.000000
 51
0.000000
  0
TEXT
  8
128
 62
7
  6
CONTINUOUS
 10
55.724145
 20
174.587379
 40
1.920000
 41
0.900000
  1
ü}0.2
  7
KANJI
 50
0.000000
 51
0.000000
  0
LINE
  8
128
 62
7
  6
CONTINUOUS
 10
34.954000
 20
182.347379
 11
76.954002
 21
182.347379
  0
LINE
  8
128
 62
7
  6
CONTINUOUS
 10
34.954000
 20
148.347381
 11
34.954000
 21
183.347379
  0
LINE
  8
128
 62
7
  6
CONTINUOUS
 10
76.954002
 20
148.347379
 11
76.954002
 21
183.347379
  0
LINE
  8
128
 62
7
  6
CONTINUOUS
 10
34.954000
 20
182.347379
 11
38.154000
 21
182.763379
  0
LINE
  8
128
 62
7
  6
CONTINUOUS
 10
38.154000
 20
182.763379
 11
38.154000
 21
181.931379
  0
LINE
  8
128
 62
7
  6
CONTINUOUS
 10
38.154000
 20
181.931379
 11
34.954000
 21
182.347379
  0
LINE
  8
128
 62
7
  6
CONTINUOUS
 10
76.954002
 20
182.347379
 11
73.754002
 21
181.931379
  0
LINE
  8
128
 62
7
  6
CONTINUOUS
 10
73.754002
 20
181.931379
 11
73.754002
 21
182.763379
  0
LINE
  8
128
 62
7
  6
CONTINUOUS
 10
73.754002
 20
182.763379
 11
76.954002
 21
182.347379
  0
TEXT
  8
128
 62
7
  6
CONTINUOUS
 10
53.199173
 20
183.947379
 40
3.200000
 41
0.900000
  1
42
  7
KANJI
 50
0.000000
 51
0.000000
  0
TEXT
  8
128
 62
7
  6
CONTINUOUS
 10
51.119173
 20
183.947379
 40
3.200000
 41
0.900000
  1
(
  7
KANJI
 50
0.000000
 51
0.000000
  0
TEXT
  8
128
 62
7
  6
CONTINUOUS
 10
59.599173
 20
183.947379
 40
3.200000
 41
0.900000
  1
)
  7
KANJI
 50
0.000000
 51
0.000000
  0
LINE
  8
128
 62
7
  6
CONTINUOUS
 10
123.611521
 20
120.347379
 11
123.611521
 21
142.347379
  0
LINE
  8
128
 62
7
  6
CONTINUOUS
 10
166.418332
 20
142.347379
 11
122.611521
 21
142.347379
  0
LINE
  8
128
 62
7
  6
CONTINUOUS
 10
166.418232
 20
120.347379
 11
122.611521
 21
120.347379
  0
LINE
  8
128
 62
7
  6
CONTINUOUS
 10
123.611521
 20
142.347379
 11
124.027521
 21
139.147379
  0
LINE
  8
128
 62
7
  6
CONTINUOUS
 10
124.027521
 20
139.147379
 11
123.195521
 21
139.147379
  0
LINE
  8
128
 62
7
  6
CONTINUOUS
 10
123.195521
 20
139.147379
 11
123.611521
 21
142.347379
  0
LINE
  8
128
 62
7
  6
CONTINUOUS
 10
123.611521
 20
120.347379
 11
123.195521
 21
123.547379
  0
LINE
  8
128
 62
7
  6
CONTINUOUS
 10
123.195521
 20
123.547379
 11
124.027521
 21
123.547379
  0
LINE
  8
128
 62
7
  6
CONTINUOUS
 10
124.027521
 20
123.547379
 11
123.611521
 21
120.347379
  0
TEXT
  8
128
 62
7
  6
CONTINUOUS
 10
121.211521
 20
126.978649
 40
3.200000
 41
0.900000
  1
22
  7
KANJI
 50
90.000000
 51
0.000000
  0
TEXT
  8
128
 62
7
  6
CONTINUOUS
 10
119.131521
 20
134.914649
 40
1.920000
 41
0.900000
  1
0
  7
KANJI
 50
90.000000
 51
0.000000
  0
TEXT
  8
128
 62
7
  6
CONTINUOUS
 10
122.011521
 20
133.378649
 40
1.920000
 41
0.900000
  1
-0.05
  7
KANJI
 50
90.000000
 51
0.000000
  0
TEXT
  8
128
 62
7
  6
CONTINUOUS
 10
121.211521
 20
123.138649
 40
3.200000
 41
0.900000
  1
âË
  7
KANJI
 50
90.000000
 51
0.000000
  0
LINE
  8
1
 62
7
  6
CONTINUOUS
 10
145.418332
 20
190.096792
 11
169.418332
 21
190.096792
  0
LINE
  8
1
 62
7
  6
CONTINUOUS
 10
169.418332
 20
152.847379
 11
169.418332
 21
191.596792
  0
LINE
  8
1
 62
7
  6
CONTINUOUS
 10
145.418332
 20
134.847379
 11
145.418332
 21
191.596792
  0
LINE
  8
1
 62
7
  6
CONTINUOUS
 10
169.418332
 20
190.096792
 11
166.218332
 21
189.680792
  0
LINE
  8
1
 62
7
  6
CONTINUOUS
 10
166.218332
 20
189.680792
 11
166.218332
 21
190.512792
  0
LINE
  8
1
 62
7
  6
CONTINUOUS
 10
166.218332
 20
190.512792
 11
169.418332
 21
190.096792
  0
LINE
  8
1
 62
7
  6
CONTINUOUS
 10
145.418332
 20
190.096792
 11
148.618332
 21
190.512792
  0
LINE
  8
1
 62
7
  6
CONTINUOUS
 10
148.618332
 20
190.512792
 11
148.618332
 21
189.680792
  0
LINE
  8
1
 62
7
  6
CONTINUOUS
 10
148.618332
 20
189.680792
 11
145.418332
 21
190.096792
  0
TEXT
  8
1
 62
7
  6
CONTINUOUS
 10
151.583095
 20
192.096792
 40
3.200000
 41
0.900000
  1
24
  7
KANJI
 50
0.000000
 51
0.000000
  0
TEXT
  8
1
 62
7
  6
CONTINUOUS
 10
157.983095
 20
192.736792
 40
1.920000
 41
0.900000
  1
ü}0.5
  7
KANJI
 50
0.000000
 51
0.000000
  0
LINE
  8
1
 62
7
  6
CONTINUOUS
 10
134.741981
 20
133.847379
 11
134.741981
 21
140.247379
  0
LINE
  8
1
 62
7
  6
CONTINUOUS
 10
134.741981
 20
128.847379
 11
134.741981
 21
122.447379
  0
LINE
  8
1
 62
7
  6
CONTINUOUS
 10
134.741981
 20
128.847379
 11
134.741981
 21
133.847379
  0
LINE
  8
1
 62
7
  6
CONTINUOUS
 10
144.418332
 20
133.847379
 11
133.241981
 21
133.847379
  0
LINE
  8
1
 62
7
  6
CONTINUOUS
 10
144.418332
 20
128.847379
 11
133.241981
 21
128.847379
  0
LINE
  8
1
 62
7
  6
CONTINUOUS
 10
134.741981
 20
133.847379
 11
134.325981
 21
137.047379
  0
LINE
  8
1
 62
7
  6
CONTINUOUS
 10
134.325981
 20
137.047379
 11
135.157981
 21
137.047379
  0
LINE
  8
1
 62
7
  6
CONTINUOUS
 10
135.157981
 20
137.047379
 11
134.741981
 21
133.847379
  0
LINE
  8
1
 62
7
  6
CONTINUOUS
 10
134.741981
 20
128.847379
 11
135.157981
 21
125.647379
  0
LINE
  8
1
 62
7
  6
CONTINUOUS
 10
135.157981
 20
125.647379
 11
134.325981
 21
125.647379
  0
LINE
  8
1
 62
7
  6
CONTINUOUS
 10
134.325981
 20
125.647379
 11
134.741981
 21
128.847379
  0
TEXT
  8
1
 62
7
  6
CONTINUOUS
 10
131.941981
 20
127.105333
 40
3.200000
 41
0.900000
  1
5
  7
KANJI
 50
90.000000
 51
0.000000
  0
TEXT
  8
1
 62
7
  6
CONTINUOUS
 10
129.861981
 20
132.161333
 40
1.920000
 41
0.900000
  1
0
  7
KANJI
 50
90.000000
 51
0.000000
  0
TEXT
  8
1
 62
7
  6
CONTINUOUS
 10
132.741981
 20
130.625333
 40
1.920000
 41
0.900000
  1
-0.011
  7
KANJI
 50
90.000000
 51
0.000000
  0
TEXT
  8
1
 62
7
  6
CONTINUOUS
 10
131.941981
 20
123.460889
 40
3.200000
 41
0.900000
  1
âË
  7
KANJI
 50
90.000000
 51
0.000000
  0
LINE
  8
1
 62
7
  6
CONTINUOUS
 10
227.319664
 20
55.983898
 11
227.319664
 21
110.347390
  0
LINE
  8
1
 62
7
  6
CONTINUOUS
 10
198.818332
 20
110.347390
 11
228.819664
 21
110.347390
  0
LINE
  8
1
 62
7
  6
CONTINUOUS
 10
202.520000
 20
55.983898
 11
228.819664
 21
55.983898
  0
LINE
  8
1
 62
7
  6
CONTINUOUS
 10
227.319664
 20
110.347390
 11
227.735664
 21
107.147390
  0
LINE
  8
1
 62
7
  6
CONTINUOUS
 10
227.735664
 20
107.147390
 11
226.903664
 21
107.147390
  0
LINE
  8
1
 62
7
  6
CONTINUOUS
 10
226.903664
 20
107.147390
 11
227.319664
 21
110.347390
  0
LINE
  8
1
 62
7
  6
CONTINUOUS
 10
227.319664
 20
55.983898
 11
226.903664
 21
59.183898
  0
LINE
  8
1
 62
7
  6
CONTINUOUS
 10
226.903664
 20
59.183898
 11
227.735664
 21
59.183898
  0
LINE
  8
1
 62
7
  6
CONTINUOUS
 10
227.735664
 20
59.183898
 11
227.319664
 21
55.983898
  0
TEXT
  8
1
 62
7
  6
CONTINUOUS
 10
224.519664
 20
78.330659
 40
3.200000
 41
0.900000
  1
300
  7
KANJI
 50
90.000000
 51
0.000000
  0
TEXT
  8
1
 62
7
  6
CONTINUOUS
 10
222.439664
 20
87.610659
 40
1.920000
 41
0.900000
  1
+40
  7
KANJI
 50
90.000000
 51
0.000000
  0
TEXT
  8
1
 62
7
  6
CONTINUOUS
 10
225.319664
 20
90.874659
 40
1.920000
 41
0.900000
  1
0
  7
KANJI
 50
90.000000
 51
0.000000
  0
LINE
  8
1
 62
7
  6
CONTINUOUS
 10
216.371308
 20
60.983898
 11
216.371308
 21
71.996594
  0
LINE
  8
1
 62
7
  6
CONTINUOUS
 10
216.371308
 20
55.983898
 11
216.371308
 21
60.983898
  0
LINE
  8
1
 62
7
  6
CONTINUOUS
 10
216.371308
 20
49.583898
 11
216.371308
 21
55.983898
  0
LINE
  8
1
 62
7
  6
CONTINUOUS
 10
204.020000
 20
60.983898
 11
217.871308
 21
60.983898
  0
LINE
  8
1
 62
7
  6
CONTINUOUS
 10
203.520000
 20
55.983898
 11
217.871308
 21
55.983898
  0
LINE
  8
1
 62
7
  6
CONTINUOUS
 10
216.371308
 20
60.983898
 11
215.955308
 21
64.183898
  0
LINE
  8
1
 62
7
  6
CONTINUOUS
 10
215.955308
 20
64.183898
 11
216.787308
 21
64.183898
  0
LINE
  8
1
 62
7
  6
CONTINUOUS
 10
216.787308
 20
64.183898
 11
216.371308
 21
60.983898
  0
LINE
  8
1
 62
7
  6
CONTINUOUS
 10
216.371308
 20
55.983898
 11
216.787308
 21
52.783898
  0
LINE
  8
1
 62
7
  6
CONTINUOUS
 10
216.787308
 20
52.783898
 11
215.955308
 21
52.783898
  0
LINE
  8
1
 62
7
  6
CONTINUOUS
 10
215.955308
 20
52.783898
 11
216.371308
 21
55.983898
  0
TEXT
  8
1
 62
7
  6
CONTINUOUS
 10
214.371308
 20
67.996594
 40
3.200000
 41
0.900000
  1
5
  7
KANJI
 50
90.000000
 51
0.000000
  0
TEXT
  8
1
 62
7
  6
CONTINUOUS
 10
214.371308
 20
65.916594
 40
3.200000
 41
0.900000
  1
(
  7
KANJI
 50
90.000000
 51
0.000000
  0
TEXT
  8
1
 62
7
  6
CONTINUOUS
 10
214.371308
 20
71.516594
 40
3.200000
 41
0.900000
  1
)
  7
KANJI
 50
90.000000
 51
0.000000
  0
LINE
  8
1
 62
7
  6
CONTINUOUS
 10
189.610801
 20
154.957991
 11
183.610801
 21
154.957991
  0
LINE
  8
1
 62
7
  6
CONTINUOUS
 10
183.610801
 20
160.957991
 11
189.610801
 21
160.957991
  0
LINE
  8
1
 62
7
  6
CONTINUOUS
 10
184.110801
 20
157.957991
 11
186.610801
 21
156.457991
  0
LINE
  8
1
 62
7
  6
CONTINUOUS
 10
189.110801
 20
157.957991
 11
184.110801
 21
157.957991
  0
LINE
  8
1
 62
7
  6
CONTINUOUS
 10
186.610801
 20
156.457991
 11
186.610801
 21
158.957991
  0
LINE
  8
1
 62
7
  6
CONTINUOUS
 10
183.610801
 20
180.957991
 11
189.610801
 21
180.957991
  0
LINE
  8
1
 62
7
  6
CONTINUOUS
 10
183.610801
 20
154.957991
 11
183.610801
 21
180.957991
  0
LINE
  8
1
 62
7
  6
CONTINUOUS
 10
189.610801
 20
180.957991
 11
189.610801
 21
154.957991
  0
TEXT
  8
1
 62
7
  6
CONTINUOUS
 10
188.610801
 20
162.004737
 40
4.000000
 41
0.900000
  1
òÂÄÜâmî³âL
  7
KANJI
 50
90.000000
 51
0.000000
  0
TEXT
  8
1
 62
7
  6
CONTINUOUS
 10
194.184732
 20
160.695361
 40
2.000000
 41
0.900000
  1
DIRECTION
  7
KANJI
 50
90.000000
 51
0.000000
  0
TEXT
  8
1
 62
7
  6
CONTINUOUS
 10
197.184732
 20
160.695361
 40
2.000000
 41
0.900000
  1
OF LETTER
  7
KANJI
 50
90.000000
 51
0.000000
  0
TEXT
  8
1
 62
7
  6
CONTINUOUS
 10
197.104379
 20
157.178280
 40
5.000000
 41
0.900000
  1
(   )
  7
KANJI
 50
90.000000
 51
0.000000
  0
ENDSEC
  0
EOF
