  0
SECTION
  2
HEADER
  9
$ACADVER
  1
AC1003
  9
$INSBASE
 10
0.000000
 20
0.000000
  9
$EXTMIN
 10
0.000000
 20
0.000000
  9
$EXTMAX
 10
420.000000
 20
297.000000
  9
$LIMMIN
 10
0.000000
 20
0.000000
  9
$LIMMAX
 10
420.000000
 20
297.000000
  9
$VIEWCTR
 10
210.000000
 20
148.500000
  9
$VIEWSIZE
 40
297.000000
  9
$PEXTMIN
 10
0.000000
 20
0.000000
 30
0.000000
  9
$PEXTMAX
 10
420.000000
 20
297.000000
 30
0.000000
  9
$SNAPMODE
 70
     0
  9
$SNAPUNIT
 10
1.000000
 20
1.000000
  9
$SNAPBASE
 10
0.000000
 20
0.000000
  9
$SNAPANG
 50
0.000000
  9
$SNAPISOPAIR
 70
     0
  9
$SNAPSTYLE
 70
     0
  9
$GRIDMODE
 70
     0
  9
$GRIDUNIT
 10
0.000000
 20
0.000000
  9
$ORTHOMODE
 70
     0
  9
$REGENMODE
 70
     1
  9
$FILLMODE
 70
     1
  9
$QTEXTMODE
 70
     0
  9
$DRAGMODE
 70
     2
  9
$LTSCALE
 40
0.250000
  9
$OSMODE
 70
     0
  9
$ATTMODE
 70
     1
  9
$TEXTSIZE
 40
0.200000
  9
$TRACEWID
 40
0.050000
  9
$TEXTSTYLE
  7
STANDARD
  9
$CLAYER
  8
0
  9
$CELTYPE
  6
BYLAYER
  9
$CECOLOR
 62
   256
  9
$DIMSCALE
 40
1.000000
  9
$DIMASZ
 40
1.000000
  9
$DIMEXO
 40
0.000000
  9
$DIMDLI
 40
0.500000
  9
$DIMRND
 40
0.000000
  9
$DIMDLE
 40
0.000000
  9
$DIMEXE
 40
0.000000
  9
$DIMTP
 40
0.000000
  9
$DIMTM
 40
0.000000
  9
$DIMTXT
 40
0.180000
  9
$DIMCEN
 40
0.000000
  9
$DIMTSZ
 40
0.000000
  9
$DIMTOL
 70
     0
  9
$DIMLIM
 70
     0
  9
$DIMTIH
 70
     1
  9
$DIMTOH
 70
     1
  9
$DIMSE1
 70
     0
  9
$DIMSE2
 70
     0
  9
$DIMTAD
 70
     0
  9
$DIMZIN
 70
     0
  9
$DIMBLK
  1

  9
$DIMASO
 70
     0
  9
$DIMSHO
 70
     0
  9
$DIMPOST
  1

  9
$DIMAPOST
  1

  9
$DIMALT
 70
     0
  9
$DIMALTD
 70
     0
  9
$DIMALTF
 40
25.400000
  9
$DIMLFAC
 40
1.000000
  9
$DIMTOFL
 70
     0
  9
$DIMTVP
 40
0.000000
  9
$DIMTIX
 70
     0
  9
$DIMSOXD
 70
     0
  9
$DIMSAH
 70
     0
  9
$DIMBLKL
  1

  9
$DIMBLKR
  1

  9
$LUNITS
 70
     2
  9
$LUPREC
 70
     2
  9
$AXISMODE
 70
     0
  9
$AXISUNIT
 10
1.000000
 20
1.000000
  9
$SKETCHINC
 40
0.000000
  9
$FILLETRAD
 40
0.000000
  9
$AUNITS
 70
     1
  9
$AUPREC
 70
     2
  9
$MENU
  1
ACAD
  9
$ELEVATION
 40
0.000000
  9
$THICKNESS
 40
0.000000
  9
$VIEWDIR
 10
0.000000
 20
0.000000
 30
1.000000
  9
$LIMCHECK
 70
     1
  9
$BLIPMODE
 70
     1
  9
$CHAMFERA
 40
0.000000
  9
$CHAMFERB
 40
0.000000
  9
$FASTZOOM
 70
     1
  9
$SKPOLY
 70
     0
  9
$TDCREATE
 40
0.000000
  9
$TDUPDATE
 40
0.000000
  9
$TDINDWG
 40
0.000000
  9
$TDUSRTIMER
 40
0.000000
  9
$USRTIMER
 70
     1
  9
$ANGBASE
 50
0.000000
  9
$ANGDIR
 70
     0
  9
$PDMODE
 70
     0
  9
$PDSIZE
 40
0.000000
  9
$PLINEWID
 40
0.000000
  9
$COORDS
 70
     2
  9
$USERI1
 70
     0
  9
$USERI2
 70
     0
  9
$USERI3
 70
     0
  9
$USERI4
 70
     0
  9
$USERI5
 70
     0
  9
$USERR1
 40
0.000000
  9
$USERR2
 40
0.000000
  9
$USERR3
 40
0.000000
  9
$USERR4
 40
0.000000
  9
$USERR5
 40
0.000000
  0
ENDSEC
  0
SECTION
  2
TABLES
  0
TABLE
  2
LTYPE
 70
     5
  0
LTYPE
  2
CONTINUOUS
 70
    64
  3
Solid line
 72
    65
 73
     0
 40
0.0
  0
LTYPE
  2
HIDDEN
 70
    64
  3
------------------------
 72
    65
 73
     2
 40
12.6
 49
8.4
 49
-4.2
  0
LTYPE
  2
DOT
 70
    64
  3
････････････････････････
 72
    65
 73
     2
 40
8.0
 49
6.0
 49
-2.0
  0
LTYPE
  2
DASHDOT
 70
    64
  3
--･--･--･--･--･--･--･--
 72
    65
 73
     4
 40
50.5
 49
30.0
 49
-9.0
 49
2.5
 49
-9.0
  0
LTYPE
  2
DIVIDE
 70
    64
  3
--･･--･･--･･--･･--･･--
 72
    65
 73
     6
 40
58.0
 49
30.0
 49
-9.0
 49
2.5
 49
-5.0
 49
2.5
 49
-9.0
  0
ENDTAB
  0
TABLE
  2
LAYER
 70
4
  0
LAYER
  2
1
 70
64
 62
7
  6
CONTINUOUS
  0
LAYER
  2
2
 70
64
 62
134
  6
CONTINUOUS
  0
LAYER
  2
4
 70
64
 62
54
  6
CONTINUOUS
  0
LAYER
  2
128
 70
64
 62
7
  6
CONTINUOUS
  0
ENDTAB
  0
TABLE
  2
STYLE
 70
     2
  0
STYLE
  2
STANDARD
 70
    64
 40
0.0
 41
1.0
 50
0.0
 71
     0
 42
0.2
  3
TXT
  4

  0
STYLE
  2
KANJI
 70
    64
 40
0.0
 41
1.0
 50
0.0
 71
     0
 42
0.2
  3
TXT
  4
BIGFONT
  0
ENDTAB
  0
TABLE
  2
VIEW
 70
     0
  0
ENDTAB
  0
ENDSEC
  0
SECTION
  2
BLOCKS
  0
ENDSEC
  0
SECTION
  2
ENTITIES
  0
LINE
  8
1
 62
7
  6
CONTINUOUS
 10
171.000000
 20
122.147050
 11
171.000000
 21
125.834553
  0
LINE
  8
1
 62
7
  6
CONTINUOUS
 10
172.000000
 20
120.710586
 11
172.000000
 21
125.834553
  0
LINE
  8
1
 62
7
  6
CONTINUOUS
 10
173.000000
 20
119.274122
 11
173.000000
 21
125.834553
  0
LINE
  8
1
 62
7
  6
CONTINUOUS
 10
174.000000
 20
117.837658
 11
174.000000
 21
125.834553
  0
LINE
  8
1
 62
7
  6
CONTINUOUS
 10
175.000000
 20
116.401194
 11
175.000000
 21
125.834553
  0
LINE
  8
1
 62
7
  6
CONTINUOUS
 10
176.000000
 20
114.964729
 11
176.000000
 21
125.834553
  0
LINE
  8
1
 62
7
  6
CONTINUOUS
 10
177.000000
 20
113.528265
 11
177.000000
 21
125.834553
  0
LINE
  8
1
 62
7
  6
CONTINUOUS
 10
178.000000
 20
112.091801
 11
178.000000
 21
119.834553
  0
LINE
  8
1
 62
7
  6
CONTINUOUS
 10
179.000000
 20
110.655337
 11
179.000000
 21
119.834553
  0
LINE
  8
1
 62
7
  6
CONTINUOUS
 10
168.000000
 20
89.834575
 11
168.000000
 21
99.218837
  0
LINE
  8
1
 62
7
  6
CONTINUOUS
 10
169.000000
 20
89.834625
 11
169.000000
 21
97.782383
  0
LINE
  8
1
 62
7
  6
CONTINUOUS
 10
170.000000
 20
83.834553
 11
170.000000
 21
96.345930
  0
LINE
  8
1
 62
7
  6
CONTINUOUS
 10
171.000000
 20
83.834553
 11
171.000000
 21
94.909476
  0
LINE
  8
1
 62
7
  6
CONTINUOUS
 10
172.000000
 20
83.834553
 11
172.000000
 21
93.473023
  0
LINE
  8
1
 62
7
  6
CONTINUOUS
 10
173.000000
 20
83.834553
 11
173.000000
 21
92.036569
  0
LINE
  8
1
 62
7
  6
CONTINUOUS
 10
174.000000
 20
83.834553
 11
174.000000
 21
90.600116
  0
LINE
  8
1
 62
7
  6
CONTINUOUS
 10
175.000000
 20
83.834553
 11
175.000000
 21
89.163662
  0
LINE
  8
1
 62
7
  6
CONTINUOUS
 10
176.000000
 20
83.834553
 11
176.000000
 21
87.727209
  0
CIRCLE
  8
1
 62
7
  6
DIVIDE
 10
49.993915
 20
104.834553
 40
0.500000
  0
CIRCLE
  8
1
 62
7
  6
DIVIDE
 10
49.993915
 20
104.834553
 40
0.250000
  0
LINE
  8
1
 62
7
  6
CONTINUOUS
 10
133.671417
 20
107.334553
 11
155.671382
 21
107.334553
  0
LINE
  8
1
 62
7
  6
CONTINUOUS
 10
133.671417
 20
102.334553
 11
155.671360
 21
102.334553
  0
LINE
  8
1
 62
7
  6
CONTINUOUS
 10
131.903803
 20
31.655043
 11
145.033799
 21
31.655043
  0
LINE
  8
1
 62
7
  6
CONTINUOUS
 10
131.903803
 20
32.695043
 11
145.033799
 21
32.695043
  0
LINE
  8
1
 62
7
  6
CONTINUOUS
 10
131.903803
 20
33.735043
 11
145.033799
 21
33.735043
  0
LINE
  8
1
 62
7
  6
CONTINUOUS
 10
131.903803
 20
34.775043
 11
145.033799
 21
34.775043
  0
LINE
  8
1
 62
7
  6
CONTINUOUS
 10
130.925405
 20
33.735043
 11
106.144887
 21
33.735043
  0
LINE
  8
1
 62
7
  6
CONTINUOUS
 10
130.925405
 20
32.695043
 11
106.144887
 21
32.695043
  0
LINE
  8
1
 62
7
  6
CONTINUOUS
 10
106.144887
 20
31.655043
 11
130.925405
 21
31.655043
  0
LINE
  8
1
 62
7
  6
CONTINUOUS
 10
106.144887
 20
34.775043
 11
130.925405
 21
34.775043
  0
LINE
  8
1
 62
7
  6
CONTINUOUS
 10
130.600405
 20
33.735043
 11
111.013595
 21
33.735043
  0
LINE
  8
1
 62
7
  6
CONTINUOUS
 10
111.013595
 20
32.695043
 11
130.600405
 21
32.695043
  0
LINE
  8
1
 62
7
  6
CONTINUOUS
 10
153.281541
 20
40.255043
 11
145.033799
 21
34.775043
  0
LINE
  8
1
 62
7
  6
CONTINUOUS
 10
153.281541
 20
40.255043
 11
156.531541
 21
40.255043
  0
LINE
  8
1
 62
7
  6
CONTINUOUS
 10
145.033799
 20
33.735043
 11
153.281541
 21
39.215043
  0
LINE
  8
1
 62
7
  6
CONTINUOUS
 10
153.281541
 20
39.215043
 11
156.531541
 21
39.215043
  0
LINE
  8
1
 62
7
  6
CONTINUOUS
 10
145.033799
 20
33.735043
 11
153.281541
 21
36.255043
  0
LINE
  8
1
 62
7
  6
CONTINUOUS
 10
153.281541
 20
36.255043
 11
156.531541
 21
36.255043
  0
LINE
  8
1
 62
7
  6
CONTINUOUS
 10
145.033799
 20
32.695043
 11
153.281541
 21
35.215043
  0
LINE
  8
1
 62
7
  6
CONTINUOUS
 10
153.281541
 20
35.215043
 11
156.531541
 21
35.215043
  0
LINE
  8
1
 62
7
  6
CONTINUOUS
 10
145.033799
 20
32.695043
 11
153.281541
 21
28.255043
  0
LINE
  8
1
 62
7
  6
CONTINUOUS
 10
153.281541
 20
28.255043
 11
156.531541
 21
28.255043
  0
LINE
  8
1
 62
7
  6
CONTINUOUS
 10
145.033799
 20
31.655043
 11
153.281541
 21
27.215043
  0
LINE
  8
1
 62
7
  6
CONTINUOUS
 10
153.281541
 20
27.215043
 11
156.531541
 21
27.215043
  0
LINE
  8
1
 62
7
  6
CONTINUOUS
 10
198.644623
 20
17.011744
 11
165.001372
 21
17.011744
  0
LINE
  8
2
 62
134
  6
CONTINUOUS
 10
203.316351
 20
104.834553
 11
128.214471
 21
104.834553
  0
LINE
  8
1
 62
7
  6
CONTINUOUS
 10
43.493915
 20
80.984553
 11
43.493915
 21
83.834553
  0
LINE
  8
1
 62
7
  6
CONTINUOUS
 10
42.693915
 20
80.984553
 11
43.493915
 21
80.984553
  0
LINE
  8
1
 62
7
  6
CONTINUOUS
 10
42.693915
 20
83.834553
 11
42.693915
 21
80.984553
  0
LINE
  8
1
 62
7
  6
CONTINUOUS
 10
57.293915
 20
80.984553
 11
57.293915
 21
83.834553
  0
LINE
  8
1
 62
7
  6
CONTINUOUS
 10
56.493915
 20
80.984553
 11
57.293915
 21
80.984553
  0
LINE
  8
1
 62
7
  6
CONTINUOUS
 10
56.493915
 20
83.834553
 11
56.493915
 21
80.984553
  0
LINE
  8
1
 62
7
  6
CONTINUOUS
 10
44.993915
 20
83.224553
 11
44.993915
 21
78.984553
  0
LINE
  8
1
 62
7
  6
CONTINUOUS
 10
54.993915
 20
83.224553
 11
54.993915
 21
78.984553
  0
LINE
  8
1
 62
7
  6
CONTINUOUS
 10
44.993915
 20
83.224553
 11
54.993915
 21
83.224553
  0
LINE
  8
1
 62
7
  6
CONTINUOUS
 10
41.993915
 20
78.984553
 11
57.993915
 21
78.984553
  0
LINE
  8
1
 62
7
  6
CONTINUOUS
 10
41.993915
 20
79.984553
 11
39.435625
 21
79.984553
  0
LINE
  8
1
 62
7
  6
CONTINUOUS
 10
57.993915
 20
83.834553
 11
57.993915
 21
78.984553
  0
LINE
  8
1
 62
7
  6
CONTINUOUS
 10
41.993915
 20
83.834553
 11
41.993915
 21
78.984553
  0
LINE
  8
2
 62
134
  6
CONTINUOUS
 10
49.993915
 20
77.276809
 11
49.993915
 21
129.834553
  0
LINE
  8
2
 62
134
  6
CONTINUOUS
 10
23.072435
 20
104.834553
 11
76.493415
 21
104.834553
  0
LINE
  8
2
 62
134
  6
CONTINUOUS
 10
62.993915
 20
120.334553
 11
67.993915
 21
120.334553
  0
LINE
  8
2
 62
134
  6
CONTINUOUS
 10
65.493915
 20
117.834553
 11
65.493915
 21
122.834553
  0
LINE
  8
2
 62
134
  6
CONTINUOUS
 10
34.493925
 20
117.834553
 11
34.493925
 21
122.834553
  0
LINE
  8
2
 62
134
  6
CONTINUOUS
 10
36.993915
 20
120.334553
 11
31.993915
 21
120.334553
  0
LINE
  8
2
 62
134
  6
CONTINUOUS
 10
36.993915
 20
89.334553
 11
31.993915
 21
89.334553
  0
LINE
  8
2
 62
134
  6
CONTINUOUS
 10
34.493905
 20
91.834553
 11
34.493905
 21
86.834553
  0
LINE
  8
2
 62
134
  6
CONTINUOUS
 10
65.493915
 20
91.834553
 11
65.493915
 21
86.834553
  0
LINE
  8
2
 62
134
  6
CONTINUOUS
 10
62.993915
 20
89.334553
 11
67.993915
 21
89.334553
  0
LINE
  8
1
 62
7
  6
CONTINUOUS
 10
158.171417
 20
125.834553
 11
157.671417
 21
125.141753
  0
LINE
  8
1
 62
7
  6
CONTINUOUS
 10
168.121430
 20
126.834553
 11
179.430292
 21
126.834553
  0
LINE
  8
1
 62
7
  6
CONTINUOUS
 10
70.993915
 20
114.834553
 11
64.993921
 21
114.834553
  0
LINE
  8
1
 62
7
  6
CONTINUOUS
 10
59.993915
 20
125.834553
 11
59.993915
 21
119.834566
  0
LINE
  8
1
 62
7
  6
CONTINUOUS
 10
39.993915
 20
125.834553
 11
39.993915
 21
119.834553
  0
LINE
  8
1
 62
7
  6
CONTINUOUS
 10
28.993915
 20
114.834553
 11
34.993921
 21
114.834553
  0
LINE
  8
1
 62
7
  6
CONTINUOUS
 10
28.993905
 20
94.834553
 11
34.993911
 21
94.834553
  0
LINE
  8
1
 62
7
  6
CONTINUOUS
 10
39.993905
 20
83.834553
 11
39.993905
 21
89.834553
  0
LINE
  8
1
 62
7
  6
CONTINUOUS
 10
59.993915
 20
83.834553
 11
59.993915
 21
89.834566
  0
LINE
  8
1
 62
7
  6
CONTINUOUS
 10
70.993915
 20
94.834553
 11
64.993921
 21
94.834553
  0
LINE
  8
1
 62
7
  6
CONTINUOUS
 10
66.964515
 20
125.834553
 11
33.023365
 21
125.834553
  0
LINE
  8
1
 62
7
  6
CONTINUOUS
 10
70.993915
 20
87.863953
 11
70.993915
 21
121.805153
  0
LINE
  8
1
 62
7
  6
CONTINUOUS
 10
66.964415
 20
83.834553
 11
33.023345
 21
83.834553
  0
LINE
  8
1
 62
7
  6
CONTINUOUS
 10
28.993905
 20
87.863953
 11
28.993915
 21
121.805153
  0
LINE
  8
1
 62
7
  6
CONTINUOUS
 10
158.171417
 20
83.834553
 11
157.671417
 21
84.527353
  0
LINE
  8
1
 62
7
  6
CONTINUOUS
 10
155.671421
 20
115.834553
 11
157.671417
 21
115.834553
  0
LINE
  8
1
 62
7
  6
CONTINUOUS
 10
155.671321
 20
93.834553
 11
157.671417
 21
93.834553
  0
LINE
  8
1
 62
7
  6
CONTINUOUS
 10
155.671321
 20
93.834553
 11
155.671421
 21
115.834553
  0
LINE
  8
1
 62
7
  6
CONTINUOUS
 10
158.171417
 20
125.834553
 11
158.171417
 21
83.834553
  0
LINE
  8
1
 62
7
  6
CONTINUOUS
 10
169.571430
 20
119.834553
 11
169.571430
 21
125.834553
  0
LINE
  8
1
 62
7
  6
CONTINUOUS
 10
167.571430
 20
119.834553
 11
169.571430
 21
119.834553
  0
LINE
  8
1
 62
7
  6
CONTINUOUS
 10
177.571392
 20
119.834553
 11
177.571392
 21
125.834553
  0
LINE
  8
1
 62
7
  6
CONTINUOUS
 10
177.571392
 20
119.834553
 11
179.571392
 21
119.834553
  0
LINE
  8
1
 62
7
  6
CONTINUOUS
 10
167.571430
 20
119.834553
 11
167.571330
 21
89.834553
  0
LINE
  8
1
 62
7
  6
CONTINUOUS
 10
167.571330
 20
89.834553
 11
169.571430
 21
89.834653
  0
LINE
  8
1
 62
7
  6
CONTINUOUS
 10
169.571430
 20
89.834653
 11
169.571330
 21
83.834553
  0
LINE
  8
1
 62
7
  6
CONTINUOUS
 10
179.571392
 20
119.834553
 11
179.571392
 21
89.834553
  0
LINE
  8
1
 62
7
  6
CONTINUOUS
 10
179.571392
 20
89.834553
 11
177.571392
 21
89.834553
  0
LINE
  8
1
 62
7
  6
CONTINUOUS
 10
177.571392
 20
89.834553
 11
177.571392
 21
83.834553
  0
LINE
  8
1
 62
7
  6
CONTINUOUS
 10
157.671417
 20
114.834553
 11
158.171417
 21
114.834553
  0
LINE
  8
1
 62
7
  6
CONTINUOUS
 10
157.671417
 20
114.834553
 11
157.671417
 21
125.141753
  0
LINE
  8
1
 62
7
  6
CONTINUOUS
 10
157.671417
 20
94.834553
 11
158.171417
 21
94.834553
  0
LINE
  8
1
 62
7
  6
CONTINUOUS
 10
157.671417
 20
94.834553
 11
157.671417
 21
84.527353
  0
LINE
  8
1
 62
7
  6
CONTINUOUS
 10
190.271396
 20
125.834553
 11
158.171417
 21
125.834553
  0
LINE
  8
1
 62
7
  6
CONTINUOUS
 10
191.271396
 20
124.834553
 11
191.271381
 21
80.984538
  0
LINE
  8
1
 62
7
  6
CONTINUOUS
 10
158.171417
 20
83.834553
 11
179.571392
 21
83.834553
  0
LINE
  8
1
 62
7
  6
CONTINUOUS
 10
179.571392
 20
83.834553
 11
179.571392
 21
79.984553
  0
LINE
  8
1
 62
7
  6
CONTINUOUS
 10
179.571392
 20
79.984553
 11
190.271382
 21
79.984553
  0
LINE
  8
1
 62
7
  6
CONTINUOUS
 10
60.552206
 20
79.984553
 11
57.993915
 21
79.984553
  0
LINE
  8
1
 62
7
  6
CONTINUOUS
 10
156.031541
 20
27.135043
 11
156.531541
 21
27.135043
  0
LINE
  8
1
 62
7
  6
CONTINUOUS
 10
156.031541
 20
40.335043
 11
156.531541
 21
40.335043
  0
LINE
  8
1
 62
7
  6
CONTINUOUS
 10
158.731541
 20
37.335043
 11
158.731541
 21
30.135043
  0
LINE
  8
1
 62
7
  6
CONTINUOUS
 10
156.531541
 20
29.135043
 11
162.881541
 21
29.135043
  0
LINE
  8
1
 62
7
  6
CONTINUOUS
 10
157.231541
 20
30.135043
 11
162.881541
 21
30.135043
  0
LINE
  8
1
 62
7
  6
CONTINUOUS
 10
157.231541
 20
37.335043
 11
157.231541
 21
30.135043
  0
LINE
  8
1
 62
7
  6
CONTINUOUS
 10
162.881541
 20
37.335043
 11
157.231541
 21
37.335043
  0
LINE
  8
1
 62
7
  6
CONTINUOUS
 10
156.531541
 20
38.335043
 11
162.881541
 21
38.335043
  0
LINE
  8
1
 62
7
  6
CONTINUOUS
 10
156.031541
 20
25.785043
 11
156.031541
 21
27.135043
  0
LINE
  8
1
 62
7
  6
CONTINUOUS
 10
156.531541
 20
25.785043
 11
156.031541
 21
25.785043
  0
LINE
  8
1
 62
7
  6
CONTINUOUS
 10
156.031541
 20
41.685043
 11
156.531541
 21
41.685043
  0
LINE
  8
1
 62
7
  6
CONTINUOUS
 10
156.031541
 20
40.335043
 11
156.031541
 21
41.685043
  0
LINE
  8
1
 62
7
  6
CONTINUOUS
 10
156.031541
 20
38.335043
 11
156.531541
 21
38.335043
  0
LINE
  8
1
 62
7
  6
CONTINUOUS
 10
156.031541
 20
39.135043
 11
156.031541
 21
38.335043
  0
LINE
  8
1
 62
7
  6
CONTINUOUS
 10
156.531541
 20
39.135043
 11
156.031541
 21
39.135043
  0
LINE
  8
1
 62
7
  6
CONTINUOUS
 10
156.031541
 20
36.335043
 11
156.531541
 21
36.335043
  0
LINE
  8
1
 62
7
  6
CONTINUOUS
 10
156.031541
 20
37.135043
 11
156.031541
 21
36.335043
  0
LINE
  8
1
 62
7
  6
CONTINUOUS
 10
156.531541
 20
37.135043
 11
156.031541
 21
37.135043
  0
LINE
  8
1
 62
7
  6
CONTINUOUS
 10
156.031541
 20
34.335043
 11
156.531541
 21
34.335043
  0
LINE
  8
1
 62
7
  6
CONTINUOUS
 10
156.031541
 20
35.135043
 11
156.031541
 21
34.335043
  0
LINE
  8
1
 62
7
  6
CONTINUOUS
 10
156.531541
 20
35.135043
 11
156.031541
 21
35.135043
  0
LINE
  8
1
 62
7
  6
CONTINUOUS
 10
156.031541
 20
40.335043
 11
156.531541
 21
40.335043
  0
LINE
  8
1
 62
7
  6
CONTINUOUS
 10
156.031541
 20
41.135043
 11
156.031541
 21
40.335043
  0
LINE
  8
1
 62
7
  6
CONTINUOUS
 10
156.031541
 20
38.335043
 11
156.531541
 21
38.335043
  0
LINE
  8
1
 62
7
  6
CONTINUOUS
 10
156.031541
 20
39.135043
 11
156.031541
 21
38.335043
  0
LINE
  8
1
 62
7
  6
CONTINUOUS
 10
156.531541
 20
39.135043
 11
156.031541
 21
39.135043
  0
LINE
  8
1
 62
7
  6
CONTINUOUS
 10
156.031541
 20
36.335043
 11
156.531541
 21
36.335043
  0
LINE
  8
1
 62
7
  6
CONTINUOUS
 10
156.031541
 20
37.135043
 11
156.031541
 21
36.335043
  0
LINE
  8
1
 62
7
  6
CONTINUOUS
 10
156.531541
 20
37.135043
 11
156.031541
 21
37.135043
  0
LINE
  8
1
 62
7
  6
CONTINUOUS
 10
156.031541
 20
34.335043
 11
156.531541
 21
34.335043
  0
LINE
  8
1
 62
7
  6
CONTINUOUS
 10
156.031541
 20
35.135043
 11
156.031541
 21
34.335043
  0
LINE
  8
1
 62
7
  6
CONTINUOUS
 10
156.531541
 20
35.135043
 11
156.031541
 21
35.135043
  0
LINE
  8
1
 62
7
  6
CONTINUOUS
 10
156.031541
 20
32.335043
 11
156.531541
 21
32.335043
  0
LINE
  8
1
 62
7
  6
CONTINUOUS
 10
156.031541
 20
33.135043
 11
156.031541
 21
32.335043
  0
LINE
  8
1
 62
7
  6
CONTINUOUS
 10
156.531541
 20
33.135043
 11
156.031541
 21
33.135043
  0
LINE
  8
1
 62
7
  6
CONTINUOUS
 10
156.031541
 20
30.335043
 11
156.531541
 21
30.335043
  0
LINE
  8
1
 62
7
  6
CONTINUOUS
 10
156.031541
 20
31.135043
 11
156.031541
 21
30.335043
  0
LINE
  8
1
 62
7
  6
CONTINUOUS
 10
156.531541
 20
31.135043
 11
156.031541
 21
31.135043
  0
LINE
  8
1
 62
7
  6
CONTINUOUS
 10
156.031541
 20
28.335043
 11
156.531541
 21
28.335043
  0
LINE
  8
1
 62
7
  6
CONTINUOUS
 10
156.031541
 20
29.135043
 11
156.031541
 21
28.335043
  0
LINE
  8
1
 62
7
  6
CONTINUOUS
 10
156.531541
 20
29.135043
 11
156.031541
 21
29.135043
  0
LINE
  8
1
 62
7
  6
CONTINUOUS
 10
156.531541
 20
41.685043
 11
156.531541
 21
25.785043
  0
LINE
  8
1
 62
7
  6
CONTINUOUS
 10
157.731541
 20
40.935043
 11
156.531541
 21
41.685043
  0
LINE
  8
1
 62
7
  6
CONTINUOUS
 10
157.731541
 20
26.535043
 11
156.531541
 21
25.785043
  0
LINE
  8
1
 62
7
  6
CONTINUOUS
 10
162.881541
 20
26.535043
 11
157.731541
 21
26.535043
  0
LINE
  8
1
 62
7
  6
CONTINUOUS
 10
162.881541
 20
40.935043
 11
162.881541
 21
26.535043
  0
LINE
  8
1
 62
7
  6
CONTINUOUS
 10
157.731541
 20
40.935043
 11
162.881541
 21
40.935043
  0
LINE
  8
1
 62
7
  6
CONTINUOUS
 10
179.488069
 20
83.834553
 11
179.488069
 21
78.984553
  0
LINE
  8
1
 62
7
  6
CONTINUOUS
 10
179.488069
 20
78.984553
 11
185.971381
 21
78.984553
  0
LINE
  8
1
 62
7
  6
CONTINUOUS
 10
185.971381
 20
78.984553
 11
185.971381
 21
79.984553
  0
LINE
  8
1
 62
7
  6
CONTINUOUS
 10
184.371381
 20
79.984553
 11
184.371381
 21
78.984553
  0
LINE
  8
1
 62
7
  6
CONTINUOUS
 10
169.571430
 20
119.834553
 11
177.571392
 21
119.834553
  0
LINE
  8
1
 62
7
  6
CONTINUOUS
 10
177.571392
 20
89.834553
 11
169.571430
 21
89.834653
  0
LINE
  8
1
 62
7
  6
HIDDEN
 10
57.893915
 20
76.384553
 11
49.993915
 21
76.384553
  0
LINE
  8
1
 62
7
  6
HIDDEN
 10
48.643915
 20
63.869195
 11
48.643915
 21
76.384553
  0
LINE
  8
1
 62
7
  6
HIDDEN
 10
56.643915
 20
76.384553
 11
56.643915
 21
63.869195
  0
LINE
  8
1
 62
7
  6
HIDDEN
 10
47.343915
 20
63.869195
 11
47.343915
 21
76.384553
  0
LINE
  8
1
 62
7
  6
HIDDEN
 10
57.243915
 20
78.334553
 11
57.893915
 21
76.984553
  0
LINE
  8
1
 62
7
  6
HIDDEN
 10
57.893915
 20
76.384553
 11
57.893915
 21
76.984553
  0
LINE
  8
1
 62
7
  6
HIDDEN
 10
55.343915
 20
76.384553
 11
55.343915
 21
63.869195
  0
LINE
  8
1
 62
7
  6
HIDDEN
 10
49.993915
 20
76.384553
 11
42.093915
 21
76.384553
  0
LINE
  8
1
 62
7
  6
HIDDEN
 10
43.343915
 20
63.869195
 11
43.343915
 21
76.384553
  0
LINE
  8
1
 62
7
  6
HIDDEN
 10
42.093915
 20
76.984553
 11
42.093915
 21
76.384553
  0
LINE
  8
1
 62
7
  6
HIDDEN
 10
44.643915
 20
63.869195
 11
44.643915
 21
76.384553
  0
LINE
  8
1
 62
7
  6
HIDDEN
 10
42.093915
 20
76.984553
 11
42.743915
 21
78.334553
  0
LINE
  8
1
 62
7
  6
HIDDEN
 10
57.243915
 20
78.984553
 11
57.243915
 21
78.334553
  0
LINE
  8
1
 62
7
  6
HIDDEN
 10
42.743915
 20
78.984553
 11
42.743915
 21
78.334553
  0
LINE
  8
1
 62
7
  6
CONTINUOUS
 10
131.903803
 20
37.275043
 11
131.903803
 21
29.155043
  0
LINE
  8
1
 62
7
  6
CONTINUOUS
 10
130.925405
 20
37.275043
 11
130.925405
 21
29.155043
  0
LINE
  8
1
 62
7
  6
CONTINUOUS
 10
106.144887
 20
34.775043
 11
106.144887
 21
31.655043
  0
LINE
  8
1
 62
7
  6
CONTINUOUS
 10
102.644887
 20
34.255043
 11
106.144887
 21
34.255043
  0
LINE
  8
1
 62
7
  6
CONTINUOUS
 10
106.144887
 20
33.215043
 11
102.644887
 21
33.215043
  0
LINE
  8
1
 62
7
  6
CONTINUOUS
 10
102.644887
 20
32.175043
 11
106.144887
 21
32.175043
  0
LINE
  8
1
 62
7
  6
CONTINUOUS
 10
133.671417
 20
107.334553
 11
133.671417
 21
102.334553
  0
ARC
  8
1
 62
7
  6
CONTINUOUS
 10
49.993915
 20
104.834553
 40
2.500000
 50
180.000000
 51
-0.000000
  0
ARC
  8
1
 62
7
  6
CONTINUOUS
 10
49.993915
 20
104.834553
 40
2.500000
 50
0.000000
 51
180.000000
  0
ARC
  8
1
 62
7
  6
CONTINUOUS
 10
64.993915
 20
119.834553
 40
5.000000
 50
179.999851
 51
-89.999931
  0
ARC
  8
1
 62
7
  6
CONTINUOUS
 10
49.993915
 20
104.834553
 40
27.000023
 50
38.942503
 51
51.057497
  0
ARC
  8
1
 62
7
  6
CONTINUOUS
 10
34.993915
 20
119.834553
 40
5.000000
 50
-89.999931
 51
-0.000000
  0
ARC
  8
1
 62
7
  6
CONTINUOUS
 10
49.993915
 20
104.834553
 40
26.999992
 50
128.942420
 51
141.057497
  0
ARC
  8
1
 62
7
  6
CONTINUOUS
 10
34.993905
 20
89.834553
 40
5.000000
 50
0.000000
 51
89.999931
  0
ARC
  8
1
 62
7
  6
CONTINUOUS
 10
49.993915
 20
104.834553
 40
27.000031
 50
-141.057511
 51
-128.942453
  0
ARC
  8
1
 62
7
  6
CONTINUOUS
 10
64.993915
 20
89.834553
 40
5.000000
 50
89.999931
 51
179.999851
  0
ARC
  8
1
 62
7
  6
CONTINUOUS
 10
49.993915
 20
104.834553
 40
26.999961
 50
-51.057662
 51
-38.942503
  0
ARC
  8
1
 62
7
  6
CONTINUOUS
 10
190.271396
 20
124.834553
 40
1.000000
 50
0.000000
 51
90.000000
  0
ARC
  8
1
 62
7
  6
CONTINUOUS
 10
190.271396
 20
80.984538
 40
0.999985
 50
-90.000802
 51
0.000000
  0
ARC
  8
1
 62
7
  6
CONTINUOUS
 10
49.993915
 20
104.834553
 40
27.000000
 50
-141.566794
 51
-113.019712
  0
ARC
  8
1
 62
7
  6
CONTINUOUS
 10
49.993915
 20
104.834553
 40
27.000000
 50
-66.980288
 51
-38.433206
  0
CIRCLE
  8
4
 62
54
  6
CONTINUOUS
 10
34.493915
 20
120.334553
 40
1.000010
  0
CIRCLE
  8
4
 62
54
  6
CONTINUOUS
 10
65.493915
 20
120.334553
 40
1.000000
  0
CIRCLE
  8
4
 62
54
  6
CONTINUOUS
 10
34.493905
 20
89.334553
 40
1.000010
  0
CIRCLE
  8
4
 62
54
  6
CONTINUOUS
 10
65.493915
 20
89.334553
 40
1.000000
  0
CIRCLE
  8
1
 62
7
  6
CONTINUOUS
 10
65.493915
 20
120.334553
 40
1.500000
  0
CIRCLE
  8
1
 62
7
  6
CONTINUOUS
 10
34.493915
 20
120.334553
 40
1.500000
  0
CIRCLE
  8
1
 62
7
  6
CONTINUOUS
 10
34.493905
 20
89.334553
 40
1.500000
  0
CIRCLE
  8
1
 62
7
  6
CONTINUOUS
 10
65.493915
 20
89.334553
 40
1.500000
  0
CIRCLE
  8
1
 62
7
  6
CONTINUOUS
 10
49.993915
 20
104.834553
 40
11.000000
  0
CIRCLE
  8
1
 62
7
  6
CONTINUOUS
 10
49.993915
 20
104.834553
 40
4.500000
  0
LINE
  8
1
 62
7
  6
CONTINUOUS
 10
210.267964
 20
12.788867
 11
166.282798
 21
12.788867
  0
LINE
  8
1
 62
7
  6
CONTINUOUS
 10
166.282798
 20
12.788867
 11
162.111541
 21
26.535043
  0
LINE
  8
1
 62
7
  6
CONTINUOUS
 10
163.443874
 20
23.595252
 11
162.637601
 21
23.350590
  0
LINE
  8
1
 62
7
  6
CONTINUOUS
 10
162.637601
 20
23.350590
 11
162.111541
 21
26.535043
  0
LINE
  8
1
 62
7
  6
CONTINUOUS
 10
162.111541
 20
26.535043
 11
163.443874
 21
23.595252
  0
LINE
  8
1
 62
7
  6
CONTINUOUS
 10
29.532087
 20
163.038745
 11
96.074436
 21
163.038745
  0
LINE
  8
1
 62
7
  6
CONTINUOUS
 10
96.074436
 20
163.038745
 11
66.474428
 21
121.469717
  0
LINE
  8
1
 62
7
  6
CONTINUOUS
 10
67.987386
 20
124.320759
 11
68.673737
 21
123.832030
  0
LINE
  8
1
 62
7
  6
CONTINUOUS
 10
68.673737
 20
123.832030
 11
66.474428
 21
121.469717
  0
LINE
  8
1
 62
7
  6
CONTINUOUS
 10
66.474428
 20
121.469717
 11
67.987386
 21
124.320759
  0
LINE
  8
1
 62
7
  6
CONTINUOUS
 10
98.170256
 20
146.824197
 11
138.281103
 21
146.824197
  0
LINE
  8
1
 62
7
  6
CONTINUOUS
 10
138.281103
 20
146.824197
 11
169.763454
 21
126.834553
  0
LINE
  8
1
 62
7
  6
CONTINUOUS
 10
166.836185
 20
128.194179
 11
167.287826
 21
128.905484
  0
LINE
  8
1
 62
7
  6
CONTINUOUS
 10
167.287826
 20
128.905484
 11
169.763454
 21
126.834553
  0
LINE
  8
1
 62
7
  6
CONTINUOUS
 10
169.763454
 20
126.834553
 11
166.836185
 21
128.194179
  0
TEXT
  8
1
 62
7
  6
CONTINUOUS
 10
160.354751
 20
43.523942
 40
2.000000
 41
0.720000
  1
ＰＩＮ　ＮＯ．
  7
KANJI
 50
0.000000
 51
0.000000
  0
TEXT
  8
1
 62
7
  6
CONTINUOUS
 10
164.507647
 20
39.182024
 40
1.300000
 41
0.900000
  1
1
  7
KANJI
 50
0.000000
 51
0.000000
  0
TEXT
  8
1
 62
7
  6
CONTINUOUS
 10
164.507647
 20
35.075508
 40
1.300000
 41
0.900000
  1
3
  7
KANJI
 50
0.000000
 51
0.000000
  0
TEXT
  8
1
 62
7
  6
CONTINUOUS
 10
164.507647
 20
26.878967
 40
1.300000
 41
0.900000
  1
7
  7
KANJI
 50
0.000000
 51
0.000000
  0
TEXT
  8
1
 62
7
  6
CONTINUOUS
 10
168.289692
 20
17.515587
 40
3.000000
 41
0.450000
  1
ＨＯＵＳＩＮＧ：ＰＨＲ－７　（ＪＳＴ）
  7
KANJI
 50
0.000000
 51
0.000000
  0
TEXT
  8
1
 62
7
  6
CONTINUOUS
 10
168.289692
 20
13.315587
 40
3.000000
 41
0.450000
  1
ＣＯＮＴＡＣＴ：ＳＰＨ－００２Ｔ－Ｐ０．５Ｓ（ＪＳＴ）
  7
KANJI
 50
0.000000
 51
0.000000
  0
TEXT
  8
1
 62
7
  6
CONTINUOUS
 10
33.285638
 20
164.419136
 40
3.200000
 41
0.630000
  1
4-M3×0.5 深サ(DEPTH)　4.5MIN.
  7
KANJI
 50
0.000000
 51
0.000000
  0
TEXT
  8
1
 62
7
  6
CONTINUOUS
 10
22.168117
 20
59.387199
 40
3.000000
 41
0.720000
  1
PIN NO.
  7
KANJI
 50
0.000000
 51
0.000000
  0
TEXT
  8
1
 62
7
  6
CONTINUOUS
 10
42.541326
 20
59.387199
 40
2.500000
 41
0.900000
  1
1
  7
KANJI
 50
0.000000
 51
0.000000
  0
TEXT
  8
1
 62
7
  6
CONTINUOUS
 10
46.962667
 20
59.387199
 40
2.500000
 41
0.900000
  1
3
  7
KANJI
 50
0.000000
 51
0.000000
  0
TEXT
  8
1
 62
7
  6
CONTINUOUS
 10
54.965678
 20
59.387199
 40
2.500000
 41
0.900000
  1
7
  7
KANJI
 50
0.000000
 51
0.000000
  0
TEXT
  8
1
 62
7
  6
CONTINUOUS
 10
100.325387
 20
141.908346
 40
3.000000
 41
0.720000
  1
(NAME PLATE)
  7
KANJI
 50
0.000000
 51
0.000000
  0
TEXT
  8
1
 62
7
  6
CONTINUOUS
 10
102.979665
 20
147.976987
 40
3.200000
 41
0.900000
  1
ネームプレート
  7
KANJI
 50
0.000000
 51
0.000000
  0
TEXT
  8
1
 62
7
  6
CONTINUOUS
 10
188.281290
 20
151.340511
 40
5.000000
 41
0.900000
  1
)
  7
KANJI
 50
90.000000
 51
0.000000
  0
TEXT
  8
1
 62
7
  6
CONTINUOUS
 10
188.299117
 20
129.302498
 40
5.000000
 41
0.900000
  1
(
  7
KANJI
 50
90.000000
 51
0.000000
  0
TEXT
  8
1
 62
7
  6
CONTINUOUS
 10
185.156290
 20
133.366344
 40
2.500000
 41
0.720000
  1
DIRECTION
  7
KANJI
 50
90.000000
 51
0.000000
  0
TEXT
  8
1
 62
7
  6
CONTINUOUS
 10
188.906290
 20
133.366344
 40
2.500000
 41
0.720000
  1
OF LETTER
  7
KANJI
 50
90.000000
 51
0.000000
  0
LINE
  8
128
 62
7
  6
CONTINUOUS
 10
157.671417
 20
161.016404
 11
191.271396
 21
161.016404
  0
LINE
  8
128
 62
7
  6
CONTINUOUS
 10
157.671417
 20
126.141753
 11
157.671417
 21
162.016404
  0
LINE
  8
128
 62
7
  6
CONTINUOUS
 10
191.271396
 20
125.834553
 11
191.271396
 21
162.016404
  0
LINE
  8
128
 62
7
  6
CONTINUOUS
 10
157.671417
 20
161.016404
 11
160.871417
 21
161.432404
  0
LINE
  8
128
 62
7
  6
CONTINUOUS
 10
160.871417
 20
161.432404
 11
160.871417
 21
160.600404
  0
LINE
  8
128
 62
7
  6
CONTINUOUS
 10
160.871417
 20
160.600404
 11
157.671417
 21
161.016404
  0
LINE
  8
128
 62
7
  6
CONTINUOUS
 10
191.271396
 20
161.016404
 11
188.071396
 21
160.600404
  0
LINE
  8
128
 62
7
  6
CONTINUOUS
 10
188.071396
 20
160.600404
 11
188.071396
 21
161.432404
  0
LINE
  8
128
 62
7
  6
CONTINUOUS
 10
188.071396
 20
161.432404
 11
191.271396
 21
161.016404
  0
TEXT
  8
128
 62
7
  6
CONTINUOUS
 10
165.820780
 20
162.616404
 40
3.200000
 41
0.900000
  1
34
  7
KANJI
 50
0.000000
 51
0.000000
  0
TEXT
  8
128
 62
7
  6
CONTINUOUS
 10
172.220780
 20
162.616404
 40
3.200000
 41
0.900000
  1
MAX.
  7
KANJI
 50
0.000000
 51
0.000000
  0
LINE
  8
128
 62
7
  6
CONTINUOUS
 10
157.671417
 20
142.864736
 11
171.562328
 21
142.864736
  0
LINE
  8
128
 62
7
  6
CONTINUOUS
 10
155.671421
 20
142.864736
 11
157.671417
 21
142.864736
  0
LINE
  8
128
 62
7
  6
CONTINUOUS
 10
149.271421
 20
142.864736
 11
155.671421
 21
142.864736
  0
LINE
  8
128
 62
7
  6
CONTINUOUS
 10
157.671417
 20
126.141753
 11
157.671417
 21
143.864736
  0
LINE
  8
128
 62
7
  6
CONTINUOUS
 10
155.671421
 20
116.834553
 11
155.671421
 21
143.864736
  0
LINE
  8
128
 62
7
  6
CONTINUOUS
 10
155.671421
 20
142.864736
 11
152.471421
 21
142.448736
  0
LINE
  8
128
 62
7
  6
CONTINUOUS
 10
152.471421
 20
142.448736
 11
152.471421
 21
143.280736
  0
LINE
  8
128
 62
7
  6
CONTINUOUS
 10
152.471421
 20
143.280736
 11
155.671421
 21
142.864736
  0
LINE
  8
128
 62
7
  6
CONTINUOUS
 10
157.671417
 20
142.864736
 11
160.871417
 21
143.280736
  0
LINE
  8
128
 62
7
  6
CONTINUOUS
 10
160.871417
 20
143.280736
 11
160.871417
 21
142.448736
  0
LINE
  8
128
 62
7
  6
CONTINUOUS
 10
160.871417
 20
142.448736
 11
157.671417
 21
142.864736
  0
TEXT
  8
128
 62
7
  6
CONTINUOUS
 10
161.266328
 20
144.464736
 40
3.200000
 41
0.900000
  1
2
  7
KANJI
 50
0.000000
 51
0.000000
  0
TEXT
  8
128
 62
7
  6
CONTINUOUS
 10
164.786328
 20
144.944736
 40
2.240000
 41
0.900000
  1
±0.2
  7
KANJI
 50
0.000000
 51
0.000000
  0
LINE
  8
128
 62
7
  6
CONTINUOUS
 10
111.011362
 20
93.834553
 11
111.011362
 21
115.834553
  0
LINE
  8
128
 62
7
  6
CONTINUOUS
 10
154.671421
 20
115.834553
 11
110.011362
 21
115.834553
  0
LINE
  8
128
 62
7
  6
CONTINUOUS
 10
154.671321
 20
93.834553
 11
110.011362
 21
93.834553
  0
LINE
  8
128
 62
7
  6
CONTINUOUS
 10
111.011362
 20
115.834553
 11
111.427362
 21
112.634553
  0
LINE
  8
128
 62
7
  6
CONTINUOUS
 10
111.427362
 20
112.634553
 11
110.595362
 21
112.634553
  0
LINE
  8
128
 62
7
  6
CONTINUOUS
 10
110.595362
 20
112.634553
 11
111.011362
 21
115.834553
  0
LINE
  8
128
 62
7
  6
CONTINUOUS
 10
111.011362
 20
93.834553
 11
110.595362
 21
97.034553
  0
LINE
  8
128
 62
7
  6
CONTINUOUS
 10
110.595362
 20
97.034553
 11
111.427362
 21
97.034553
  0
LINE
  8
128
 62
7
  6
CONTINUOUS
 10
111.427362
 20
97.034553
 11
111.011362
 21
93.834553
  0
TEXT
  8
128
 62
7
  6
CONTINUOUS
 10
108.211362
 20
99.789123
 40
3.200000
 41
0.900000
  1
22
  7
KANJI
 50
90.000000
 51
0.000000
  0
TEXT
  8
128
 62
7
  6
CONTINUOUS
 10
106.051362
 20
107.981123
 40
2.240000
 41
0.900000
  1
0
  7
KANJI
 50
90.000000
 51
0.000000
  0
TEXT
  8
128
 62
7
  6
CONTINUOUS
 10
109.411362
 20
106.189123
 40
2.240000
 41
0.900000
  1
-0.05
  7
KANJI
 50
90.000000
 51
0.000000
  0
TEXT
  8
128
 62
7
  6
CONTINUOUS
 10
108.211362
 20
95.949123
 40
3.200000
 41
0.900000
  1
φ
  7
KANJI
 50
90.000000
 51
0.000000
  0
LINE
  8
128
 62
7
  6
CONTINUOUS
 10
28.993915
 20
149.834553
 11
70.993915
 21
149.834553
  0
LINE
  8
128
 62
7
  6
CONTINUOUS
 10
28.993915
 20
122.805153
 11
28.993915
 21
150.834553
  0
LINE
  8
128
 62
7
  6
CONTINUOUS
 10
70.993915
 20
122.805153
 11
70.993915
 21
150.834553
  0
LINE
  8
128
 62
7
  6
CONTINUOUS
 10
28.993915
 20
149.834553
 11
32.193915
 21
150.250553
  0
LINE
  8
128
 62
7
  6
CONTINUOUS
 10
32.193915
 20
150.250553
 11
32.193915
 21
149.418553
  0
LINE
  8
128
 62
7
  6
CONTINUOUS
 10
32.193915
 20
149.418553
 11
28.993915
 21
149.834553
  0
LINE
  8
128
 62
7
  6
CONTINUOUS
 10
70.993915
 20
149.834553
 11
67.793915
 21
149.418553
  0
LINE
  8
128
 62
7
  6
CONTINUOUS
 10
67.793915
 20
149.418553
 11
67.793915
 21
150.250553
  0
LINE
  8
128
 62
7
  6
CONTINUOUS
 10
67.793915
 20
150.250553
 11
70.993915
 21
149.834553
  0
TEXT
  8
128
 62
7
  6
CONTINUOUS
 10
47.593915
 20
151.434553
 40
3.200000
 41
0.900000
  1
42
  7
KANJI
 50
0.000000
 51
0.000000
  0
TEXT
  8
128
 62
7
  6
CONTINUOUS
 10
45.513915
 20
151.434553
 40
3.200000
 41
0.900000
  1
(
  7
KANJI
 50
0.000000
 51
0.000000
  0
TEXT
  8
128
 62
7
  6
CONTINUOUS
 10
53.993915
 20
151.434553
 40
3.200000
 41
0.900000
  1
)
  7
KANJI
 50
0.000000
 51
0.000000
  0
LINE
  8
128
 62
7
  6
CONTINUOUS
 10
34.493925
 20
139.834553
 11
65.493915
 21
139.834553
  0
LINE
  8
128
 62
7
  6
CONTINUOUS
 10
34.493925
 20
122.834553
 11
34.493925
 21
140.834553
  0
LINE
  8
128
 62
7
  6
CONTINUOUS
 10
65.493915
 20
122.834553
 11
65.493915
 21
140.834553
  0
LINE
  8
128
 62
7
  6
CONTINUOUS
 10
34.493925
 20
139.834553
 11
37.693925
 21
140.250553
  0
LINE
  8
128
 62
7
  6
CONTINUOUS
 10
37.693925
 20
140.250553
 11
37.693925
 21
139.418553
  0
LINE
  8
128
 62
7
  6
CONTINUOUS
 10
37.693925
 20
139.418553
 11
34.493925
 21
139.834553
  0
LINE
  8
128
 62
7
  6
CONTINUOUS
 10
65.493915
 20
139.834553
 11
62.293915
 21
139.418553
  0
LINE
  8
128
 62
7
  6
CONTINUOUS
 10
62.293915
 20
139.418553
 11
62.293915
 21
140.250553
  0
LINE
  8
128
 62
7
  6
CONTINUOUS
 10
62.293915
 20
140.250553
 11
65.493915
 21
139.834553
  0
TEXT
  8
128
 62
7
  6
CONTINUOUS
 10
43.885920
 20
141.434553
 40
3.200000
 41
0.900000
  1
31
  7
KANJI
 50
0.000000
 51
0.000000
  0
TEXT
  8
128
 62
7
  6
CONTINUOUS
 10
49.325920
 20
141.914553
 40
2.240000
 41
0.900000
  1
±0.2
  7
KANJI
 50
0.000000
 51
0.000000
  0
LINE
  8
1
 62
7
  6
CONTINUOUS
 10
102.644887
 20
55.321576
 11
156.531541
 21
55.321576
  0
LINE
  8
1
 62
7
  6
CONTINUOUS
 10
102.644887
 20
35.255043
 11
102.644887
 21
56.821576
  0
LINE
  8
1
 62
7
  6
CONTINUOUS
 10
156.531541
 20
42.685043
 11
156.531541
 21
56.821576
  0
LINE
  8
1
 62
7
  6
CONTINUOUS
 10
156.531541
 20
55.321576
 11
153.331541
 21
54.905576
  0
LINE
  8
1
 62
7
  6
CONTINUOUS
 10
153.331541
 20
54.905576
 11
153.331541
 21
55.737576
  0
LINE
  8
1
 62
7
  6
CONTINUOUS
 10
153.331541
 20
55.737576
 11
156.531541
 21
55.321576
  0
LINE
  8
1
 62
7
  6
CONTINUOUS
 10
102.644887
 20
55.321576
 11
105.844887
 21
55.737576
  0
LINE
  8
1
 62
7
  6
CONTINUOUS
 10
105.844887
 20
55.737576
 11
105.844887
 21
54.905576
  0
LINE
  8
1
 62
7
  6
CONTINUOUS
 10
105.844887
 20
54.905576
 11
102.644887
 21
55.321576
  0
TEXT
  8
1
 62
7
  6
CONTINUOUS
 10
123.146246
 20
58.121576
 40
3.200000
 41
0.900000
  1
300
  7
KANJI
 50
0.000000
 51
0.000000
  0
TEXT
  8
1
 62
7
  6
CONTINUOUS
 10
132.426246
 20
60.201576
 40
1.920000
 41
0.900000
  1
+40
  7
KANJI
 50
0.000000
 51
0.000000
  0
TEXT
  8
1
 62
7
  6
CONTINUOUS
 10
135.690246
 20
57.321576
 40
1.920000
 41
0.900000
  1
0
  7
KANJI
 50
0.000000
 51
0.000000
  0
LINE
  8
1
 62
7
  6
CONTINUOUS
 10
96.244887
 20
46.378765
 11
102.644887
 21
46.378765
  0
LINE
  8
1
 62
7
  6
CONTINUOUS
 10
102.644887
 20
46.378765
 11
106.144887
 21
46.378765
  0
LINE
  8
1
 62
7
  6
CONTINUOUS
 10
106.144887
 20
46.378765
 11
119.585095
 21
46.378765
  0
LINE
  8
1
 62
7
  6
CONTINUOUS
 10
102.644887
 20
35.255043
 11
102.644887
 21
47.878765
  0
LINE
  8
1
 62
7
  6
CONTINUOUS
 10
106.144887
 20
35.775043
 11
106.144887
 21
47.878765
  0
LINE
  8
1
 62
7
  6
CONTINUOUS
 10
102.644887
 20
46.378765
 11
99.444887
 21
45.962765
  0
LINE
  8
1
 62
7
  6
CONTINUOUS
 10
99.444887
 20
45.962765
 11
99.444887
 21
46.794765
  0
LINE
  8
1
 62
7
  6
CONTINUOUS
 10
99.444887
 20
46.794765
 11
102.644887
 21
46.378765
  0
LINE
  8
1
 62
7
  6
CONTINUOUS
 10
106.144887
 20
46.378765
 11
109.344887
 21
46.794765
  0
LINE
  8
1
 62
7
  6
CONTINUOUS
 10
109.344887
 20
46.794765
 11
109.344887
 21
45.962765
  0
LINE
  8
1
 62
7
  6
CONTINUOUS
 10
109.344887
 20
45.962765
 11
106.144887
 21
46.378765
  0
TEXT
  8
1
 62
7
  6
CONTINUOUS
 10
111.665095
 20
48.378765
 40
3.200000
 41
0.900000
  1
3.5
  7
KANJI
 50
0.000000
 51
0.000000
  0
TEXT
  8
1
 62
7
  6
CONTINUOUS
 10
109.585095
 20
48.378765
 40
3.200000
 41
0.900000
  1
(
  7
KANJI
 50
0.000000
 51
0.000000
  0
TEXT
  8
1
 62
7
  6
CONTINUOUS
 10
119.105095
 20
48.378765
 40
3.200000
 41
0.900000
  1
)
  7
KANJI
 50
0.000000
 51
0.000000
  0
LINE
  8
1
 62
7
  6
CONTINUOUS
 10
133.671417
 20
161.016404
 11
157.671417
 21
161.016404
  0
LINE
  8
1
 62
7
  6
CONTINUOUS
 10
133.671417
 20
108.334553
 11
133.671417
 21
162.516404
  0
LINE
  8
1
 62
7
  6
CONTINUOUS
 10
157.671417
 20
126.141753
 11
157.671417
 21
162.516404
  0
LINE
  8
1
 62
7
  6
CONTINUOUS
 10
133.671417
 20
161.016404
 11
136.871417
 21
161.432404
  0
LINE
  8
1
 62
7
  6
CONTINUOUS
 10
136.871417
 20
161.432404
 11
136.871417
 21
160.600404
  0
LINE
  8
1
 62
7
  6
CONTINUOUS
 10
136.871417
 20
160.600404
 11
133.671417
 21
161.016404
  0
LINE
  8
1
 62
7
  6
CONTINUOUS
 10
157.671417
 20
161.016404
 11
154.471417
 21
160.600404
  0
LINE
  8
1
 62
7
  6
CONTINUOUS
 10
154.471417
 20
160.600404
 11
154.471417
 21
161.432404
  0
LINE
  8
1
 62
7
  6
CONTINUOUS
 10
154.471417
 20
161.432404
 11
157.671417
 21
161.016404
  0
TEXT
  8
1
 62
7
  6
CONTINUOUS
 10
138.373151
 20
163.016404
 40
3.200000
 41
0.900000
  1
24
  7
KANJI
 50
0.000000
 51
0.000000
  0
TEXT
  8
1
 62
7
  6
CONTINUOUS
 10
144.773151
 20
163.656404
 40
1.920000
 41
0.900000
  1
±0.5
  7
KANJI
 50
0.000000
 51
0.000000
  0
LINE
  8
1
 62
7
  6
CONTINUOUS
 10
122.546474
 20
102.334553
 11
122.546474
 21
107.334553
  0
LINE
  8
1
 62
7
  6
CONTINUOUS
 10
122.546474
 20
102.334553
 11
122.546474
 21
95.934553
  0
LINE
  8
1
 62
7
  6
CONTINUOUS
 10
122.546474
 20
107.334553
 11
122.546474
 21
113.734553
  0
LINE
  8
1
 62
7
  6
CONTINUOUS
 10
132.671417
 20
102.334553
 11
121.046474
 21
102.334553
  0
LINE
  8
1
 62
7
  6
CONTINUOUS
 10
132.671417
 20
107.334553
 11
121.046474
 21
107.334553
  0
LINE
  8
1
 62
7
  6
CONTINUOUS
 10
122.546474
 20
107.334553
 11
122.130474
 21
110.534553
  0
LINE
  8
1
 62
7
  6
CONTINUOUS
 10
122.130474
 20
110.534553
 11
122.962474
 21
110.534553
  0
LINE
  8
1
 62
7
  6
CONTINUOUS
 10
122.962474
 20
110.534553
 11
122.546474
 21
107.334553
  0
LINE
  8
1
 62
7
  6
CONTINUOUS
 10
122.546474
 20
102.334553
 11
122.962474
 21
99.134553
  0
LINE
  8
1
 62
7
  6
CONTINUOUS
 10
122.962474
 20
99.134553
 11
122.130474
 21
99.134553
  0
LINE
  8
1
 62
7
  6
CONTINUOUS
 10
122.130474
 20
99.134553
 11
122.546474
 21
102.334553
  0
TEXT
  8
1
 62
7
  6
CONTINUOUS
 10
119.746474
 20
101.002112
 40
3.200000
 41
0.900000
  1
5
  7
KANJI
 50
90.000000
 51
0.000000
  0
TEXT
  8
1
 62
7
  6
CONTINUOUS
 10
117.666474
 20
106.058112
 40
1.920000
 41
0.900000
  1
0
  7
KANJI
 50
90.000000
 51
0.000000
  0
TEXT
  8
1
 62
7
  6
CONTINUOUS
 10
120.546474
 20
104.522112
 40
1.920000
 41
0.900000
  1
-0.005
  7
KANJI
 50
90.000000
 51
0.000000
  0
TEXT
  8
1
 62
7
  6
CONTINUOUS
 10
119.746474
 20
97.357668
 40
3.200000
 41
0.900000
  1
φ
  7
KANJI
 50
90.000000
 51
0.000000
  0
LINE
  8
1
 62
7
  6
CONTINUOUS
 10
174.388551
 20
128.196270
 11
174.388551
 21
154.196270
  0
LINE
  8
1
 62
7
  6
CONTINUOUS
 10
174.388551
 20
154.196270
 11
180.388551
 21
154.196270
  0
LINE
  8
1
 62
7
  6
CONTINUOUS
 10
180.388551
 20
154.196270
 11
180.388551
 21
128.196270
  0
LINE
  8
1
 62
7
  6
CONTINUOUS
 10
180.388551
 20
128.196270
 11
174.388551
 21
128.196270
  0
LINE
  8
1
 62
7
  6
CONTINUOUS
 10
174.388551
 20
134.196270
 11
180.388551
 21
134.196270
  0
LINE
  8
1
 62
7
  6
CONTINUOUS
 10
179.888551
 20
131.196270
 11
174.888551
 21
131.196270
  0
LINE
  8
1
 62
7
  6
CONTINUOUS
 10
174.888551
 20
131.196270
 11
177.388551
 21
129.696270
  0
LINE
  8
1
 62
7
  6
CONTINUOUS
 10
177.388551
 20
129.696270
 11
177.388551
 21
132.196270
  0
TEXT
  8
1
 62
7
  6
CONTINUOUS
 10
179.388551
 20
135.243015
 40
4.000000
 41
0.900000
  1
文字ノ向キ
  7
KANJI
 50
90.000000
 51
0.000000
  0
LINE
  8
1
 62
7
  6
CONTINUOUS
 10
95.787950
 20
83.834553
 11
95.787950
 21
125.834553
  0
LINE
  8
1
 62
7
  6
CONTINUOUS
 10
67.964515
 20
125.834553
 11
97.787950
 21
125.834553
  0
LINE
  8
1
 62
7
  6
CONTINUOUS
 10
67.964415
 20
83.834553
 11
97.787950
 21
83.834553
  0
LINE
  8
1
 62
7
  6
CONTINUOUS
 10
95.787950
 20
83.834553
 11
95.371950
 21
87.034553
  0
LINE
  8
1
 62
7
  6
CONTINUOUS
 10
95.371950
 20
87.034553
 11
96.203950
 21
87.034553
  0
LINE
  8
1
 62
7
  6
CONTINUOUS
 10
96.203950
 20
87.034553
 11
95.787950
 21
83.834553
  0
LINE
  8
1
 62
7
  6
CONTINUOUS
 10
95.787950
 20
125.834553
 11
96.203950
 21
122.634553
  0
LINE
  8
1
 62
7
  6
CONTINUOUS
 10
96.203950
 20
122.634553
 11
95.371950
 21
122.634553
  0
LINE
  8
1
 62
7
  6
CONTINUOUS
 10
95.371950
 20
122.634553
 11
95.787950
 21
125.834553
  0
TEXT
  8
1
 62
7
  6
CONTINUOUS
 10
93.787950
 20
102.195691
 40
3.200000
 41
0.900000
  1
42
  7
KANJI
 50
90.000000
 51
0.000000
  0
TEXT
  8
1
 62
7
  6
CONTINUOUS
 10
93.787950
 20
100.115691
 40
3.200000
 41
0.900000
  1
(
  7
KANJI
 50
90.000000
 51
0.000000
  0
TEXT
  8
1
 62
7
  6
CONTINUOUS
 10
93.787950
 20
108.595691
 40
3.200000
 41
0.900000
  1
)
  7
KANJI
 50
90.000000
 51
0.000000
  0
LINE
  8
1
 62
7
  6
CONTINUOUS
 10
86.047441
 20
89.334553
 11
86.047441
 21
120.334553
  0
LINE
  8
1
 62
7
  6
CONTINUOUS
 10
68.993915
 20
120.334553
 11
88.047441
 21
120.334553
  0
LINE
  8
1
 62
7
  6
CONTINUOUS
 10
68.993915
 20
89.334553
 11
88.047441
 21
89.334553
  0
LINE
  8
1
 62
7
  6
CONTINUOUS
 10
86.047441
 20
89.334553
 11
85.631441
 21
92.534553
  0
LINE
  8
1
 62
7
  6
CONTINUOUS
 10
85.631441
 20
92.534553
 11
86.463441
 21
92.534553
  0
LINE
  8
1
 62
7
  6
CONTINUOUS
 10
86.463441
 20
92.534553
 11
86.047441
 21
89.334553
  0
LINE
  8
1
 62
7
  6
CONTINUOUS
 10
86.047441
 20
120.334553
 11
86.463441
 21
117.134553
  0
LINE
  8
1
 62
7
  6
CONTINUOUS
 10
86.463441
 20
117.134553
 11
85.631441
 21
117.134553
  0
LINE
  8
1
 62
7
  6
CONTINUOUS
 10
85.631441
 20
117.134553
 11
86.047441
 21
120.334553
  0
TEXT
  8
1
 62
7
  6
CONTINUOUS
 10
84.047441
 20
98.685206
 40
3.200000
 41
0.900000
  1
31
  7
KANJI
 50
90.000000
 51
0.000000
  0
TEXT
  8
1
 62
7
  6
CONTINUOUS
 10
83.407441
 20
104.125206
 40
1.920000
 41
0.900000
  1
±0.2
  7
KANJI
 50
90.000000
 51
0.000000
  0
LINE
  8
1
 62
7
  6
CONTINUOUS
 10
95.787950
 20
76.384553
 11
95.787950
 21
63.498511
  0
LINE
  8
1
 62
7
  6
CONTINUOUS
 10
95.787950
 20
76.384553
 11
95.787950
 21
83.834553
  0
LINE
  8
1
 62
7
  6
CONTINUOUS
 10
95.787950
 20
90.234553
 11
95.787950
 21
83.834553
  0
LINE
  8
1
 62
7
  6
CONTINUOUS
 10
58.993915
 20
83.834553
 11
97.787950
 21
83.834553
  0
LINE
  8
1
 62
7
  6
CONTINUOUS
 10
58.893915
 20
76.384553
 11
97.787950
 21
76.384553
  0
LINE
  8
1
 62
7
  6
CONTINUOUS
 10
95.787950
 20
76.384553
 11
96.203950
 21
73.184553
  0
LINE
  8
1
 62
7
  6
CONTINUOUS
 10
96.203950
 20
73.184553
 11
95.371950
 21
73.184553
  0
LINE
  8
1
 62
7
  6
CONTINUOUS
 10
95.371950
 20
73.184553
 11
95.787950
 21
76.384553
  0
LINE
  8
1
 62
7
  6
CONTINUOUS
 10
95.787950
 20
83.834553
 11
95.371950
 21
87.034553
  0
LINE
  8
1
 62
7
  6
CONTINUOUS
 10
95.371950
 20
87.034553
 11
96.203950
 21
87.034553
  0
LINE
  8
1
 62
7
  6
CONTINUOUS
 10
96.203950
 20
87.034553
 11
95.787950
 21
83.834553
  0
TEXT
  8
1
 62
7
  6
CONTINUOUS
 10
93.787950
 20
65.578511
 40
3.200000
 41
0.900000
  1
7.5
  7
KANJI
 50
90.000000
 51
0.000000
  0
TEXT
  8
1
 62
7
  6
CONTINUOUS
 10
93.787950
 20
63.498511
 40
3.200000
 41
0.900000
  1
(
  7
KANJI
 50
90.000000
 51
0.000000
  0
TEXT
  8
1
 62
7
  6
CONTINUOUS
 10
93.787950
 20
73.018511
 40
3.200000
 41
0.900000
  1
)
  7
KANJI
 50
90.000000
 51
0.000000
  0
LINE
  8
1
 62
7
  6
CONTINUOUS
 10
94.549213
 20
18.123206
 11
95.820589
 21
18.123206
  0
ENDSEC
  0
EOF
