  0
SECTION
  2
HEADER
  9
$ACADVER
  1
AC1009
  9
$INSBASE
 10
0
 20
0
  9
$EXTMIN
 10
-144.3525713431659
 20
-283.2263728647919
  9
$EXTMAX
 10
64.25772316796481
 20
-136.2796988375261
  9
$LIMMIN
 10
-144.3525713431659
 20
-283.2263728647919
  9
$LIMMAX
 10
64.25772316796481
 20
-136.2796988375261
  9
$VIEWCTR
 10
10
 20
10
  9
$VIEWSIZE
 40
10
  9
$SNAPMODE
 70
0
  9
$SNAPUNIT
 10
1
 20
1
  9
$SNAPBASE
 10
0
 20
0
  9
$SNAPANG
 50
0
  9
$SNAPSTYLE
 70
0
  9
$SNAPISOPAIR
 70
0
  9
$GRIDMODE
 70
0
  9
$GRIDUNIT
 10
0
 20
0
  9
$ORTHOMODE
 70
0
  9
$REGENMODE
 70
1
  9
$FILLMODE
 70
1
  9
$QTEXTMODE
 70
0
  9
$DRAGMODE
 70
2
  9
$LTSCALE
 40
1
  9
$OSMODE
 70
0
  9
$ATTMODE
 70
1
  9
$TEXTSIZE
 40
3.5
  9
$TRACEWID
 40
0.5
  9
$TEXTSTYLE
  7
STANDARD
  9
$CLAYER
  8
0
  9
$CELTYPE
  6
BYLAYER
  9
$CECOLOR
 62
256
  9
$DIMSCALE
 40
1
  9
$DIMASZ
 40
0.18
  9
$DIMEXO
 40
0.0625
  9
$DIMDLI
 40
0.38
  9
$DIMRND
 40
0
  9
$DIMDLE
 40
0
  9
$DIMEXE
 40
0.18
  9
$DIMTP
 40
0
  9
$DIMTM
 40
0
  9
$DIMTXT
 40
0.18
  9
$DIMCEN
 40
0.09
  9
$DIMTSZ
 40
0
  9
$DIMTOL
 70
0
  9
$DIMLIM
 70
0
  9
$DIMTIH
 70
1
  9
$DIMTOH
 70
1
  9
$DIMSE1
 70
0
  9
$DIMSE2
 70
0
  9
$DIMTAD
 70
0
  9
$DIMZIN
 70
0
  9
$DIMBLK
  1

  9
$DIMASO
 70
1
  9
$DIMSHO
 70
1
  9
$DIMPOST
  1

  9
$DIMAPOST
  1

  9
$DIMALT
 70
0
  9
$DIMALTD
 70
2
  9
$DIMALTF
 40
25.4
  9
$DIMLFAC
 40
1
  9
$DIMTOFL
 70
0
  9
$DIMTVP
 40
0
  9
$DIMTIX
 70
0
  9
$DIMSOXD
 70
0
  9
$DIMSAH
 70
0
  9
$DIMBLK1
  1

  9
$DIMBLK2
  1

  9
$DIMSTYLE
  2
*UNNAMED
  9
$DIMCLRD
 70
0
  9
$DIMCLRE
 70
0
  9
$DIMCLRT
 70
0
  9
$DIMTFAC
 40
1
  9
$DIMGAP
 40
0.09
  9
$LUNITS
 70
2
  9
$LUPREC
 70
4
  9
$AXISMODE
 70
0
  9
$AXISUNIT
 10
0
 20
0
  9
$SKETCHINC
 40
0.1
  9
$FILLETRAD
 40
2
  9
$AUNITS
 70
0
  9
$AUPREC
 70
0
  9
$MENU
  1
ACAD
  9
$ELEVATION
 40
0
  9
$THICKNESS
 40
0
  9
$VIEWDIR
 10
0
 20
0
 30
1
  9
$LIMCHECK
 70
0
  9
$BLIPMODE
 70
1
  9
$CHAMFERA
 40
0
  9
$CHAMFERB
 40
0
  9
$FASTZOOM
 70
1
  9
$SKPOLY
 70
0
  9
$ANGBASE
 50
0
  9
$ANGDIR
 70
0
  9
$PDMODE
 70
0
  9
$PDSIZE
 40
0
  9
$PLINEWID
 40
0
  9
$COORDS
 70
2
  0
ENDSEC
  0
SECTION
  2
TABLES
  0
TABLE
  2
DIMSTYLE
 70
0
  0
ENDTAB
  0
TABLE
  2
LTYPE
 70
9
  0
LTYPE
  2
CONTINUOUS
 70
64
  3
Solid line
 72
65
 73
0
 40
0
  0
LTYPE
  2
BORDER
 70
64
  3
__ __ . __ __ .
 72
65
 73
6
 40
9.607053036696808
 49
2.744872296199088
 49
-1.372436148099544
 49
2.744872296199088
 49
-1.372436148099544
 49
0
 49
-1.372436148099544
  0
LTYPE
  2
CENTER
 70
64
  3
____ _ ____ _
 72
65
 73
4
 40
10.97948918479635
 49
6.86218074049772
 49
-1.372436148099544
 49
1.372436148099544
 49
-1.372436148099544
  0
LTYPE
  2
DASHDOT
 70
64
  3
__ . __ . __ .
 72
65
 73
4
 40
5.489744592398176
 49
2.744872296199088
 49
-1.372436148099544
 49
0
 49
-1.372436148099544
  0
LTYPE
  2
DASHED
 70
64
  3
__ __ __ __ __
 72
65
 73
2
 40
4.117308444298632
 49
2.744872296199088
 49
-1.372436148099544
  0
LTYPE
  2
DIVIDE
 70
64
  3
__ . . __ . . 
 72
65
 73
6
 40
6.86218074049772
 49
2.744872296199088
 49
-1.372436148099544
 49
0
 49
-1.372436148099544
 49
0
 49
-1.372436148099544
  0
LTYPE
  2
DOT
 70
64
  3
..............
 72
65
 73
4
 40
2.744872296199088
 49
0
 49
-1.372436148099544
 49
0
 49
-1.372436148099544
  0
LTYPE
  2
HIDDEN
 70
64
  3
_ _ _ _ _ _ _
 72
65
 73
2
 40
2.058654222149316
 49
1.372436148099544
 49
-0.686218074049772
  0
LTYPE
  2
PHANTOM
 70
64
  3
_____ _ _ _____ _ _ 
 72
65
 73
6
 40
13.72436148099544
 49
6.86218074049772
 49
-1.372436148099544
 49
1.372436148099544
 49
-1.372436148099544
 49
1.372436148099544
 49
-1.372436148099544
  0
ENDTAB
  0
TABLE
  2
LAYER
 70
3
  0
LAYER
  2
1
 70
0
 62
7
  6
CONTINUOUS
  0
LAYER
  2
0
 70
0
 62
7
  6
CONTINUOUS
  0
ENDTAB
  0
TABLE
  2
STYLE
 70
4
  0
STYLE
  2
STANDARD
 70
0
 40
0
 41
1
 50
0
 71
0
 42
3.5
  3
txt
  4

  0
STYLE
  2
SIMPLEX
 70
0
 40
0
 41
1
 50
0
 71
0
 42
3.5
  3
simplex
  4

  0
STYLE
  2
COMPLEX
 70
0
 40
0
 41
1
 50
0
 71
0
 42
3.5
  3
complex
  4

  0
STYLE
  2
ITALIC
 70
0
 40
0
 41
1
 50
0
 71
0
 42
3.5
  3
italic
  4

  0
ENDTAB
  0
TABLE
  2
VIEW
 70
0
  0
ENDTAB
  0
ENDSEC
  0
SECTION
  2
BLOCKS
  0
ENDSEC
  0
SECTION
  2
ENTITIES
  0
LINE
  8
1
 62
3
 10
-101.1025713431659
 20
-224.0910705383466
 30
0
 11
-101.1025713431659
 21
-226.5910705383466
 31
0
  0
LINE
  8
1
 62
3
 10
-102.6025713431659
 20
-224.0910705383466
 30
0
 11
-101.1025713431659
 21
-224.0910705383466
 31
0
  0
LINE
  8
1
 62
3
 10
-124.1025713431659
 20
-226.5910705383466
 30
0
 11
-125.6025713431659
 21
-226.5910705383466
 31
0
  0
LINE
  8
1
 62
3
 10
-125.6025713431659
 20
-226.5910705383466
 30
0
 11
-125.8525713431659
 21
-226.5910705383465
 31
0
  0
LINE
  8
1
 62
3
 10
-125.6025713431659
 20
-224.0910705383466
 30
0
 11
-125.6025713431659
 21
-226.5910705383466
 31
0
  0
LINE
  8
1
 62
3
 10
-124.1025713431659
 20
-224.0910705383466
 30
0
 11
-125.6025713431659
 21
-224.0910705383466
 31
0
  0
LINE
  8
1
 62
3
 10
-124.1025713431659
 20
-227.2910705383466
 30
0
 11
-124.1025713431659
 21
-224.0910705383466
 31
0
  0
LINE
  8
1
 62
3
 10
-102.6025713431659
 20
-227.2910705383466
 30
0
 11
-124.1025713431659
 21
-227.2910705383466
 31
0
  0
LINE
  8
1
 62
3
 10
-102.6025713431659
 20
-224.0910705383466
 30
0
 11
-102.6025713431659
 21
-227.2910705383466
 31
0
  0
LINE
  8
1
 62
3
 10
-99.25257134316689
 20
-221.4910705383467
 30
0
 11
-94.78257134316573
 21
-221.4910705383467
 31
0
  0
LINE
  8
1
 62
3
 10
-127.4525713431659
 20
-221.4910705383467
 30
0
 11
-131.9225713431661
 21
-221.4910705383465
 31
0
  0
LINE
  8
1
 62
3
 10
-94.78257134316561
 20
-221.2910705383466
 30
0
 11
-94.78257134316573
 21
-223.2910705383487
 31
0
  0
LINE
  8
1
 62
3
 10
-131.9225713431661
 20
-223.2910705383475
 30
0
 11
-131.9225713431661
 21
-221.2910705383466
 31
0
  0
LINE
  8
1
 62
3
 10
-131.9225713431661
 20
-223.2910705383475
 30
0
 11
-131.9225713431661
 21
-221.2910705383466
 31
0
  0
LINE
  8
1
 62
3
 10
-94.78257134316561
 20
-221.2910705383466
 30
0
 11
-94.78257134316573
 21
-223.2910705383487
 31
0
  0
LINE
  8
1
 62
3
 10
-127.452571343166
 20
-226.5910705383465
 30
0
 11
-125.8525713431659
 21
-226.5910705383465
 31
0
  0
LINE
  8
1
 62
3
 10
-99.2525713431674
 20
-226.5910705383465
 30
0
 11
-100.8525713431658
 21
-226.5910705383465
 31
0
  0
LINE
  8
1
 62
3
 10
-127.452571343166
 20
-226.5910705383465
 30
0
 11
-127.452571343166
 21
-221.291070538345
 31
0
  0
LINE
  8
1
 62
3
 10
-99.2525713431674
 20
-226.5910705383465
 30
0
 11
-99.2525713431661
 21
-221.2910705383466
 31
0
  0
LINE
  8
1
 62
3
 10
-97.7825713431655
 20
-226.2910705383475
 30
0
 11
-99.25257134316723
 21
-226.2910705383475
 31
0
  0
LINE
  8
1
 62
3
 10
-127.452571343166
 20
-226.2910705383478
 30
0
 11
-128.9225713431663
 21
-226.2910705383478
 31
0
  0
LINE
  8
1
 62
3
 10
-100.8525713431658
 20
-226.5910705383465
 30
0
 11
-102.6025713431659
 21
-226.5910705383466
 31
0
  0
LINE
  8
1
 62
3
 10
-127.452571343166
 20
-226.2910705383478
 30
0
 11
-128.9225713431663
 21
-226.2910705383478
 31
0
  0
LINE
  8
1
 62
3
 10
-97.7825713431655
 20
-226.2910705383475
 30
0
 11
-99.25257134316723
 21
-226.2910705383475
 31
0
  0
LINE
  8
1
 62
3
 10
-99.2525713431674
 20
-226.5910705383465
 30
0
 11
-99.2525713431661
 21
-221.2910705383466
 31
0
  0
LINE
  8
1
 62
3
 10
-127.452571343166
 20
-226.5910705383465
 30
0
 11
-127.452571343166
 21
-221.291070538345
 31
0
  0
LINE
  8
1
 62
3
 10
-99.2525713431674
 20
-226.5910705383465
 30
0
 11
-100.8525713431658
 21
-226.5910705383465
 31
0
  0
LINE
  8
1
 62
3
 10
-127.452571343166
 20
-226.5910705383465
 30
0
 11
-125.8525713431659
 21
-226.5910705383465
 31
0
  0
LINE
  8
1
 62
3
 10
-138.8823045326383
 20
-176.6380783307959
 30
0
 11
-138.2712651614858
 21
-177.2491177019486
 31
0
  0
LINE
  8
1
 62
3
 10
-137.4228381536935
 20
-176.6380783307959
 30
0
 11
-138.033877524846
 21
-177.2491177019486
 31
0
  0
LINE
  8
1
 62
3
 10
-139.4055635507164
 20
-178.6208037278189
 30
0
 11
-138.7945241795638
 21
-178.0097643566664
 31
0
  0
LINE
  8
1
 62
3
 10
-139.4055635507164
 20
-177.1613373488741
 30
0
 11
-138.7945241795638
 21
-177.7723767200267
 31
0
  0
LINE
  8
1
 62
3
 10
-138.033877524846
 20
-178.5330233747444
 30
0
 11
-138.0277425750261
 21
-178.5391583245642
 31
0
  0
LINE
  8
1
 62
3
 10
-138.0277425750261
 20
-178.5391583245642
 30
0
 11
-137.4228381536935
 21
-179.1440627458971
 31
0
  0
LINE
  8
1
 62
3
 10
-138.8823045326383
 20
-179.1440627458971
 30
0
 11
-138.2712651614858
 21
-178.5330233747444
 31
0
  0
LINE
  8
1
 62
3
 10
-136.8995791356154
 20
-177.1613373488741
 30
0
 11
-137.510618506768
 21
-177.7723767200267
 31
0
  0
LINE
  8
1
 62
3
 10
-136.8995791356154
 20
-178.6208037278189
 30
0
 11
-137.510618506768
 21
-178.0097643566664
 31
0
  0
LINE
  8
1
 62
1
 10
-138.1525713431658
 20
-172.0910705383463
 30
0
 11
-138.1525713431658
 21
-183.6910705383466
 31
0
  0
LINE
  8
1
 62
1
 10
-132.3525713431658
 20
-177.8910705383464
 30
0
 11
-143.9525713431659
 21
-177.8910705383464
 31
0
  0
LINE
  8
1
 62
3
 10
-87.29957913561523
 20
-178.6208037278189
 30
0
 11
-87.91061850676786
 21
-178.0097643566664
 31
0
  0
LINE
  8
1
 62
3
 10
-87.29957913561523
 20
-177.1613373488741
 30
0
 11
-87.91061850676786
 21
-177.7723767200267
 31
0
  0
LINE
  8
1
 62
3
 10
-89.28230453263817
 20
-179.1440627458971
 30
0
 11
-88.67126516148559
 21
-178.5330233747444
 31
0
  0
LINE
  8
1
 62
3
 10
-88.42774257502592
 20
-178.5391583245642
 30
0
 11
-87.82283815369326
 21
-179.1440627458971
 31
0
  0
LINE
  8
1
 62
3
 10
-88.43387752484583
 20
-178.5330233747444
 30
0
 11
-88.42774257502592
 21
-178.5391583245642
 31
0
  0
LINE
  8
1
 62
3
 10
-89.80556355071624
 20
-177.1613373488741
 30
0
 11
-89.19452417956362
 21
-177.7723767200267
 31
0
  0
LINE
  8
1
 62
3
 10
-89.80556355071624
 20
-178.6208037278189
 30
0
 11
-89.19452417956362
 21
-178.0097643566664
 31
0
  0
LINE
  8
1
 62
3
 10
-87.8228381536932
 20
-176.6380783307959
 30
0
 11
-88.43387752484583
 21
-177.2491177019486
 31
0
  0
LINE
  8
1
 62
3
 10
-89.28230453263817
 20
-176.6380783307959
 30
0
 11
-88.67126516148559
 21
-177.2491177019486
 31
0
  0
LINE
  8
1
 62
1
 10
-82.75257134316567
 20
-177.8910705383464
 30
0
 11
-94.35257134316581
 21
-177.8910705383464
 31
0
  0
LINE
  8
1
 62
1
 10
-88.55257134316574
 20
-172.0910705383463
 30
0
 11
-88.55257134316574
 21
-183.6910705383466
 31
0
  0
LINE
  8
1
 62
3
 10
-88.67126516148559
 20
-209.3330233747445
 30
0
 11
-89.28230453263817
 21
-209.944062745897
 31
0
  0
LINE
  8
1
 62
3
 10
-88.43387752484583
 20
-209.3330233747445
 30
0
 11
-87.8228381536932
 21
-209.944062745897
 31
0
  0
LINE
  8
1
 62
3
 10
-89.19452417956362
 20
-208.5723767200267
 30
0
 11
-89.80556355071624
 21
-207.961337348874
 31
0
  0
LINE
  8
1
 62
3
 10
-89.19452417956362
 20
-208.8097643566662
 30
0
 11
-89.80556355071624
 21
-209.420803727819
 31
0
  0
LINE
  8
1
 62
3
 10
-88.42774257502592
 20
-208.0429827521287
 30
0
 11
-88.43387752484583
 21
-208.0491177019485
 31
0
  0
LINE
  8
1
 62
3
 10
-87.82283815369326
 20
-207.438078330796
 30
0
 11
-88.42774257502592
 21
-208.0429827521287
 31
0
  0
LINE
  8
1
 62
3
 10
-88.67126516148559
 20
-208.0491177019485
 30
0
 11
-89.28230453263817
 21
-207.438078330796
 31
0
  0
LINE
  8
1
 62
3
 10
-87.91061850676786
 20
-208.8097643566662
 30
0
 11
-87.29957913561523
 21
-209.420803727819
 31
0
  0
LINE
  8
1
 62
3
 10
-87.91061850676786
 20
-208.5723767200267
 30
0
 11
-87.29957913561523
 21
-207.961337348874
 31
0
  0
LINE
  8
1
 62
1
 10
-94.35257134316581
 20
-208.6910705383467
 30
0
 11
-82.75257134316567
 21
-208.6910705383467
 31
0
  0
LINE
  8
1
 62
1
 10
-88.55257134316574
 20
-202.8910705383466
 30
0
 11
-88.55257134316574
 21
-214.4910705383465
 31
0
  0
LINE
  8
1
 62
3
 10
-137.510618506768
 20
-208.5723767200267
 30
0
 11
-136.8995791356154
 21
-207.961337348874
 31
0
  0
LINE
  8
1
 62
3
 10
-137.510618506768
 20
-208.8097643566662
 30
0
 11
-136.8995791356154
 21
-209.420803727819
 31
0
  0
LINE
  8
1
 62
3
 10
-138.2712651614858
 20
-208.0491177019485
 30
0
 11
-138.8823045326383
 21
-207.438078330796
 31
0
  0
LINE
  8
1
 62
3
 10
-137.4228381536935
 20
-207.438078330796
 30
0
 11
-138.0277425750261
 21
-208.0429827521287
 31
0
  0
LINE
  8
1
 62
3
 10
-138.0277425750261
 20
-208.0429827521287
 30
0
 11
-138.033877524846
 21
-208.0491177019485
 31
0
  0
LINE
  8
1
 62
3
 10
-138.7945241795638
 20
-208.8097643566662
 30
0
 11
-139.4055635507164
 21
-209.420803727819
 31
0
  0
LINE
  8
1
 62
3
 10
-138.7945241795638
 20
-208.5723767200267
 30
0
 11
-139.4055635507164
 21
-207.961337348874
 31
0
  0
LINE
  8
1
 62
3
 10
-138.033877524846
 20
-209.3330233747445
 30
0
 11
-137.4228381536935
 21
-209.944062745897
 31
0
  0
LINE
  8
1
 62
3
 10
-138.2712651614858
 20
-209.3330233747445
 30
0
 11
-138.8823045326383
 21
-209.944062745897
 31
0
  0
LINE
  8
1
 62
1
 10
-143.9525713431659
 20
-208.6910705383467
 30
0
 11
-132.3525713431658
 21
-208.6910705383467
 31
0
  0
LINE
  8
1
 62
1
 10
-138.1525713431658
 20
-202.8910705383466
 30
0
 11
-138.1525713431658
 21
-214.4910705383465
 31
0
  0
LINE
  8
1
 62
3
 10
-75.86079204053938
 20
-264.4263728647919
 30
0
 11
-80.86079204053938
 21
-264.4263728647919
 31
0
  0
LINE
  8
1
 62
3
 10
-63.17195782256297
 20
-268.0263728647919
 30
0
 11
-75.86079204053938
 21
-264.4263728647919
 31
0
  0
LINE
  8
1
 62
3
 10
-63.17195782256297
 20
-269.6263728647919
 30
0
 11
-75.86079204053938
 21
-266.0263728647918
 31
0
  0
LINE
  8
1
 62
3
 10
-75.86079204053938
 20
-266.0263728647918
 30
0
 11
-80.86079204053938
 21
-266.0263728647918
 31
0
  0
LINE
  8
1
 62
3
 10
-75.86079204053938
 20
-268.4263728647919
 30
0
 11
-80.86079204053938
 21
-268.4263728647919
 31
0
  0
LINE
  8
1
 62
3
 10
-63.17195782256297
 20
-269.6263728647919
 30
0
 11
-75.86079204053938
 21
-268.4263728647919
 31
0
  0
LINE
  8
1
 62
3
 10
-63.17195782256297
 20
-271.2263728647919
 30
0
 11
-75.86079204053938
 21
-270.0263728647918
 31
0
  0
LINE
  8
1
 62
3
 10
-75.86079204053938
 20
-270.0263728647918
 30
0
 11
-80.86079204053938
 21
-270.0263728647918
 31
0
  0
LINE
  8
1
 62
3
 10
-56.66672999698417
 20
-274.426372864792
 30
0
 11
-12.74022164161307
 21
-274.426372864792
 31
0
  0
LINE
  8
1
 62
3
 10
-56.66672999698417
 20
-272.8263728647918
 30
0
 11
-12.74022164161307
 21
-272.8263728647918
 31
0
  0
LINE
  8
1
 62
3
 10
-56.66672999698417
 20
-271.2263728647919
 30
0
 11
-12.7402216416131
 21
-271.2263728647919
 31
0
  0
LINE
  8
1
 62
3
 10
-56.66672999698417
 20
-269.6263728647919
 30
0
 11
-12.7402216416131
 21
-269.6263728647919
 31
0
  0
LINE
  8
1
 62
3
 10
-56.66672999698417
 20
-268.0263728647919
 30
0
 11
-12.74022164161307
 21
-268.0263728647919
 31
0
  0
LINE
  8
1
 62
3
 10
-80.86079204053938
 20
-278.0263728647918
 30
0
 11
-75.86079204053938
 21
-278.0263728647918
 31
0
  0
LINE
  8
1
 62
3
 10
-80.86079204053938
 20
-276.4263728647919
 30
0
 11
-75.86079204053938
 21
-276.4263728647919
 31
0
  0
LINE
  8
1
 62
3
 10
-80.86079204053938
 20
-274.0263728647918
 30
0
 11
-75.86079204053938
 21
-274.0263728647918
 31
0
  0
LINE
  8
1
 62
3
 10
-80.86079204053938
 20
-272.4263728647919
 30
0
 11
-75.86079204053938
 21
-272.4263728647919
 31
0
  0
LINE
  8
1
 62
3
 10
-75.86079204053938
 20
-278.0263728647918
 30
0
 11
-63.17195782256297
 21
-274.426372864792
 31
0
  0
LINE
  8
1
 62
3
 10
-75.86079204053938
 20
-276.4263728647919
 30
0
 11
-63.17195782256297
 21
-272.8263728647918
 31
0
  0
LINE
  8
1
 62
3
 10
-75.86079204053938
 20
-274.0263728647918
 30
0
 11
-63.17195782256297
 21
-272.8263728647918
 31
0
  0
LINE
  8
1
 62
3
 10
-75.86079204053938
 20
-272.4263728647919
 30
0
 11
-63.17195782256297
 21
-271.2263728647919
 31
0
  0
LINE
  8
1
 62
3
 10
-63.17195782256297
 20
-274.426372864792
 30
0
 11
-58.17195782256297
 21
-274.426372864792
 31
0
  0
LINE
  8
1
 62
3
 10
-63.17195782256297
 20
-272.8263728647918
 30
0
 11
-58.17195782256297
 21
-272.8263728647918
 31
0
  0
LINE
  8
1
 62
3
 10
-63.17195782256297
 20
-271.2263728647919
 30
0
 11
-58.17195782256297
 21
-271.2263728647919
 31
0
  0
LINE
  8
1
 62
3
 10
-63.17195782256297
 20
-269.6263728647919
 30
0
 11
-58.17195782256297
 21
-269.6263728647919
 31
0
  0
LINE
  8
1
 62
3
 10
-63.17195782256297
 20
-268.0263728647919
 30
0
 11
-58.17195782256297
 21
-268.0263728647919
 31
0
  0
LINE
  8
1
 62
3
 10
-12.74022164161307
 20
-274.426372864792
 30
0
 11
-12.74022164161307
 21
-268.0263728647919
 31
0
  0
LINE
  8
1
 62
2
 10
-12.7402216416131
 20
-273.9263728647917
 30
0
 11
-2.740221641613069
 21
-273.9263728647917
 31
0
  0
LINE
  8
1
 62
2
 10
-12.7402216416131
 20
-273.6263728647917
 30
0
 11
-2.740221641613069
 21
-273.6263728647917
 31
0
  0
LINE
  8
1
 62
2
 10
-12.7402216416131
 20
-273.3263728647918
 30
0
 11
-2.740221641613069
 21
-273.3263728647918
 31
0
  0
LINE
  8
1
 62
2
 10
-12.7402216416131
 20
-272.3263728647918
 30
0
 11
-2.740221641613069
 21
-272.3263728647918
 31
0
  0
LINE
  8
1
 62
2
 10
-12.7402216416131
 20
-272.0263728647919
 30
0
 11
-2.740221641613069
 21
-272.0263728647919
 31
0
  0
LINE
  8
1
 62
2
 10
-12.7402216416131
 20
-271.7263728647919
 30
0
 11
-2.740221641613069
 21
-271.7263728647919
 31
0
  0
LINE
  8
1
 62
2
 10
-12.74022164161307
 20
-270.7263728647916
 30
0
 11
-2.740221641613069
 21
-270.7263728647916
 31
0
  0
LINE
  8
1
 62
2
 10
-12.7402216416131
 20
-270.4263728647917
 30
0
 11
-2.740221641613069
 21
-270.426372864792
 31
0
  0
LINE
  8
1
 62
2
 10
-12.7402216416131
 20
-270.126372864792
 30
0
 11
-2.740221641613069
 21
-270.1263728647917
 31
0
  0
LINE
  8
1
 62
2
 10
-12.74022164161307
 20
-269.1263728647919
 30
0
 11
-2.740221641613069
 21
-269.1263728647917
 31
0
  0
LINE
  8
1
 62
2
 10
-12.7402216416131
 20
-268.8263728647918
 30
0
 11
-2.740221641613069
 21
-268.8263728647918
 31
0
  0
LINE
  8
1
 62
2
 10
-12.7402216416131
 20
-268.5263728647919
 30
0
 11
-2.740221641613069
 21
-268.5263728647919
 31
0
  0
LINE
  8
1
 62
3
 10
-84.36079204053938
 20
-262.7263728647919
 30
0
 11
-84.36079204053938
 21
-261.7263728647919
 31
0
  0
LINE
  8
1
 62
3
 10
-84.36079204053938
 20
-280.7263728647919
 30
0
 11
-84.36079204053938
 21
-279.7263728647919
 31
0
  0
LINE
  8
1
 62
3
 10
-84.26079204053937
 20
-262.7263728647919
 30
0
 11
-84.26079204053937
 21
-261.7263728647919
 31
0
  0
LINE
  8
1
 62
3
 10
-83.96079204053936
 20
-261.7263728647919
 30
0
 11
-83.96079204053936
 21
-262.7263728647919
 31
0
  0
LINE
  8
1
 62
3
 10
-85.36079204053938
 20
-261.7263728647919
 30
0
 11
-83.96079204053936
 21
-261.7263728647919
 31
0
  0
LINE
  8
1
 62
3
 10
-85.36079204053938
 20
-262.7263728647919
 30
0
 11
-85.36079204053938
 21
-261.7263728647919
 31
0
  0
LINE
  8
1
 62
3
 10
-83.96079204053936
 20
-262.7263728647919
 30
0
 11
-85.36079204053938
 21
-262.7263728647919
 31
0
  0
LINE
  8
1
 62
3
 10
-84.26079204053937
 20
-280.7263728647919
 30
0
 11
-84.26079204053937
 21
-279.7263728647919
 31
0
  0
LINE
  8
1
 62
3
 10
-83.96079204053936
 20
-279.7263728647919
 30
0
 11
-83.96079204053936
 21
-280.7263728647919
 31
0
  0
LINE
  8
1
 62
3
 10
-83.96079204053936
 20
-280.7263728647919
 30
0
 11
-85.36079204053938
 21
-280.7263728647919
 31
0
  0
LINE
  8
1
 62
3
 10
-85.36079204053938
 20
-280.7263728647919
 30
0
 11
-85.36079204053938
 21
-279.7263728647919
 31
0
  0
LINE
  8
1
 62
3
 10
-85.36079204053938
 20
-279.7263728647919
 30
0
 11
-83.96079204053936
 21
-279.7263728647919
 31
0
  0
LINE
  8
1
 62
3
 10
-81.36079204053938
 20
-259.2263728647919
 30
0
 11
-80.86079204053938
 21
-259.2263728647919
 31
0
  0
LINE
  8
1
 62
3
 10
-81.66079204053936
 20
-259.7763728647919
 30
0
 11
-81.66079204053936
 21
-259.5263728647919
 31
0
  0
LINE
  8
1
 62
3
 10
-80.86079204053938
 20
-283.2263728647919
 30
0
 11
-81.36079204053938
 21
-283.2263728647919
 31
0
  0
LINE
  8
1
 62
3
 10
-81.66079204053936
 20
-282.9263728647919
 30
0
 11
-81.66079204053936
 21
-282.6763728647919
 31
0
  0
LINE
  8
1
 62
3
 10
-80.86079204053938
 20
-283.2263728647919
 30
0
 11
-80.86079204053938
 21
-259.2263728647919
 31
0
  0
LINE
  8
1
 62
3
 10
-81.66079204053936
 20
-282.6763728647919
 30
0
 11
-86.66079204053936
 21
-282.6763728647919
 31
0
  0
LINE
  8
1
 62
3
 10
-86.66079204053936
 20
-282.6763728647919
 30
0
 11
-86.66079204053936
 21
-259.7763728647919
 31
0
  0
LINE
  8
1
 62
3
 10
-86.66079204053936
 20
-259.7763728647919
 30
0
 11
-81.66079204053936
 21
-259.7763728647919
 31
0
  0
LINE
  8
1
 62
3
 10
-141.3525713431659
 20
-204.691070538347
 30
0
 11
-141.3525713431659
 21
-203.691070538347
 31
0
  0
LINE
  8
1
 62
3
 10
-141.3525713431659
 20
-212.6910705383468
 30
0
 11
-141.3525713431659
 21
-204.691070538347
 31
0
  0
LINE
  8
1
 62
3
 10
-141.3525713431659
 20
-213.691070538347
 30
0
 11
-141.3525713431659
 21
-212.6910705383468
 31
0
  0
LINE
  8
1
 62
3
 10
-138.1525713431662
 20
-204.6910705383474
 30
0
 11
-140.3525713431665
 21
-204.6910705383474
 31
0
  0
LINE
  8
1
 62
3
 10
-138.1525713431662
 20
-212.6910705383474
 30
0
 11
-140.3525713431659
 21
-212.6910705383469
 31
0
  0
LINE
  8
1
 62
3
 10
-85.35257134316575
 20
-203.691070538347
 30
0
 11
-85.35257134316575
 21
-204.691070538347
 31
0
  0
LINE
  8
1
 62
3
 10
-85.35257134316575
 20
-204.691070538347
 30
0
 11
-85.35257134316575
 21
-212.6910705383468
 31
0
  0
LINE
  8
1
 62
3
 10
-85.35257134316575
 20
-212.6910705383468
 30
0
 11
-85.35257134316575
 21
-213.691070538347
 31
0
  0
LINE
  8
1
 62
3
 10
-86.35257134316507
 20
-204.6910705383474
 30
0
 11
-88.55257134316511
 21
-204.6910705383474
 31
0
  0
LINE
  8
1
 62
3
 10
-86.35257134316507
 20
-212.6910705383474
 30
0
 11
-88.55257134316511
 21
-212.6910705383474
 31
0
  0
LINE
  8
1
 62
3
 10
-141.3525713431659
 20
-182.8910705383466
 30
0
 11
-141.3525713431659
 21
-181.8910705383464
 31
0
  0
LINE
  8
1
 62
3
 10
-141.3525713431659
 20
-181.8910705383464
 30
0
 11
-141.3525713431659
 21
-173.8910705383465
 31
0
  0
LINE
  8
1
 62
3
 10
-141.3525713431659
 20
-173.8910705383465
 30
0
 11
-141.3525713431659
 21
-172.8910705383466
 31
0
  0
LINE
  8
1
 62
3
 10
-140.3525713431665
 20
-181.8910705383472
 30
0
 11
-138.1525713431662
 21
-181.8910705383472
 31
0
  0
LINE
  8
1
 62
3
 10
-140.3525713431665
 20
-173.8910705383472
 30
0
 11
-138.1525713431662
 21
-173.8910705383472
 31
0
  0
LINE
  8
1
 62
3
 10
-85.35257134316575
 20
-181.8910705383464
 30
0
 11
-85.35257134316507
 21
-182.8910705383472
 31
0
  0
LINE
  8
1
 62
3
 10
-85.35257134316575
 20
-173.8910705383464
 30
0
 11
-85.35257134316575
 21
-181.8910705383464
 31
0
  0
LINE
  8
1
 62
3
 10
-85.35257134316575
 20
-172.8910705383466
 30
0
 11
-85.35257134316575
 21
-173.8910705383464
 31
0
  0
LINE
  8
1
 62
3
 10
-85.35257134316507
 20
-182.8910705383472
 30
0
 11
-85.35257134316552
 21
-217.2910705383468
 31
0
  0
LINE
  8
1
 62
3
 10
-88.55257134316511
 20
-181.8910705383472
 30
0
 11
-86.35257134316507
 21
-181.8910705383472
 31
0
  0
LINE
  8
1
 62
3
 10
-88.55257134316511
 20
-173.8910705383472
 30
0
 11
-86.35257134316507
 21
-173.8910705383472
 31
0
  0
LINE
  8
1
 62
1
 10
-95.28257134316587
 20
-216.8610705383471
 30
0
 11
-84.28257134316587
 21
-216.861070538347
 31
0
  0
LINE
  8
1
 62
1
 10
-89.78257134316581
 20
-222.361070538347
 30
0
 11
-89.78257134316581
 21
-211.3610705383471
 31
0
  0
LINE
  8
1
 62
3
 10
-141.3525713431661
 20
-217.291070538347
 30
0
 11
-141.3525713431659
 21
-169.2910705383466
 31
0
  0
LINE
  8
1
 62
3
 10
-89.35257134316586
 20
-221.2910705383466
 30
0
 11
-137.3525713431659
 21
-221.2910705383466
 31
0
  0
LINE
  8
1
 62
3
 10
-85.35257134316586
 20
-169.2910705383466
 30
0
 11
-85.35257134316575
 21
-172.8910705383466
 31
0
  0
LINE
  8
1
 62
3
 10
-137.3525713431659
 20
-165.2910705383466
 30
0
 11
-89.35257134316586
 21
-165.2910705383466
 31
0
  0
LINE
  8
1
 62
1
 10
-89.78257134316581
 20
-175.2210705383464
 30
0
 11
-89.78257134316587
 21
-164.2210705383464
 31
0
  0
LINE
  8
1
 62
1
 10
-95.28257134316587
 20
-169.7210705383464
 30
0
 11
-84.28257134316587
 21
-169.7210705383464
 31
0
  0
LINE
  8
1
 62
1
 10
-142.4225713431661
 20
-216.8610705383471
 30
0
 11
-131.4225713431661
 21
-216.8610705383471
 31
0
  0
LINE
  8
1
 62
1
 10
-136.9225713431659
 20
-222.3610705383468
 30
0
 11
-136.9225713431661
 21
-211.3610705383471
 31
0
  0
LINE
  8
1
 62
1
 10
-136.9225713431659
 20
-175.2210705383464
 30
0
 11
-136.9225713431659
 21
-164.2210705383464
 31
0
  0
LINE
  8
1
 62
1
 10
-142.422571343166
 20
-169.7210705383464
 30
0
 11
-131.4225713431661
 21
-169.7210705383464
 31
0
  0
LINE
  8
1
 62
1
 10
-113.3525713431659
 20
-162.2910705383466
 30
0
 11
-113.3525713431659
 21
-229.7910705383468
 31
0
  0
LINE
  8
1
 62
1
 10
-144.3525713431659
 20
-193.2910705383466
 30
0
 11
-82.35257134316586
 21
-193.2910705383466
 31
0
  0
LINE
  8
1
 62
2
  6
DASHED
 10
-124.8025713431662
 20
-227.4910705383464
 30
0
 11
-124.8025713431662
 21
-226.5910705383466
 31
0
  0
LINE
  8
1
 62
2
  6
DASHED
 10
-101.9025713431656
 20
-226.5910705383466
 30
0
 11
-101.9025713431656
 21
-227.4910705383464
 31
0
  0
LINE
  8
1
 62
1
 10
-17.74227683203522
 20
-216.8610705383468
 30
0
 11
-6.742276832035223
 21
-216.8610705383468
 31
0
  0
LINE
  8
1
 62
1
 10
-17.74227683203522
 20
-169.7210705383463
 30
0
 11
-6.742276832035223
 21
-169.7210705383463
 31
0
  0
LINE
  8
1
 62
2
 10
-3.742276832035218
 20
-174.7210705383463
 30
0
 11
-3.742276832035218
 21
-177.4531213459152
 31
0
  0
LINE
  8
1
 62
2
 10
-1.742276832035218
 20
-174.7210705383463
 30
0
 11
-1.742276832035218
 21
-180.917222961053
 31
0
  0
LINE
  8
1
 62
2
 10
0.2577231679647802
 20
-174.7210705383463
 30
0
 11
0.2577231679647802
 21
-184.3813245761907
 31
0
  0
LINE
  8
1
 62
2
 10
2.25772316796478
 20
-174.7210705383463
 30
0
 11
2.25772316796478
 21
-187.8454261913285
 31
0
  0
LINE
  8
1
 62
2
 10
44.25772316796486
 20
-198.7367148853646
 30
0
 11
44.25772316796486
 21
-211.8610705383468
 31
0
  0
LINE
  8
1
 62
2
 10
46.25772316796486
 20
-202.2008165005024
 30
0
 11
46.25772316796486
 21
-211.8610705383468
 31
0
  0
LINE
  8
1
 62
2
 10
48.25772316796486
 20
-205.6649181156401
 30
0
 11
48.25772316796486
 21
-211.8610705383468
 31
0
  0
LINE
  8
1
 62
2
 10
50.25772316796486
 20
-209.1290197307779
 30
0
 11
50.25772316796486
 21
-211.8610705383468
 31
0
  0
LINE
  8
1
 62
2
 10
3.25772316796478
 20
-174.7210705383463
 30
0
 11
3.25772316796478
 21
-189.5774769988974
 31
0
  0
LINE
  8
1
 62
2
 10
1.25772316796478
 20
-174.7210705383463
 30
0
 11
1.25772316796478
 21
-186.1133753837596
 31
0
  0
LINE
  8
1
 62
2
 10
-0.742276832035218
 20
-174.7210705383463
 30
0
 11
-0.742276832035218
 21
-182.6492737686218
 31
0
  0
LINE
  8
1
 62
2
 10
-2.742276832035218
 20
-174.7210705383463
 30
0
 11
-2.742276832035218
 21
-179.1851721534841
 31
0
  0
LINE
  8
1
 62
2
 10
43.25772316796486
 20
-211.8610705383468
 30
0
 11
43.25772316796486
 21
-197.0046640777958
 31
0
  0
LINE
  8
1
 62
2
 10
45.25772316796486
 20
-211.8610705383468
 30
0
 11
45.25772316796486
 21
-200.4687656929335
 31
0
  0
LINE
  8
1
 62
2
 10
47.25772316796486
 20
-211.8610705383468
 30
0
 11
47.25772316796486
 21
-203.9328673080713
 31
0
  0
LINE
  8
1
 62
2
 10
49.25772316796486
 20
-211.8610705383468
 30
0
 11
49.25772316796486
 21
-207.396968923209
 31
0
  0
LINE
  8
1
 62
1
 10
64.25772316796481
 20
-193.2910705383466
 30
0
 11
-38.34227683203503
 21
-193.2910705383466
 31
0
  0
LINE
  8
1
 62
3
 10
-14.74227683203522
 20
-221.2910705383469
 30
0
 11
-4.742276832035218
 21
-221.2910705383469
 31
0
  0
LINE
  8
1
 62
3
 10
-14.74227683203522
 20
-165.2910705383466
 30
0
 11
-4.742276832035218
 21
-165.2910705383465
 31
0
  0
LINE
  8
1
 62
3
 10
-4.742276832035218
 20
-165.2910705383465
 30
0
 11
51.25772316796486
 21
-165.2910705383468
 31
0
  0
LINE
  8
1
 62
3
 10
51.25772316796486
 20
-221.2910705383469
 30
0
 11
-4.742276832035218
 21
-221.2910705383469
 31
0
  0
LINE
  8
1
 62
3
 10
-16.34227683203519
 20
-196.4660705383465
 30
0
 11
-34.84227683203503
 21
-196.4660705383466
 31
0
  0
LINE
  8
1
 62
3
 10
-34.84227683203503
 20
-190.1160705383467
 30
0
 11
-16.34227683203519
 21
-190.1160705383466
 31
0
  0
LINE
  8
1
 62
3
 10
-35.34227683203503
 20
-190.6160705383467
 30
0
 11
-35.34227683203496
 21
-195.9660705383467
 31
0
  0
LINE
  8
1
 62
3
 10
-35.34227683203496
 20
-195.9660705383467
 30
0
 11
-34.84227683203503
 21
-196.4660705383466
 31
0
  0
LINE
  8
1
 62
3
 10
-34.84227683203503
 20
-190.1160705383467
 30
0
 11
-34.84227683203503
 21
-196.4660705383466
 31
0
  0
LINE
  8
1
 62
3
 10
-35.34227683203503
 20
-190.6160705383467
 30
0
 11
-34.84227683203503
 21
-190.1160705383467
 31
0
  0
LINE
  8
1
 62
3
 10
-16.34227683203525
 20
-178.7910705383466
 30
0
 11
-16.34227683203525
 21
-188.2410705383466
 31
0
  0
LINE
  8
1
 62
3
 10
-16.34227683203525
 20
-175.7910705383466
 30
0
 11
-16.34227683203525
 21
-178.7910705383466
 31
0
  0
LINE
  8
1
 62
3
 10
-16.34227683203503
 20
-174.3410705383466
 30
0
 11
-16.34227683203525
 21
-175.7910705383466
 31
0
  0
LINE
  8
1
 62
3
 10
-16.34227683203525
 20
-188.2410705383466
 30
0
 11
-16.34227683203519
 21
-193.2910705383465
 31
0
  0
LINE
  8
1
 62
3
 10
-14.74227683203522
 20
-165.2910705383466
 30
0
 11
-14.74227683203511
 21
-174.2410705383466
 31
0
  0
LINE
  8
1
 62
3
 10
-14.74227683203511
 20
-174.2410705383466
 30
0
 11
-16.16894349870186
 21
-174.2410705383467
 31
0
  0
LINE
  8
1
 62
3
 10
-16.16894349870186
 20
-174.2410705383467
 30
0
 11
-16.34227683203503
 21
-174.3410705383466
 31
0
  0
LINE
  8
1
 62
3
 10
-4.742276832035218
 20
-165.2910705383465
 30
0
 11
-4.742276832035218
 21
-193.2910705383466
 31
0
  0
LINE
  8
1
 62
3
 10
-16.34227683203525
 20
-198.3410705383465
 30
0
 11
-16.34227683203525
 21
-207.7910705383465
 31
0
  0
LINE
  8
1
 62
3
 10
-16.34227683203525
 20
-207.7910705383465
 30
0
 11
-16.34227683203525
 21
-210.7910705383466
 31
0
  0
LINE
  8
1
 62
3
 10
-16.34227683203525
 20
-210.7910705383466
 30
0
 11
-16.34227683203525
 21
-212.2410705383466
 31
0
  0
LINE
  8
1
 62
3
 10
-14.74227683203522
 20
-212.3410705383465
 30
0
 11
-14.74227683203522
 21
-221.2910705383469
 31
0
  0
LINE
  8
1
 62
3
 10
-16.16894349870186
 20
-212.3410705383466
 30
0
 11
-14.74227683203522
 21
-212.3410705383465
 31
0
  0
LINE
  8
1
 62
3
 10
-16.34227683203525
 20
-212.2410705383466
 30
0
 11
-16.16894349870186
 21
-212.3410705383466
 31
0
  0
LINE
  8
1
 62
3
 10
-4.742276832035218
 20
-193.2910705383466
 30
0
 11
-4.742276832035218
 21
-221.2910705383469
 31
0
  0
LINE
  8
1
 62
3
 10
-16.34227683203519
 20
-193.2910705383465
 30
0
 11
-16.34227683203525
 21
-198.3410705383465
 31
0
  0
LINE
  8
1
 62
3
 10
51.25772316796486
 20
-165.2910705383468
 30
0
 11
51.25772316796486
 21
-226.2910705383478
 31
0
  0
LINE
  8
1
 62
3
 10
61.25772316796487
 20
-225.7910705383479
 30
0
 11
60.75772316796487
 21
-226.2910705383478
 31
0
  0
LINE
  8
1
 62
3
 10
60.75772316796487
 20
-226.2910705383478
 30
0
 11
51.25772316796486
 21
-226.2910705383478
 31
0
  0
LINE
  8
1
 62
3
 10
60.75772316796487
 20
-165.2910705383467
 30
0
 11
51.25772316796486
 21
-165.2910705383468
 31
0
  0
LINE
  8
1
 62
3
 10
61.25772316796487
 20
-210.7910705383466
 30
0
 11
61.25772316796487
 21
-207.7910705383465
 31
0
  0
LINE
  8
1
 62
3
 10
61.25772316796487
 20
-178.7910705383464
 30
0
 11
61.25772316796487
 21
-175.7910705383465
 31
0
  0
LINE
  8
1
 62
3
 10
61.25772316796487
 20
-175.7910705383465
 30
0
 11
61.25772316796487
 21
-165.7910705383466
 31
0
  0
LINE
  8
1
 62
3
 10
61.25772316796487
 20
-178.7910705383464
 30
0
 11
61.25772316796487
 21
-188.1410705383466
 31
0
  0
LINE
  8
1
 62
3
 10
61.25772316796487
 20
-205.4689282827043
 30
0
 11
61.25772316796487
 21
-207.7910705383465
 31
0
  0
LINE
  8
1
 62
3
 10
61.25772316796487
 20
-198.4410705383465
 30
0
 11
61.25772316796487
 21
-205.4689282827043
 31
0
  0
LINE
  8
1
 62
3
 10
61.25772316796487
 20
-225.7910705383479
 30
0
 11
61.25772316796487
 21
-213.8380330690635
 31
0
  0
LINE
  8
1
 62
3
 10
61.25772316796487
 20
-188.1410705383466
 30
0
 11
61.25772316796487
 21
-198.4410705383465
 31
0
  0
LINE
  8
1
 62
3
 10
61.25772316796487
 20
-213.8380330690635
 30
0
 11
61.25772316796487
 21
-210.7910705383466
 31
0
  0
LINE
  8
1
 62
3
 10
60.75772316796487
 20
-165.2910705383467
 30
0
 11
61.25772316796487
 21
-165.7910705383466
 31
0
  0
LINE
  8
1
 62
3
 10
-14.74227683203511
 20
-174.2410705383466
 30
0
 11
-14.74227683203522
 21
-212.3410705383465
 31
0
  0
LINE
  8
1
 62
3
 10
-9.74227683203511
 20
-165.2910705383466
 30
0
 11
-9.74227683203511
 21
-174.7210705383463
 31
0
  0
LINE
  8
1
 62
3
 10
-9.74227683203511
 20
-174.7210705383463
 30
0
 11
61.25772316796487
 21
-174.7210705383463
 31
0
  0
LINE
  8
1
 62
3
 10
61.25772316796487
 20
-211.8610705383468
 30
0
 11
-9.74227683203511
 21
-211.8610705383468
 31
0
  0
LINE
  8
1
 62
3
 10
-9.74227683203511
 20
-211.8610705383468
 30
0
 11
-9.742276832035152
 21
-221.2910705383468
 31
0
  0
ARC
  8
1
 62
3
 10
-138.1525713431657
 20
-177.8910705383467
 30
0
 40
1.449999999999876
 50
30.21619828525926
 51
59.78380171476395
  0
ARC
  8
1
 62
3
 10
-138.1525713431657
 20
-177.8910705383467
 30
0
 40
0.6350000000000363
 50
82.54155094371134
 51
97.45844905632293
  0
ARC
  8
1
 62
3
 10
-138.1525713431657
 20
-177.8910705383467
 30
0
 40
1.450000000000293
 50
120.2161982852497
 51
149.7838017147487
  0
ARC
  8
1
 62
3
 10
-138.1525713431657
 20
-177.8910705383467
 30
0
 40
0.6350000000002007
 50
172.5415509436771
 51
187.4584490562797
  0
ARC
  8
1
 62
3
 10
-138.1525713431657
 20
-177.8910705383467
 30
0
 40
1.450000000000019
 50
210.2161982852377
 51
239.7838017147424
  0
ARC
  8
1
 62
3
 10
-138.1525713431657
 20
-177.8910705383467
 30
0
 40
0.6349999999996934
 50
262.5415509436711
 51
277.4584490562933
  0
ARC
  8
1
 62
3
 10
-138.1525713431657
 20
-177.8910705383467
 30
0
 40
1.449999999999749
 50
300.216198285244
 51
329.7838017147543
  0
ARC
  8
1
 62
3
 10
-138.1525713431657
 20
-177.8910705383467
 30
0
 40
0.6349999999996308
 50
352.5415509437143
 51
7.458449056328921
  0
ARC
  8
1
 62
3
 10
-88.5525713431658
 20
-177.8910705383467
 30
0
 40
0.6350000000000253
 50
352.541550943719
 51
7.458449056324262
  0
ARC
  8
1
 62
3
 10
-88.5525713431658
 20
-177.8910705383467
 30
0
 40
1.449999999999921
 50
300.2161982852556
 51
329.7838017147594
  0
ARC
  8
1
 62
3
 10
-88.5525713431658
 20
-177.8910705383467
 30
0
 40
0.6349999999996603
 50
262.541550943694
 51
277.4584490563162
  0
ARC
  8
1
 62
3
 10
-88.5525713431658
 20
-177.8910705383467
 30
0
 40
1.449999999999798
 50
210.2161982852429
 51
239.7838017147502
  0
ARC
  8
1
 62
3
 10
-88.5525713431658
 20
-177.8910705383467
 30
0
 40
0.634999999999919
 50
172.5415509436737
 51
187.4584490562824
  0
ARC
  8
1
 62
3
 10
-88.5525713431658
 20
-177.8910705383467
 30
0
 40
1.450000000000179
 50
120.2161982852419
 51
149.7838017147436
  0
ARC
  8
1
 62
3
 10
-88.5525713431658
 20
-177.8910705383467
 30
0
 40
0.6350000000000695
 50
82.54155094368845
 51
97.45844905630004
  0
ARC
  8
1
 62
3
 10
-88.5525713431658
 20
-177.8910705383467
 30
0
 40
1.450000000000097
 50
30.21619828525417
 51
59.78380171475036
  0
ARC
  8
1
 62
3
 10
-88.5525713431658
 20
-208.6910705383467
 30
0
 40
1.449999999999876
 50
300.2161982852593
 51
329.7838017147566
  0
ARC
  8
1
 62
3
 10
-88.5525713431658
 20
-208.6910705383467
 30
0
 40
0.6349999999997448
 50
262.541550943695
 51
277.4584490563152
  0
ARC
  8
1
 62
3
 10
-88.5525713431658
 20
-208.6910705383467
 30
0
 40
1.449999999999841
 50
210.2161982852458
 51
239.7838017147485
  0
ARC
  8
1
 62
3
 10
-88.5525713431658
 20
-208.6910705383467
 30
0
 40
0.6349999999999789
 50
172.5415509436719
 51
187.458449056283
  0
ARC
  8
1
 62
3
 10
-88.5525713431658
 20
-208.6910705383467
 30
0
 40
1.450000000000105
 50
120.2161982852436
 51
149.7838017147397
  0
ARC
  8
1
 62
3
 10
-88.5525713431658
 20
-208.6910705383467
 30
0
 40
0.6350000000001822
 50
82.5415509436898
 51
97.45844905630004
  0
ARC
  8
1
 62
3
 10
-88.5525713431658
 20
-208.6910705383467
 30
0
 40
1.450000000000154
 50
30.21619828525805
 51
59.7838017147506
  0
ARC
  8
1
 62
3
 10
-88.5525713431658
 20
-208.6910705383467
 30
0
 40
0.6350000000000253
 50
352.541550943719
 51
7.458449056326803
  0
ARC
  8
1
 62
3
 10
-138.1525713431657
 20
-208.6910705383467
 30
0
 40
0.6349999999996308
 50
352.5415509437143
 51
7.458449056331464
  0
ARC
  8
1
 62
3
 10
-138.1525713431657
 20
-208.6910705383467
 30
0
 40
1.449999999999933
 50
30.21619828526314
 51
59.78380171476226
  0
ARC
  8
1
 62
3
 10
-138.1525713431657
 20
-208.6910705383467
 30
0
 40
0.6350000000001491
 50
82.54155094371266
 51
97.45844905632293
  0
ARC
  8
1
 62
3
 10
-138.1525713431657
 20
-208.6910705383467
 30
0
 40
1.45000000000022
 50
120.2161982852513
 51
149.7838017147448
  0
ARC
  8
1
 62
3
 10
-138.1525713431657
 20
-208.6910705383467
 30
0
 40
0.6350000000002045
 50
172.5415509436745
 51
187.4584490562797
  0
ARC
  8
1
 62
3
 10
-138.1525713431657
 20
-208.6910705383467
 30
0
 40
1.450000000000062
 50
210.2161982852407
 51
239.7838017147408
  0
ARC
  8
1
 62
3
 10
-138.1525713431657
 20
-208.6910705383467
 30
0
 40
0.634999999999778
 50
262.5415509436721
 51
277.4584490562924
  0
ARC
  8
1
 62
3
 10
-138.1525713431657
 20
-208.6910705383467
 30
0
 40
1.449999999999676
 50
300.2161982852456
 51
329.7838017147514
  0
ARC
  8
1
 62
3
 10
-88.5525713431658
 20
-177.8910705383467
 30
0
 40
3.999999999999488
 50
89.99999999999024
 51
270.0000000000098
  0
ARC
  8
1
 62
3
 10
-88.5525713431658
 20
-208.6910705383467
 30
0
 40
3.999999999999318
 50
89.99999999999024
 51
270.0000000000098
  0
ARC
  8
1
 62
3
 10
-138.1525713431657
 20
-208.6910705383467
 30
0
 40
4.000000000000682
 50
270
 51
90
  0
ARC
  8
1
 62
3
 10
-88.5525713431658
 20
-208.6910705383467
 30
0
 40
3.999999999999318
 50
89.99999999999024
 51
270.0000000000098
  0
ARC
  8
1
 62
3
 10
-138.1525713431657
 20
-177.8910705383467
 30
0
 40
4.000000000000512
 50
270
 51
90
  0
ARC
  8
1
 62
3
 10
-88.5525713431658
 20
-177.8910705383467
 30
0
 40
3.999999999999488
 50
89.99999999999024
 51
270.0000000000098
  0
CIRCLE
  8
1
 62
3
 10
-138.1525713431657
 20
-177.8910705383467
 30
0
 40
2.799999999999898
  0
CIRCLE
  8
1
 62
3
 10
-88.5525713431658
 20
-177.8910705383467
 30
0
 40
2.800000000000068
  0
CIRCLE
  8
1
 62
3
 10
-88.5525713431658
 20
-208.6910705383467
 30
0
 40
2.800000000000068
  0
CIRCLE
  8
1
 62
3
 10
-138.1525713431657
 20
-208.6910705383467
 30
0
 40
2.799999999999898
  0
CIRCLE
  8
1
 62
3
 10
-136.9225713431661
 20
-169.7210705383464
 30
0
 40
2.25
  0
CIRCLE
  8
1
 62
3
 10
-136.9225713431663
 20
-216.861070538347
 30
0
 40
2.249999999999801
  0
CIRCLE
  8
1
 62
3
 10
-89.78257134316559
 20
-216.861070538347
 30
0
 40
2.250000000000227
  0
CIRCLE
  8
1
 62
3
 10
-113.3525713431659
 20
-193.2910705383466
 30
0
 40
3.174999999999798
  0
CIRCLE
  8
1
 62
3
 10
-113.3525713431659
 20
-193.2910705383466
 30
0
 40
4.75
  0
CIRCLE
  8
1
 62
3
 10
-138.1525713431657
 20
-208.6910705383467
 30
0
 40
3.000000000000199
  0
CIRCLE
  8
1
 62
3
 10
-88.5525713431658
 20
-208.6910705383467
 30
0
 40
3
  0
CIRCLE
  8
1
 62
3
 10
-138.1525713431657
 20
-177.8910705383467
 30
0
 40
3.000000000000284
  0
CIRCLE
  8
1
 62
3
 10
-88.5525713431658
 20
-177.8910705383467
 30
0
 40
3
  0
CIRCLE
  8
1
 62
3
 10
-113.3525713431659
 20
-193.2910705383466
 30
0
 40
19.05000000000011
  0
CIRCLE
  8
1
 62
3
 10
-113.3525713431659
 20
-193.2910705383466
 30
0
 40
17.5000000000001
  0
CIRCLE
  8
1
 62
3
 10
-113.3525713431659
 20
-193.2910705383466
 30
0
 40
14.50000000000016
  0
CIRCLE
  8
1
 62
3
 10
-89.78257134316587
 20
-169.7210705383464
 30
0
 40
2.25
  0
POLYLINE
  8
1
 62
2
 66
1
  0
VERTEX
  8
1
 10
-56.909269759573
 20
-267.138084066303
 30
0
 42
-0.02574957915825352
  0
VERTEX
  8
1
 10
-56.67749725082869
 20
-269.4070251109397
 30
0
 42
-0.01665364870030388
  0
VERTEX
  8
1
 10
-56.63950060431489
 20
-271.6839247009821
 30
0
 42
-0.002360368465040527
  0
VERTEX
  8
1
 10
-56.68147161181779
 20
-273.2861099848845
 30
0
 42
0.01818990731325624
  0
VERTEX
  8
1
 10
-56.68025235399189
 20
-274.2022223384345
 30
0
 42
0.03991772665869704
  0
VERTEX
  8
1
 10
-56.57342873863063
 20
-275.1056604854848
 30
0
 42
0.05967523600802593
  0
VERTEX
  8
1
 10
-56.2833995166805
 20
-275.986594396852
 30
0
  0
SEQEND
  8
1
  0
POLYLINE
  8
1
 62
2
 66
1
  0
VERTEX
  8
1
 10
-58.4144975851518
 20
-267.138084066303
 30
0
 42
-0.02574957915823811
  0
VERTEX
  8
1
 10
-58.18272507640748
 20
-269.4070251109397
 30
0
 42
-0.01665364870030076
  0
VERTEX
  8
1
 10
-58.14472842989369
 20
-271.6839247009821
 30
0
 42
-0.00236036846503431
  0
VERTEX
  8
1
 10
-58.18669943739659
 20
-273.2861099848845
 30
0
 42
0.01818990731324077
  0
VERTEX
  8
1
 10
-58.18548017957069
 20
-274.2022223384345
 30
0
 42
0.03991772665869704
  0
VERTEX
  8
1
 10
-58.07865656420943
 20
-275.1056604854848
 30
0
 42
0.05967523600801867
  0
VERTEX
  8
1
 10
-57.7886273422593
 20
-275.986594396852
 30
0
  0
SEQEND
  8
1
  0
ARC
  8
1
 62
3
 10
-130.4709409497312
 20
-219.8900975268147
 30
0
 40
1.999999999999508
 50
224.466049469764
 51
237.2358313640271
  0
ARC
  8
1
 62
3
 10
-96.2342017366002
 20
-219.8900975268147
 30
0
 40
1.999999999999164
 50
302.7641686359674
 51
315.533950530228
  0
ARC
  8
1
 62
3
 10
-97.78257134316561
 20
-223.2910705383475
 30
0
 40
3
 50
270
 51
359.9999999999772
  0
ARC
  8
1
 62
3
 10
-128.9225713431661
 20
-223.2910705383475
 30
0
 40
3
 50
180
 51
270
  0
ARC
  8
1
 62
3
 10
-128.9225713431661
 20
-223.2910705383475
 30
0
 40
3
 50
180
 51
270
  0
ARC
  8
1
 62
3
 10
-97.78257134316561
 20
-223.2910705383475
 30
0
 40
3
 50
270
 51
359.9999999999772
  0
ARC
  8
1
 62
3
 10
-138.2406238676344
 20
-177.2184764080972
 30
0
 40
0.04333333333329322
 50
225.0000000000266
 51
277.4584490563676
  0
ARC
  8
1
 62
3
 10
-138.0645188186974
 20
-177.2184764080972
 30
0
 40
0.04333333333346094
 50
262.5415509436519
 51
315
  0
ARC
  8
1
 62
3
 10
-138.8251654734152
 20
-177.9791230628149
 30
0
 40
0.0433333333333937
 50
314.9999999998937
 51
7.458449056330325
  0
ARC
  8
1
 62
3
 10
-138.8251654734152
 20
-177.803018013878
 30
0
 40
0.04333333333334822
 50
352.5415509436324
 51
44.99999999989371
  0
ARC
  8
1
 62
3
 10
-138.0645188186974
 20
-178.5636646685958
 30
0
 40
0.04333333333331332
 50
45
 51
97.45844905634807
  0
ARC
  8
1
 62
3
 10
-138.2406238676344
 20
-178.5636646685958
 30
0
 40
0.04333333333346094
 50
82.54155094365193
 51
134.9999999999734
  0
ARC
  8
1
 62
3
 10
-137.4799772129165
 20
-177.803018013878
 30
0
 40
0.04333333333329322
 50
135.000000000186
 51
187.4584490563335
  0
ARC
  8
1
 62
3
 10
-137.4799772129165
 20
-177.9791230628149
 30
0
 40
0.0433333333335418
 50
172.5415509437038
 51
225.0000000000266
  0
ARC
  8
1
 62
3
 10
-87.87997721291643
 20
-177.9791230628149
 30
0
 40
0.04333333333331635
 50
172.5415509436648
 51
225.0000000000797
  0
ARC
  8
1
 62
3
 10
-87.87997721291643
 20
-177.803018013878
 30
0
 40
0.04333333333325302
 50
135.0000000001329
 51
187.4584490563725
  0
ARC
  8
1
 62
3
 10
-88.64062386763416
 20
-178.5636646685958
 30
0
 40
0.04333333333344987
 50
82.54155094376371
 51
135.0000000000266
  0
ARC
  8
1
 62
3
 10
-88.46451881869726
 20
-178.5636646685958
 30
0
 40
0.04333333333333342
 50
44.99999999997343
 51
97.45844905631081
  0
ARC
  8
1
 62
3
 10
-89.22516547341505
 20
-177.803018013878
 30
0
 40
0.0433333333333764
 50
352.5415509436373
 51
44.99999999986714
  0
ARC
  8
1
 62
3
 10
-89.22516547341505
 20
-177.9791230628149
 30
0
 40
0.04333333333341381
 50
314.9999999999203
 51
7.458449056335204
  0
ARC
  8
1
 62
3
 10
-88.46451881869726
 20
-177.2184764080972
 30
0
 40
0.04333333333345725
 50
262.5415509436892
 51
315.0000000000266
  0
ARC
  8
1
 62
3
 10
-88.64062386763416
 20
-177.2184764080972
 30
0
 40
0.04333333333333342
 50
224.9999999999734
 51
277.4584490562558
  0
ARC
  8
1
 62
3
 10
-88.64062386763416
 20
-209.3636646685959
 30
0
 40
0.04333333333344987
 50
82.54155094376371
 51
135.0000000000266
  0
ARC
  8
1
 62
3
 10
-88.46451881869726
 20
-209.3636646685959
 30
0
 40
0.04333333333333342
 50
44.99999999997343
 51
97.45844905631081
  0
ARC
  8
1
 62
3
 10
-89.22516547341505
 20
-208.603018013878
 30
0
 40
0.04333333333331635
 50
352.5415509436648
 51
44.99999999986714
  0
ARC
  8
1
 62
3
 10
-89.22516547341505
 20
-208.7791230628149
 30
0
 40
0.04333333333325302
 50
315.0000000001328
 51
7.458449056325448
  0
ARC
  8
1
 62
3
 10
-88.46451881869726
 20
-208.0184764080971
 30
0
 40
0.04333333333345725
 50
262.5415509436892
 51
315.0000000000266
  0
ARC
  8
1
 62
3
 10
-88.64062386763416
 20
-208.0184764080971
 30
0
 40
0.04333333333333342
 50
224.9999999999734
 51
277.4584490562363
  0
ARC
  8
1
 62
3
 10
-87.87997721291643
 20
-208.7791230628149
 30
0
 40
0.04333333333331635
 50
172.5415509436648
 51
224.9999999998671
  0
ARC
  8
1
 62
3
 10
-87.87997721291643
 20
-208.603018013878
 30
0
 40
0.04333333333325302
 50
135.0000000001329
 51
187.4584490563352
  0
ARC
  8
1
 62
3
 10
-137.4799772129165
 20
-208.603018013878
 30
0
 40
0.04333333333329322
 50
135.000000000186
 51
187.4584490562962
  0
ARC
  8
1
 62
3
 10
-137.4799772129165
 20
-208.7791230628149
 30
0
 40
0.0433333333335418
 50
172.5415509437038
 51
224.999999999814
  0
ARC
  8
1
 62
3
 10
-138.2406238676344
 20
-208.0184764080971
 30
0
 40
0.04333333333329322
 50
225.0000000000266
 51
277.4584490563481
  0
ARC
  8
1
 62
3
 10
-138.0645188186974
 20
-208.0184764080971
 30
0
 40
0.04333333333346094
 50
262.5415509436519
 51
315
  0
ARC
  8
1
 62
3
 10
-138.8251654734152
 20
-208.7791230628149
 30
0
 40
0.04333333333323293
 50
315.0000000001063
 51
7.458449056330325
  0
ARC
  8
1
 62
3
 10
-138.8251654734152
 20
-208.603018013878
 30
0
 40
0.04333333333334453
 50
352.5415509436697
 51
44.99999999989371
  0
ARC
  8
1
 62
3
 10
-138.0645188186974
 20
-209.3636646685959
 30
0
 40
0.04333333333331332
 50
45
 51
97.45844905634807
  0
ARC
  8
1
 62
3
 10
-138.2406238676344
 20
-209.3636646685959
 30
0
 40
0.04333333333346094
 50
82.54155094365193
 51
134.9999999999734
  0
ARC
  8
1
 62
3
 10
-81.36079204053938
 20
-259.5263728647919
 30
0
 40
0.2999999999999545
 50
90
 51
180
  0
ARC
  8
1
 62
3
 10
-81.36079204053938
 20
-282.9263728647919
 30
0
 40
0.299999999999983
 50
180
 51
270
  0
ARC
  8
1
 62
3
 10
-140.3525713431661
 20
-203.691070538347
 30
0
 40
0.9999999999998011
 50
180
 51
270
  0
ARC
  8
1
 62
3
 10
-140.3525713431661
 20
-213.691070538347
 30
0
 40
1.000000000000085
 50
90
 51
180
  0
ARC
  8
1
 62
3
 10
-86.35257134316575
 20
-203.691070538347
 30
0
 40
1.000000000000398
 50
270.0000000000391
 51
0
  0
ARC
  8
1
 62
3
 10
-86.35257134316507
 20
-213.6910705383474
 30
0
 40
0.9999999999993179
 50
0
 51
90
  0
ARC
  8
1
 62
3
 10
-140.3525713431661
 20
-182.8910705383466
 30
0
 40
0.9999999999994031
 50
90
 51
180
  0
ARC
  8
1
 62
3
 10
-140.3525713431661
 20
-172.8910705383466
 30
0
 40
0.9999999999998011
 50
180
 51
270
  0
ARC
  8
1
 62
3
 10
-86.35257134316575
 20
-182.8910705383466
 30
0
 40
1.000000000000682
 50
0
 51
89.99999999996092
  0
ARC
  8
1
 62
3
 10
-86.35257134316575
 20
-172.8910705383466
 30
0
 40
1.000000000000597
 50
270.0000000000391
 51
0
  0
ARC
  8
1
 62
3
 10
-89.3525713431653
 20
-217.2910705383468
 30
0
 40
3.999999999999801
 50
269.9999999999919
 51
0
  0
ARC
  8
1
 62
3
 10
-137.3525713431661
 20
-217.291070538347
 30
0
 40
4
 50
180
 51
270
  0
ARC
  8
1
 62
3
 10
-137.3525713431662
 20
-169.2910705383464
 30
0
 40
3.999999999999801
 50
90
 51
180
  0
ARC
  8
1
 62
3
 10
-89.35257134316552
 20
-169.2910705383461
 30
0
 40
3.999999999999659
 50
0
 51
90
  0
TEXT
  8
1
 62
2
 10
-76.69772102448474
 20
-140.3421988375261
 30
0
 40
5
  1
KH56QM2-951
 41
0.9
  0
ENDSEC
  0
EOF
