  0
SECTION
  2
HEADER
  9
$ACADVER
  1
AC1003
  9
$INSBASE
 10
0.000000
 20
0.000000
  9
$EXTMIN
 10
0.000000
 20
0.000000
  9
$EXTMAX
 10
420.000000
 20
297.000000
  9
$LIMMIN
 10
0.000000
 20
0.000000
  9
$LIMMAX
 10
420.000000
 20
297.000000
  9
$VIEWCTR
 10
210.000000
 20
148.500000
  9
$VIEWSIZE
 40
297.000000
  9
$PEXTMIN
 10
0.000000
 20
0.000000
 30
0.000000
  9
$PEXTMAX
 10
420.000000
 20
297.000000
 30
0.000000
  9
$SNAPMODE
 70
     0
  9
$SNAPUNIT
 10
1.000000
 20
1.000000
  9
$SNAPBASE
 10
0.000000
 20
0.000000
  9
$SNAPANG
 50
0.000000
  9
$SNAPISOPAIR
 70
     0
  9
$SNAPSTYLE
 70
     0
  9
$GRIDMODE
 70
     0
  9
$GRIDUNIT
 10
0.000000
 20
0.000000
  9
$ORTHOMODE
 70
     0
  9
$REGENMODE
 70
     1
  9
$FILLMODE
 70
     1
  9
$QTEXTMODE
 70
     0
  9
$DRAGMODE
 70
     2
  9
$LTSCALE
 40
0.250000
  9
$OSMODE
 70
     0
  9
$ATTMODE
 70
     1
  9
$TEXTSIZE
 40
0.200000
  9
$TRACEWID
 40
0.050000
  9
$TEXTSTYLE
  7
STANDARD
  9
$CLAYER
  8
0
  9
$CELTYPE
  6
BYLAYER
  9
$CECOLOR
 62
   256
  9
$DIMSCALE
 40
1.000000
  9
$DIMASZ
 40
1.000000
  9
$DIMEXO
 40
0.000000
  9
$DIMDLI
 40
0.500000
  9
$DIMRND
 40
0.000000
  9
$DIMDLE
 40
0.000000
  9
$DIMEXE
 40
0.000000
  9
$DIMTP
 40
0.000000
  9
$DIMTM
 40
0.000000
  9
$DIMTXT
 40
0.180000
  9
$DIMCEN
 40
0.000000
  9
$DIMTSZ
 40
0.000000
  9
$DIMTOL
 70
     0
  9
$DIMLIM
 70
     0
  9
$DIMTIH
 70
     1
  9
$DIMTOH
 70
     1
  9
$DIMSE1
 70
     0
  9
$DIMSE2
 70
     0
  9
$DIMTAD
 70
     0
  9
$DIMZIN
 70
     0
  9
$DIMBLK
  1

  9
$DIMASO
 70
     0
  9
$DIMSHO
 70
     0
  9
$DIMPOST
  1

  9
$DIMAPOST
  1

  9
$DIMALT
 70
     0
  9
$DIMALTD
 70
     0
  9
$DIMALTF
 40
25.400000
  9
$DIMLFAC
 40
1.000000
  9
$DIMTOFL
 70
     0
  9
$DIMTVP
 40
0.000000
  9
$DIMTIX
 70
     0
  9
$DIMSOXD
 70
     0
  9
$DIMSAH
 70
     0
  9
$DIMBLKL
  1

  9
$DIMBLKR
  1

  9
$LUNITS
 70
     2
  9
$LUPREC
 70
     2
  9
$AXISMODE
 70
     0
  9
$AXISUNIT
 10
1.000000
 20
1.000000
  9
$SKETCHINC
 40
0.000000
  9
$FILLETRAD
 40
0.000000
  9
$AUNITS
 70
     1
  9
$AUPREC
 70
     2
  9
$MENU
  1
ACAD
  9
$ELEVATION
 40
0.000000
  9
$THICKNESS
 40
0.000000
  9
$VIEWDIR
 10
0.000000
 20
0.000000
 30
1.000000
  9
$LIMCHECK
 70
     1
  9
$BLIPMODE
 70
     1
  9
$CHAMFERA
 40
0.000000
  9
$CHAMFERB
 40
0.000000
  9
$FASTZOOM
 70
     1
  9
$SKPOLY
 70
     0
  9
$TDCREATE
 40
0.000000
  9
$TDUPDATE
 40
0.000000
  9
$TDINDWG
 40
0.000000
  9
$TDUSRTIMER
 40
0.000000
  9
$USRTIMER
 70
     1
  9
$ANGBASE
 50
0.000000
  9
$ANGDIR
 70
     0
  9
$PDMODE
 70
     0
  9
$PDSIZE
 40
0.000000
  9
$PLINEWID
 40
0.000000
  9
$COORDS
 70
     2
  9
$USERI1
 70
     0
  9
$USERI2
 70
     0
  9
$USERI3
 70
     0
  9
$USERI4
 70
     0
  9
$USERI5
 70
     0
  9
$USERR1
 40
0.000000
  9
$USERR2
 40
0.000000
  9
$USERR3
 40
0.000000
  9
$USERR4
 40
0.000000
  9
$USERR5
 40
0.000000
  0
ENDSEC
  0
SECTION
  2
TABLES
  0
TABLE
  2
LTYPE
 70
     5
  0
LTYPE
  2
CONTINUOUS
 70
    64
  3
Solid line
 72
    65
 73
     0
 40
0.0
  0
LTYPE
  2
HIDDEN
 70
    64
  3
------------------------
 72
    65
 73
     2
 40
12.6
 49
8.4
 49
-4.2
  0
LTYPE
  2
DOT
 70
    64
  3
････････････････････････
 72
    65
 73
     2
 40
8.0
 49
6.0
 49
-2.0
  0
LTYPE
  2
DASHDOT
 70
    64
  3
--･--･--･--･--･--･--･--
 72
    65
 73
     4
 40
50.5
 49
30.0
 49
-9.0
 49
2.5
 49
-9.0
  0
LTYPE
  2
DIVIDE
 70
    64
  3
--･･--･･--･･--･･--･･--
 72
    65
 73
     6
 40
58.0
 49
30.0
 49
-9.0
 49
2.5
 49
-5.0
 49
2.5
 49
-9.0
  0
ENDTAB
  0
TABLE
  2
LAYER
 70
1
  0
LAYER
  2
1
 70
64
 62
7
  6
CONTINUOUS
  0
ENDTAB
  0
TABLE
  2
STYLE
 70
     2
  0
STYLE
  2
STANDARD
 70
    64
 40
0.0
 41
1.0
 50
0.0
 71
     0
 42
0.2
  3
TXT
  4

  0
STYLE
  2
KANJI
 70
    64
 40
0.0
 41
1.0
 50
0.0
 71
     0
 42
0.2
  3
TXT
  4
BIGFONT
  0
ENDTAB
  0
TABLE
  2
VIEW
 70
     0
  0
ENDTAB
  0
ENDSEC
  0
SECTION
  2
BLOCKS
  0
ENDSEC
  0
SECTION
  2
ENTITIES
  0
CIRCLE
  8
1
 62
7
  6
DIVIDE
 10
0.000000
 20
0.000000
 40
0.500000
  0
CIRCLE
  8
1
 62
7
  6
DIVIDE
 10
0.000000
 20
0.000000
 40
0.250000
  0
LINE
  8
1
 62
7
  6
CONTINUOUS
 10
142.386673
 20
61.944171
 11
139.486673
 21
62.044171
  0
LINE
  8
1
 62
7
  6
CONTINUOUS
 10
139.486673
 20
62.044171
 11
138.986673
 21
62.444171
  0
LINE
  8
1
 62
7
  6
CONTINUOUS
 10
138.986673
 20
62.444171
 11
137.836673
 21
62.444171
  0
LINE
  8
1
 62
7
  6
CONTINUOUS
 10
137.836673
 20
62.444171
 11
136.336673
 21
61.844171
  0
LINE
  8
1
 62
7
  6
CONTINUOUS
 10
136.336673
 20
61.844171
 11
136.336673
 21
61.244171
  0
LINE
  8
1
 62
7
  6
CONTINUOUS
 10
139.486673
 20
38.444171
 11
142.386673
 21
38.544171
  0
LINE
  8
1
 62
7
  6
CONTINUOUS
 10
138.986673
 20
38.044171
 11
139.486673
 21
38.444171
  0
LINE
  8
1
 62
7
  6
CONTINUOUS
 10
137.836673
 20
38.044171
 11
138.986673
 21
38.044171
  0
LINE
  8
1
 62
7
  6
CONTINUOUS
 10
136.336673
 20
38.644171
 11
137.836673
 21
38.044171
  0
LINE
  8
1
 62
7
  6
CONTINUOUS
 10
136.336673
 20
39.244171
 11
136.336673
 21
38.644171
  0
LINE
  8
1
 62
7
  6
CONTINUOUS
 10
136.336673
 20
39.244171
 11
141.586673
 21
39.244171
  0
LINE
  8
1
 62
7
  6
CONTINUOUS
 10
136.336673
 20
61.244171
 11
141.586673
 21
61.244171
  0
LINE
  8
1
 62
7
  6
CONTINUOUS
 10
141.586673
 20
61.244171
 11
141.586673
 21
39.244171
  0
LINE
  8
1
 62
7
  6
CONTINUOUS
 10
141.586673
 20
36.144171
 11
141.586673
 21
35.344171
  0
LINE
  8
1
 62
7
  6
CONTINUOUS
 10
134.636673
 20
64.344171
 11
134.636673
 21
36.144171
  0
LINE
  8
1
 62
7
  6
CONTINUOUS
 10
141.586673
 20
64.344171
 11
134.636673
 21
64.344171
  0
LINE
  8
1
 62
7
  6
CONTINUOUS
 10
141.586673
 20
36.144171
 11
134.636673
 21
36.144171
  0
LINE
  8
1
 62
7
  6
CONTINUOUS
 10
210.507244
 20
54.544171
 11
220.507244
 21
54.544171
  0
LINE
  8
1
 62
7
  6
CONTINUOUS
 10
210.507244
 20
54.244171
 11
220.507244
 21
54.244171
  0
LINE
  8
1
 62
7
  6
CONTINUOUS
 10
210.507244
 20
53.944171
 11
220.507244
 21
53.944171
  0
LINE
  8
1
 62
7
  6
CONTINUOUS
 10
210.507244
 20
52.944171
 11
220.507244
 21
52.944171
  0
LINE
  8
1
 62
7
  6
CONTINUOUS
 10
210.507244
 20
52.644171
 11
220.507244
 21
52.644171
  0
LINE
  8
1
 62
7
  6
CONTINUOUS
 10
210.507244
 20
52.344171
 11
220.507244
 21
52.344171
  0
LINE
  8
1
 62
7
  6
CONTINUOUS
 10
210.507244
 20
51.344171
 11
220.507244
 21
51.344171
  0
LINE
  8
1
 62
7
  6
CONTINUOUS
 10
210.507244
 20
51.044171
 11
220.507244
 21
51.044171
  0
LINE
  8
1
 62
7
  6
CONTINUOUS
 10
210.507244
 20
50.744171
 11
220.507244
 21
50.744171
  0
LINE
  8
1
 62
7
  6
CONTINUOUS
 10
210.507244
 20
49.744171
 11
220.507244
 21
49.744171
  0
LINE
  8
1
 62
7
  6
CONTINUOUS
 10
210.507244
 20
49.444171
 11
220.507244
 21
49.444171
  0
LINE
  8
1
 62
7
  6
CONTINUOUS
 10
210.507244
 20
49.144171
 11
220.507244
 21
49.144171
  0
LINE
  8
1
 62
7
  6
CONTINUOUS
 10
210.507244
 20
47.544171
 11
220.507244
 21
47.544171
  0
LINE
  8
1
 62
7
  6
CONTINUOUS
 10
210.507244
 20
47.844171
 11
220.507244
 21
47.844171
  0
LINE
  8
1
 62
7
  6
CONTINUOUS
 10
210.507244
 20
48.144171
 11
220.507244
 21
48.144171
  0
LINE
  8
1
 62
7
  6
CONTINUOUS
 10
210.507244
 20
46.544171
 11
220.507244
 21
46.544171
  0
LINE
  8
1
 62
7
  6
CONTINUOUS
 10
210.507244
 20
46.244171
 11
220.507244
 21
46.244171
  0
LINE
  8
1
 62
7
  6
CONTINUOUS
 10
210.507244
 20
45.944171
 11
220.507244
 21
45.944171
  0
LINE
  8
1
 62
7
  6
CONTINUOUS
 10
210.507244
 20
45.444171
 11
210.507244
 21
55.044171
  0
LINE
  8
1
 62
7
  6
CONTINUOUS
 10
160.075508
 20
55.044171
 11
165.075508
 21
55.044171
  0
LINE
  8
1
 62
7
  6
CONTINUOUS
 10
160.075508
 20
53.444171
 11
165.075508
 21
53.444171
  0
LINE
  8
1
 62
7
  6
CONTINUOUS
 10
160.075508
 20
51.844171
 11
165.075508
 21
51.844171
  0
LINE
  8
1
 62
7
  6
CONTINUOUS
 10
160.075508
 20
50.244171
 11
165.075508
 21
50.244171
  0
LINE
  8
1
 62
7
  6
CONTINUOUS
 10
160.075508
 20
48.644171
 11
165.075508
 21
48.644171
  0
LINE
  8
1
 62
7
  6
CONTINUOUS
 10
160.075508
 20
47.044171
 11
165.075508
 21
47.044171
  0
LINE
  8
1
 62
7
  6
CONTINUOUS
 10
160.075508
 20
45.444171
 11
165.075508
 21
45.444171
  0
LINE
  8
1
 62
7
  6
CONTINUOUS
 10
147.386673
 20
63.544171
 11
160.075508
 21
55.044171
  0
LINE
  8
1
 62
7
  6
CONTINUOUS
 10
147.386673
 20
61.944171
 11
160.075508
 21
53.444171
  0
LINE
  8
1
 62
7
  6
CONTINUOUS
 10
147.386673
 20
58.544171
 11
160.075508
 21
53.444171
  0
LINE
  8
1
 62
7
  6
CONTINUOUS
 10
147.386673
 20
56.944171
 11
160.075508
 21
51.844171
  0
LINE
  8
1
 62
7
  6
CONTINUOUS
 10
147.386673
 20
53.544171
 11
160.075508
 21
51.844171
  0
LINE
  8
1
 62
7
  6
CONTINUOUS
 10
147.386673
 20
51.944171
 11
160.075508
 21
50.244171
  0
LINE
  8
1
 62
7
  6
CONTINUOUS
 10
147.386673
 20
48.544171
 11
160.075508
 21
50.244171
  0
LINE
  8
1
 62
7
  6
CONTINUOUS
 10
147.386673
 20
46.944171
 11
160.075508
 21
48.644171
  0
LINE
  8
1
 62
7
  6
CONTINUOUS
 10
147.386673
 20
43.544171
 11
160.075508
 21
48.644171
  0
LINE
  8
1
 62
7
  6
CONTINUOUS
 10
147.386673
 20
41.944171
 11
160.075508
 21
47.044171
  0
LINE
  8
1
 62
7
  6
CONTINUOUS
 10
147.386673
 20
38.544171
 11
160.075508
 21
47.044171
  0
LINE
  8
1
 62
7
  6
CONTINUOUS
 10
147.386673
 20
36.944171
 11
160.075508
 21
45.444171
  0
LINE
  8
1
 62
7
  6
CONTINUOUS
 10
142.386673
 20
63.544171
 11
147.386673
 21
63.544171
  0
LINE
  8
1
 62
7
  6
CONTINUOUS
 10
142.386673
 20
61.944171
 11
147.386673
 21
61.944171
  0
LINE
  8
1
 62
7
  6
CONTINUOUS
 10
142.386673
 20
58.544171
 11
147.386673
 21
58.544171
  0
LINE
  8
1
 62
7
  6
CONTINUOUS
 10
142.386673
 20
56.944171
 11
147.386673
 21
56.944171
  0
LINE
  8
1
 62
7
  6
CONTINUOUS
 10
142.386673
 20
53.544171
 11
147.386673
 21
53.544171
  0
LINE
  8
1
 62
7
  6
CONTINUOUS
 10
142.386673
 20
51.944171
 11
147.386673
 21
51.944171
  0
LINE
  8
1
 62
7
  6
CONTINUOUS
 10
142.386673
 20
48.544171
 11
147.386673
 21
48.544171
  0
LINE
  8
1
 62
7
  6
CONTINUOUS
 10
142.386673
 20
46.944171
 11
147.386673
 21
46.944171
  0
LINE
  8
1
 62
7
  6
CONTINUOUS
 10
142.386673
 20
43.544171
 11
147.386673
 21
43.544171
  0
LINE
  8
1
 62
7
  6
CONTINUOUS
 10
142.386673
 20
41.944171
 11
147.386673
 21
41.944171
  0
LINE
  8
1
 62
7
  6
CONTINUOUS
 10
142.386673
 20
38.544171
 11
147.386673
 21
38.544171
  0
LINE
  8
1
 62
7
  6
CONTINUOUS
 10
142.386673
 20
36.944171
 11
147.386673
 21
36.944171
  0
LINE
  8
1
 62
7
  6
CONTINUOUS
 10
166.580735
 20
37.744171
 11
166.580735
 21
62.744171
  0
LINE
  8
1
 62
7
  6
CONTINUOUS
 10
165.075508
 20
37.744171
 11
165.075508
 21
62.744171
  0
LINE
  8
1
 62
7
  6
CONTINUOUS
 10
166.580735
 20
55.044171
 11
210.507244
 21
55.044171
  0
LINE
  8
1
 62
7
  6
CONTINUOUS
 10
166.580735
 20
53.444171
 11
210.507244
 21
53.444171
  0
LINE
  8
1
 62
7
  6
CONTINUOUS
 10
166.580735
 20
51.844171
 11
210.507244
 21
51.844171
  0
LINE
  8
1
 62
7
  6
CONTINUOUS
 10
166.580735
 20
50.244171
 11
210.507244
 21
50.244171
  0
LINE
  8
1
 62
7
  6
CONTINUOUS
 10
166.580735
 20
48.644171
 11
210.507244
 21
48.644171
  0
LINE
  8
1
 62
7
  6
CONTINUOUS
 10
166.580735
 20
47.044171
 11
210.507244
 21
47.044171
  0
LINE
  8
1
 62
7
  6
CONTINUOUS
 10
166.580735
 20
45.444171
 11
210.507244
 21
45.444171
  0
LINE
  8
1
 62
7
  6
CONTINUOUS
 10
141.586673
 20
65.144171
 11
141.586673
 21
64.344171
  0
LINE
  8
1
 62
7
  6
CONTINUOUS
 10
142.386673
 20
65.144171
 11
141.586673
 21
65.144171
  0
LINE
  8
1
 62
7
  6
CONTINUOUS
 10
142.386673
 20
35.344171
 11
142.386673
 21
65.144171
  0
LINE
  8
1
 62
7
  6
CONTINUOUS
 10
141.586673
 20
35.344171
 11
142.386673
 21
35.344171
  0
LINE
  8
1
 62
7
  6
CONTINUOUS
 10
142.104856
 20
137.994560
 11
142.104856
 21
131.644560
  0
LINE
  8
1
 62
7
  6
CONTINUOUS
 10
142.104856
 20
131.644560
 11
161.104856
 21
131.644560
  0
LINE
  8
1
 62
7
  6
CONTINUOUS
 10
142.104856
 20
137.994560
 11
161.104856
 21
137.994560
  0
LINE
  8
1
 62
7
  6
CONTINUOUS
 10
100.704856
 20
149.846180
 11
100.704856
 21
134.819560
  0
LINE
  8
1
 62
7
  6
CONTINUOUS
 10
72.704856
 20
162.819560
 11
96.704856
 21
162.819560
  0
LINE
  8
1
 62
7
  6
CONTINUOUS
 10
100.704856
 20
158.819560
 11
100.704856
 21
134.819560
  0
LINE
  8
1
 62
7
  6
CONTINUOUS
 10
44.704856
 20
126.648202
 11
44.704856
 21
134.819560
  0
LINE
  8
1
 62
7
  6
CONTINUOUS
 10
44.704856
 20
134.819560
 11
44.704856
 21
158.819560
  0
LINE
  8
1
 62
7
  6
CONTINUOUS
 10
44.704856
 20
134.819560
 11
44.704856
 21
142.990918
  0
LINE
  8
1
 62
7
  6
CONTINUOUS
 10
48.704856
 20
162.819560
 11
72.704856
 21
162.819560
  0
LINE
  8
1
 62
7
  6
CONTINUOUS
 10
44.704856
 20
126.648202
 11
44.704856
 21
134.819560
  0
LINE
  8
1
 62
7
  6
CONTINUOUS
 10
44.704856
 20
119.792940
 11
44.704856
 21
134.819560
  0
LINE
  8
1
 62
7
  6
CONTINUOUS
 10
72.704856
 20
106.819560
 11
48.704856
 21
106.819560
  0
LINE
  8
1
 62
7
  6
CONTINUOUS
 10
44.704856
 20
110.819560
 11
44.704856
 21
134.819560
  0
LINE
  8
1
 62
7
  6
CONTINUOUS
 10
44.704856
 20
126.648202
 11
44.704856
 21
134.819560
  0
LINE
  8
1
 62
7
  6
CONTINUOUS
 10
100.704856
 20
134.819560
 11
100.704856
 21
110.819560
  0
LINE
  8
1
 62
7
  6
CONTINUOUS
 10
96.704856
 20
106.819560
 11
72.704856
 21
106.819560
  0
LINE
  8
1
 62
7
  6
CONTINUOUS
 10
45.616949
 20
111.249560
 11
53.057719
 21
111.249560
  0
LINE
  8
1
 62
7
  6
CONTINUOUS
 10
49.134856
 20
114.956171
 11
49.134856
 21
107.615951
  0
LINE
  8
1
 62
7
  6
CONTINUOUS
 10
92.568245
 20
111.249560
 11
99.908464
 21
111.249560
  0
LINE
  8
1
 62
7
  6
CONTINUOUS
 10
96.274856
 20
154.682949
 11
96.274856
 21
162.023168
  0
LINE
  8
1
 62
7
  6
CONTINUOUS
 10
52.841467
 20
158.389560
 11
45.501247
 21
158.389560
  0
LINE
  8
1
 62
7
  6
CONTINUOUS
 10
96.274856
 20
107.731653
 11
96.274856
 21
115.172423
  0
LINE
  8
1
 62
7
  6
CONTINUOUS
 10
99.792763
 20
158.389560
 11
92.351993
 21
158.389560
  0
LINE
  8
1
 62
7
  6
CONTINUOUS
 10
49.134856
 20
161.907467
 11
49.134856
 21
154.466697
  0
LINE
  8
1
 62
7
  6
CONTINUOUS
 10
87.704856
 20
101.519560
 11
57.704856
 21
101.519560
  0
LINE
  8
1
 62
7
  6
CONTINUOUS
 10
72.704856
 20
105.319560
 11
57.074859
 21
105.319560
  0
LINE
  8
1
 62
7
  6
CONTINUOUS
 10
86.279792
 20
105.319560
 11
72.704856
 21
105.319560
  0
LINE
  8
1
 62
7
  6
CONTINUOUS
 10
88.334853
 20
105.319560
 11
86.279792
 21
105.319560
  0
LINE
  8
1
 62
7
  6
CONTINUOUS
 10
56.704856
 20
101.519560
 11
56.704856
 21
105.354083
  0
LINE
  8
1
 62
7
  6
CONTINUOUS
 10
57.704856
 20
101.519560
 11
56.704856
 21
101.519560
  0
LINE
  8
1
 62
7
  6
CONTINUOUS
 10
88.704856
 20
101.519560
 11
87.704856
 21
101.519560
  0
LINE
  8
1
 62
7
  6
CONTINUOUS
 10
88.704856
 20
105.354083
 11
88.704856
 21
101.519560
  0
LINE
  8
1
 62
7
  6
CONTINUOUS
 10
61.254856
 20
101.519560
 11
61.254856
 21
105.119560
  0
LINE
  8
1
 62
7
  6
CONTINUOUS
 10
61.254856
 20
105.119560
 11
60.754856
 21
105.119560
  0
LINE
  8
1
 62
7
  6
CONTINUOUS
 10
59.754856
 20
104.119560
 11
59.754856
 21
101.519560
  0
LINE
  8
1
 62
7
  6
CONTINUOUS
 10
84.154856
 20
105.119560
 11
84.154856
 21
101.519560
  0
LINE
  8
1
 62
7
  6
CONTINUOUS
 10
84.654856
 20
105.119560
 11
84.154856
 21
105.119560
  0
LINE
  8
1
 62
7
  6
CONTINUOUS
 10
85.654856
 20
101.519560
 11
85.654856
 21
104.119560
  0
LINE
  8
1
 62
7
  6
CONTINUOUS
 10
57.604856
 20
105.319560
 11
57.604856
 21
101.519560
  0
LINE
  8
1
 62
7
  6
CONTINUOUS
 10
87.804856
 20
105.319560
 11
87.804856
 21
101.519560
  0
LINE
  8
1
 62
7
  6
HIDDEN
 10
57.804856
 20
99.069560
 11
57.804856
 21
98.269560
  0
LINE
  8
1
 62
7
  6
HIDDEN
 10
57.804856
 20
98.269560
 11
59.404856
 21
98.269560
  0
LINE
  8
1
 62
7
  6
HIDDEN
 10
87.604856
 20
98.269560
 11
87.604856
 21
99.069560
  0
LINE
  8
1
 62
7
  6
HIDDEN
 10
87.604856
 20
99.069560
 11
86.804856
 21
99.069560
  0
LINE
  8
1
 62
7
  6
HIDDEN
 10
58.604856
 20
99.069560
 11
58.604856
 21
101.519560
  0
LINE
  8
1
 62
7
  6
HIDDEN
 10
86.804856
 20
99.069560
 11
86.804856
 21
101.519560
  0
LINE
  8
1
 62
7
  6
HIDDEN
 10
59.404856
 20
98.269560
 11
59.404856
 21
88.269560
  0
LINE
  8
1
 62
7
  6
HIDDEN
 10
61.004856
 20
98.269560
 11
61.004856
 21
88.269560
  0
LINE
  8
1
 62
7
  6
HIDDEN
 10
64.404856
 20
98.269560
 11
64.404856
 21
88.269560
  0
LINE
  8
1
 62
7
  6
HIDDEN
 10
66.004856
 20
98.269560
 11
66.004856
 21
88.269560
  0
LINE
  8
1
 62
7
  6
HIDDEN
 10
69.404856
 20
98.269560
 11
69.404856
 21
88.269560
  0
LINE
  8
1
 62
7
  6
HIDDEN
 10
71.004856
 20
98.269560
 11
71.004856
 21
88.269560
  0
LINE
  8
1
 62
7
  6
HIDDEN
 10
74.404856
 20
98.269560
 11
74.404856
 21
88.269560
  0
LINE
  8
1
 62
7
  6
HIDDEN
 10
76.004856
 20
98.269560
 11
76.004856
 21
88.269560
  0
LINE
  8
1
 62
7
  6
HIDDEN
 10
79.404856
 20
98.269560
 11
79.404856
 21
88.269560
  0
LINE
  8
1
 62
7
  6
HIDDEN
 10
81.004856
 20
98.269560
 11
81.004856
 21
88.269560
  0
LINE
  8
1
 62
7
  6
HIDDEN
 10
84.404856
 20
98.269560
 11
84.404856
 21
88.269560
  0
LINE
  8
1
 62
7
  6
HIDDEN
 10
86.004856
 20
98.269560
 11
86.004856
 21
88.269560
  0
LINE
  8
1
 62
7
  6
HIDDEN
 10
58.604856
 20
99.069560
 11
57.804856
 21
99.069560
  0
LINE
  8
1
 62
7
  6
HIDDEN
 10
61.004856
 20
98.269560
 11
64.404856
 21
98.269560
  0
LINE
  8
1
 62
7
  6
HIDDEN
 10
66.004856
 20
98.269560
 11
69.404856
 21
98.269560
  0
LINE
  8
1
 62
7
  6
HIDDEN
 10
71.004856
 20
98.269560
 11
74.404856
 21
98.269560
  0
LINE
  8
1
 62
7
  6
HIDDEN
 10
76.004856
 20
98.269560
 11
79.404856
 21
98.269560
  0
LINE
  8
1
 62
7
  6
HIDDEN
 10
81.004856
 20
98.269560
 11
84.404856
 21
98.269560
  0
LINE
  8
1
 62
7
  6
HIDDEN
 10
86.004856
 20
98.269560
 11
87.604856
 21
98.269560
  0
LINE
  8
1
 62
7
  6
CONTINUOUS
 10
210.441371
 20
168.820472
 11
210.441371
 21
171.320472
  0
LINE
  8
1
 62
7
  6
CONTINUOUS
 10
207.941371
 20
170.320472
 11
210.441371
 21
168.820472
  0
LINE
  8
1
 62
7
  6
CONTINUOUS
 10
212.941371
 20
170.320472
 11
207.941371
 21
170.320472
  0
LINE
  8
1
 62
7
  6
CONTINUOUS
 10
207.441371
 20
173.320472
 11
213.441371
 21
173.320472
  0
LINE
  8
1
 62
7
  6
CONTINUOUS
 10
213.441371
 20
167.320472
 11
207.441371
 21
167.320472
  0
LINE
  8
1
 62
7
  6
CONTINUOUS
 10
213.441371
 20
193.320472
 11
213.441371
 21
167.320472
  0
LINE
  8
1
 62
7
  6
CONTINUOUS
 10
207.441371
 20
193.320472
 11
213.441371
 21
193.320472
  0
LINE
  8
1
 62
7
  6
CONTINUOUS
 10
207.441371
 20
167.320472
 11
207.441371
 21
193.320472
  0
LINE
  8
1
 62
7
  6
CONTINUOUS
 10
162.704856
 20
153.869560
 11
161.104856
 21
153.869560
  0
LINE
  8
1
 62
7
  6
CONTINUOUS
 10
161.104856
 20
153.869560
 11
161.104856
 21
115.769560
  0
LINE
  8
1
 62
7
  6
CONTINUOUS
 10
161.104856
 20
115.769560
 11
162.704856
 21
115.769560
  0
LINE
  8
1
 62
7
  6
CONTINUOUS
 10
140.306195
 20
134.819560
 11
222.055969
 21
134.819560
  0
LINE
  8
1
 62
7
  6
CONTINUOUS
 10
162.704856
 20
162.819560
 11
162.704856
 21
106.819560
  0
LINE
  8
1
 62
7
  6
CONTINUOUS
 10
162.704856
 20
106.819560
 11
176.004856
 21
106.819560
  0
LINE
  8
1
 62
7
  6
CONTINUOUS
 10
176.004856
 20
162.819560
 11
162.704856
 21
162.819560
  0
LINE
  8
1
 62
7
  6
CONTINUOUS
 10
176.004856
 20
162.819560
 11
202.404856
 21
162.819560
  0
LINE
  8
1
 62
7
  6
CONTINUOUS
 10
216.704856
 20
161.819560
 11
216.704856
 21
106.319560
  0
LINE
  8
1
 62
7
  6
CONTINUOUS
 10
215.704856
 20
105.319560
 11
204.704856
 21
105.319560
  0
LINE
  8
1
 62
7
  6
CONTINUOUS
 10
202.404856
 20
162.819560
 11
215.704856
 21
162.819560
  0
LINE
  8
1
 62
7
  6
CONTINUOUS
 10
176.004856
 20
106.819560
 11
204.704856
 21
106.819560
  0
LINE
  8
1
 62
7
  6
CONTINUOUS
 10
204.704856
 20
105.319560
 11
204.704856
 21
101.519560
  0
LINE
  8
1
 62
7
  6
CONTINUOUS
 10
204.704856
 20
101.519560
 11
211.604856
 21
101.519560
  0
LINE
  8
1
 62
7
  6
CONTINUOUS
 10
211.604856
 20
101.519560
 11
211.604856
 21
105.319560
  0
LINE
  8
1
 62
7
  6
CONTINUOUS
 10
174.704856
 20
162.819560
 11
174.704856
 21
158.015651
  0
LINE
  8
1
 62
7
  6
CONTINUOUS
 10
175.704856
 20
162.819560
 11
175.704856
 21
156.312024
  0
LINE
  8
1
 62
7
  6
CONTINUOUS
 10
176.704856
 20
162.819560
 11
176.700240
 21
155.764996
  0
LINE
  8
1
 62
7
  6
CONTINUOUS
 10
177.704856
 20
162.819560
 11
177.704856
 21
155.764996
  0
LINE
  8
1
 62
7
  6
CONTINUOUS
 10
178.704856
 20
162.819560
 11
178.704856
 21
155.764996
  0
LINE
  8
1
 62
7
  6
CONTINUOUS
 10
179.704856
 20
162.819560
 11
179.704856
 21
155.764996
  0
LINE
  8
1
 62
7
  6
CONTINUOUS
 10
180.704856
 20
162.819560
 11
180.704856
 21
155.764996
  0
LINE
  8
1
 62
7
  6
CONTINUOUS
 10
181.704856
 20
162.819560
 11
181.704856
 21
155.764996
  0
LINE
  8
1
 62
7
  6
CONTINUOUS
 10
196.704856
 20
123.551819
 11
196.704856
 21
113.874123
  0
LINE
  8
1
 62
7
  6
CONTINUOUS
 10
197.704856
 20
121.845231
 11
197.704856
 21
113.874123
  0
LINE
  8
1
 62
7
  6
CONTINUOUS
 10
198.704856
 20
120.209667
 11
198.704856
 21
113.874123
  0
LINE
  8
1
 62
7
  6
CONTINUOUS
 10
199.704856
 20
118.445453
 11
199.704856
 21
113.874123
  0
LINE
  8
1
 62
7
  6
CONTINUOUS
 10
200.704856
 20
116.736371
 11
200.704856
 21
113.874123
  0
LINE
  8
1
 62
7
  6
CONTINUOUS
 10
202.704856
 20
113.521192
 11
202.704856
 21
106.819560
  0
LINE
  8
1
 62
7
  6
CONTINUOUS
 10
201.704856
 20
106.819560
 11
201.704856
 21
113.874123
  0
LINE
  8
1
 62
7
  6
CONTINUOUS
 10
203.704856
 20
111.605703
 11
203.704856
 21
106.819560
  0
LINE
  8
1
 62
7
  6
CONTINUOUS
 10
181.704856
 20
155.764996
 11
181.704856
 21
146.090262
  0
LINE
  8
1
 62
7
  6
CONTINUOUS
 10
180.704856
 20
155.764996
 11
180.704856
 21
147.793889
  0
LINE
  8
1
 62
7
  6
CONTINUOUS
 10
179.704856
 20
155.764996
 11
179.704856
 21
149.497516
  0
LINE
  8
1
 62
7
  6
CONTINUOUS
 10
178.704856
 20
155.764996
 11
178.704856
 21
151.201143
  0
LINE
  8
1
 62
7
  6
CONTINUOUS
 10
177.704856
 20
155.764996
 11
177.704856
 21
152.904770
  0
LINE
  8
1
 62
7
  6
CONTINUOUS
 10
200.704856
 20
113.874123
 11
200.704856
 21
106.821581
  0
LINE
  8
1
 62
7
  6
CONTINUOUS
 10
199.704856
 20
113.874123
 11
199.704856
 21
106.827036
  0
LINE
  8
1
 62
7
  6
CONTINUOUS
 10
198.704856
 20
113.874123
 11
198.704856
 21
106.887623
  0
LINE
  8
1
 62
7
  6
CONTINUOUS
 10
197.704856
 20
113.874123
 11
197.704856
 21
106.819560
  0
LINE
  8
1
 62
7
  6
CONTINUOUS
 10
196.704856
 20
113.874123
 11
196.704856
 21
106.822521
  0
LINE
  8
1
 62
7
  6
CONTINUOUS
 10
204.568988
 20
163.819560
 11
215.792670
 21
163.819560
  0
LINE
  8
1
 62
7
  6
CONTINUOUS
 10
172.704856
 20
162.819560
 11
172.704856
 21
106.819560
  0
LINE
  8
1
 62
7
  6
CONTINUOUS
 10
204.704856
 20
162.819560
 11
204.704856
 21
105.319560
  0
LINE
  8
1
 62
7
  6
CONTINUOUS
 10
167.704856
 20
162.819560
 11
167.704856
 21
153.389560
  0
LINE
  8
1
 62
7
  6
CONTINUOUS
 10
167.704856
 20
153.389560
 11
204.704856
 21
153.389560
  0
LINE
  8
1
 62
7
  6
CONTINUOUS
 10
167.704856
 20
106.819560
 11
167.704856
 21
116.249560
  0
LINE
  8
1
 62
7
  6
CONTINUOUS
 10
167.704856
 20
116.249560
 11
204.704856
 21
116.249560
  0
LINE
  8
1
 62
7
  6
CONTINUOUS
 10
204.704856
 20
153.389560
 11
216.704856
 21
153.389560
  0
LINE
  8
1
 62
7
  6
CONTINUOUS
 10
204.704856
 20
116.249560
 11
216.704856
 21
116.249560
  0
LINE
  8
1
 62
7
  6
CONTINUOUS
 10
42.778738
 20
134.819560
 11
103.391001
 21
134.819560
  0
LINE
  8
1
 62
7
  6
CONTINUOUS
 10
72.704856
 20
165.142903
 11
72.704856
 21
93.457529
  0
ARC
  8
1
 62
7
  6
CONTINUOUS
 10
96.704856
 20
158.819560
 40
4.000000
 50
0.000000
 51
90.000000
  0
ARC
  8
1
 62
7
  6
CONTINUOUS
 10
48.704856
 20
158.819560
 40
4.000000
 50
90.000000
 51
180.000000
  0
ARC
  8
1
 62
7
  6
CONTINUOUS
 10
48.704856
 20
110.819560
 40
4.000000
 50
180.000000
 51
-90.000000
  0
ARC
  8
1
 62
7
  6
CONTINUOUS
 10
96.704856
 20
110.819560
 40
4.000000
 50
-90.000000
 51
-0.000000
  0
ARC
  8
1
 62
7
  6
CONTINUOUS
 10
72.704856
 20
134.819560
 40
33.631421
 50
-122.764169
 51
-119.612321
  0
ARC
  8
1
 62
7
  6
CONTINUOUS
 10
72.704856
 20
134.819560
 40
33.631421
 50
-60.387679
 51
-57.235831
  0
CIRCLE
  8
1
 62
7
  6
CONTINUOUS
 10
72.704856
 20
134.819560
 40
17.000000
  0
CIRCLE
  8
1
 62
7
  6
CONTINUOUS
 10
72.704856
 20
134.819560
 40
14.500000
  0
CIRCLE
  8
1
 62
7
  6
CONTINUOUS
 10
96.274856
 20
158.389560
 40
2.250000
  0
CIRCLE
  8
1
 62
7
  6
CONTINUOUS
 10
49.134856
 20
158.389560
 40
2.250000
  0
CIRCLE
  8
1
 62
7
  6
CONTINUOUS
 10
49.134856
 20
111.249560
 40
2.250000
  0
CIRCLE
  8
1
 62
7
  6
CONTINUOUS
 10
72.704856
 20
134.819560
 40
4.500000
  0
CIRCLE
  8
1
 62
7
  6
CONTINUOUS
 10
96.274856
 20
111.249560
 40
2.250000
  0
CIRCLE
  8
1
 62
7
  6
CONTINUOUS
 10
72.704856
 20
134.819560
 40
19.050000
  0
CIRCLE
  8
1
 62
7
  6
CONTINUOUS
 10
97.504856
 20
150.219560
 40
3.100000
  0
CIRCLE
  8
1
 62
7
  6
CONTINUOUS
 10
47.904856
 20
150.219560
 40
3.100000
  0
CIRCLE
  8
1
 62
7
  6
CONTINUOUS
 10
97.504856
 20
119.419560
 40
3.100000
  0
CIRCLE
  8
1
 62
7
  6
CONTINUOUS
 10
47.904856
 20
119.419560
 40
3.100000
  0
CIRCLE
  8
1
 62
7
  6
CONTINUOUS
 10
72.704856
 20
134.819560
 40
3.175000
  0
ARC
  8
1
 62
7
  6
CONTINUOUS
 10
55.586486
 20
108.220533
 40
2.000000
 50
-135.533951
 51
-122.764169
  0
ARC
  8
1
 62
7
  6
CONTINUOUS
 10
88.334853
 20
107.319560
 40
2.000000
 50
-90.000000
 51
-60.387679
  0
ARC
  8
1
 62
7
  6
CONTINUOUS
 10
57.074859
 20
107.319560
 40
2.000000
 50
-119.612321
 51
-90.000000
  0
ARC
  8
1
 62
7
  6
CONTINUOUS
 10
89.823226
 20
108.220533
 40
2.000000
 50
-57.235831
 51
-44.466049
  0
ARC
  8
1
 62
7
  6
CONTINUOUS
 10
60.754856
 20
104.119560
 40
1.000000
 50
90.000000
 51
180.000000
  0
ARC
  8
1
 62
7
  6
CONTINUOUS
 10
84.654856
 20
104.119560
 40
1.000000
 50
0.000000
 51
90.000000
  0
ARC
  8
1
 62
7
  6
CONTINUOUS
 10
215.704856
 20
161.819560
 40
1.000000
 50
0.000000
 51
90.000000
  0
ARC
  8
1
 62
7
  6
CONTINUOUS
 10
215.704856
 20
106.319560
 40
1.000000
 50
-90.000000
 51
0.000000
  0
LINE
  8
1
 62
7
  6
CONTINUOUS
 10
147.090523
 20
21.156736
 11
213.680469
 21
21.156736
  0
LINE
  8
1
 62
7
  6
CONTINUOUS
 10
78.535670
 20
30.341635
 11
120.450297
 21
30.341635
  0
LINE
  8
1
 62
7
  6
CONTINUOUS
 10
120.450297
 20
30.341635
 11
134.636673
 21
42.489737
  0
LINE
  8
1
 62
7
  6
CONTINUOUS
 10
132.480085
 20
40.088360
 11
131.932047
 21
40.728351
  0
LINE
  8
1
 62
7
  6
CONTINUOUS
 10
131.932047
 20
40.728351
 11
134.636673
 21
42.489737
  0
LINE
  8
1
 62
7
  6
CONTINUOUS
 10
134.636673
 20
42.489737
 11
132.480085
 21
40.088360
  0
LINE
  8
1
 62
7
  6
CONTINUOUS
 10
78.535670
 20
36.341635
 11
127.147667
 21
36.341635
  0
LINE
  8
1
 62
7
  6
CONTINUOUS
 10
172.293681
 20
173.996747
 11
193.877615
 21
173.996747
  0
LINE
  8
1
 62
7
  6
CONTINUOUS
 10
193.877615
 20
173.996747
 11
209.174758
 21
163.819560
  0
LINE
  8
1
 62
7
  6
CONTINUOUS
 10
206.277161
 20
165.241325
 11
206.743874
 21
165.942833
  0
LINE
  8
1
 62
7
  6
CONTINUOUS
 10
206.743874
 20
165.942833
 11
209.174758
 21
163.819560
  0
LINE
  8
1
 62
7
  6
CONTINUOUS
 10
209.174758
 20
163.819560
 11
206.277161
 21
165.241325
  0
LINE
  8
1
 62
7
  6
CONTINUOUS
 10
56.130298
 20
79.528298
 11
72.606613
 21
79.528298
  0
LINE
  8
1
 62
7
  6
CONTINUOUS
 10
69.406613
 20
79.107010
 11
69.406613
 21
79.949586
  0
LINE
  8
1
 62
7
  6
CONTINUOUS
 10
69.406613
 20
79.949586
 11
72.606613
 21
79.528298
  0
LINE
  8
1
 62
7
  6
CONTINUOUS
 10
72.606613
 20
79.528298
 11
69.406613
 21
79.107010
  0
TEXT
  8
1
 62
7
  6
CONTINUOUS
 10
149.329509
 20
21.906634
 40
5.000000
 41
0.450000
  1
ＡＴＴＡＣＨＭＥＮＴ：ＣＯＮＮＥＣＴＯＲ　ＬＥＡＤ
  7
KANJI
 50
0.000000
 51
0.000000
  0
TEXT
  8
1
 62
7
  6
CONTINUOUS
 10
80.774657
 20
37.091533
 40
4.000000
 41
0.405000
  1
ＨＯＵＳＩＮＧ：ＸＨＰ－１１
  7
KANJI
 50
0.000000
 51
0.000000
  0
TEXT
  8
1
 62
7
  6
CONTINUOUS
 10
80.774657
 20
31.091533
 40
4.000000
 41
0.405000
  1
ＣＯＮＴＡＣＴ：ＳＸＨ－００１Ｔ－Ｐ０．６
  7
KANJI
 50
0.000000
 51
0.000000
  0
TEXT
  8
1
 62
7
  6
CONTINUOUS
 10
58.942480
 20
83.720248
 40
3.000000
 41
0.720000
  1
1
  7
KANJI
 50
0.000000
 51
0.000000
  0
TEXT
  8
1
 62
7
  6
CONTINUOUS
 10
63.942480
 20
83.720248
 40
3.000000
 41
0.720000
  1
3
  7
KANJI
 50
0.000000
 51
0.000000
  0
TEXT
  8
1
 62
7
  6
CONTINUOUS
 10
68.942480
 20
83.720248
 40
3.000000
 41
0.720000
  1
5
  7
KANJI
 50
0.000000
 51
0.000000
  0
TEXT
  8
1
 62
7
  6
CONTINUOUS
 10
73.942480
 20
83.720248
 40
3.000000
 41
0.720000
  1
7
  7
KANJI
 50
0.000000
 51
0.000000
  0
TEXT
  8
1
 62
7
  6
CONTINUOUS
 10
78.942480
 20
83.720248
 40
3.000000
 41
0.720000
  1
9
  7
KANJI
 50
0.000000
 51
0.000000
  0
TEXT
  8
1
 62
7
  6
CONTINUOUS
 10
83.672480
 20
83.720248
 40
3.000000
 41
0.450000
  1
11
  7
KANJI
 50
0.000000
 51
0.000000
  0
TEXT
  8
1
 62
7
  6
CONTINUOUS
 10
34.405030
 20
77.498044
 40
4.000000
 41
0.720000
  1
Ｐｉｎ　Ｎｏ．
  7
KANJI
 50
0.000000
 51
0.000000
  0
TEXT
  8
1
 62
7
  6
CONTINUOUS
 10
210.241371
 20
174.367218
 40
2.000000
 41
0.900000
  1
DIRECTION
  7
KANJI
 50
90.000000
 51
0.000000
  0
TEXT
  8
1
 62
7
  6
CONTINUOUS
 10
212.641371
 20
174.367218
 40
2.000000
 41
0.900000
  1
OF LETTERS
  7
KANJI
 50
90.000000
 51
0.000000
  0
TEXT
  8
1
 62
7
  6
CONTINUOUS
 10
172.759576
 20
175.072376
 40
3.500000
 41
0.540000
  1
NAME PLATE
  7
KANJI
 50
0.000000
 51
0.000000
  0
LINE
  8
1
 62
7
  6
CONTINUOUS
 10
210.507244
 20
62.144357
 11
220.507244
 21
62.144357
  0
LINE
  8
1
 62
7
  6
CONTINUOUS
 10
210.507244
 20
56.044171
 11
210.507244
 21
63.144357
  0
LINE
  8
1
 62
7
  6
CONTINUOUS
 10
220.507244
 20
55.244171
 11
220.507244
 21
63.144357
  0
LINE
  8
1
 62
7
  6
CONTINUOUS
 10
210.507244
 20
62.144357
 11
213.707244
 21
62.560357
  0
LINE
  8
1
 62
7
  6
CONTINUOUS
 10
213.707244
 20
62.560357
 11
213.707244
 21
61.728357
  0
LINE
  8
1
 62
7
  6
CONTINUOUS
 10
213.707244
 20
61.728357
 11
210.507244
 21
62.144357
  0
LINE
  8
1
 62
7
  6
CONTINUOUS
 10
220.507244
 20
62.144357
 11
217.307244
 21
61.728357
  0
LINE
  8
1
 62
7
  6
CONTINUOUS
 10
217.307244
 20
61.728357
 11
217.307244
 21
62.560357
  0
LINE
  8
1
 62
7
  6
CONTINUOUS
 10
217.307244
 20
62.560357
 11
220.507244
 21
62.144357
  0
TEXT
  8
1
 62
7
  6
CONTINUOUS
 10
213.209242
 20
64.144357
 40
3.200000
 41
0.900000
  1
10
  7
KANJI
 50
0.000000
 51
0.000000
  0
TEXT
  8
1
 62
7
  6
CONTINUOUS
 10
211.129242
 20
64.144357
 40
3.200000
 41
0.900000
  1
(
  7
KANJI
 50
0.000000
 51
0.000000
  0
TEXT
  8
1
 62
7
  6
CONTINUOUS
 10
218.649242
 20
64.144357
 40
3.200000
 41
0.900000
  1
)
  7
KANJI
 50
0.000000
 51
0.000000
  0
LINE
  8
1
 62
7
  6
CONTINUOUS
 10
142.386673
 20
72.061944
 11
220.507244
 21
72.061944
  0
LINE
  8
1
 62
7
  6
CONTINUOUS
 10
142.386673
 20
66.144171
 11
142.386673
 21
73.061944
  0
LINE
  8
1
 62
7
  6
CONTINUOUS
 10
220.507244
 20
55.244171
 11
220.507244
 21
73.061944
  0
LINE
  8
1
 62
7
  6
CONTINUOUS
 10
142.386673
 20
72.061944
 11
145.586673
 21
72.477944
  0
LINE
  8
1
 62
7
  6
CONTINUOUS
 10
145.586673
 20
72.477944
 11
145.586673
 21
71.645944
  0
LINE
  8
1
 62
7
  6
CONTINUOUS
 10
145.586673
 20
71.645944
 11
142.386673
 21
72.061944
  0
LINE
  8
1
 62
7
  6
CONTINUOUS
 10
220.507244
 20
72.061944
 11
217.307244
 21
71.645944
  0
LINE
  8
1
 62
7
  6
CONTINUOUS
 10
217.307244
 20
71.645944
 11
217.307244
 21
72.477944
  0
LINE
  8
1
 62
7
  6
CONTINUOUS
 10
217.307244
 20
72.477944
 11
220.507244
 21
72.061944
  0
TEXT
  8
1
 62
7
  6
CONTINUOUS
 10
174.980075
 20
74.861944
 40
3.200000
 41
0.900000
  1
300
  7
KANJI
 50
0.000000
 51
0.000000
  0
TEXT
  8
1
 62
7
  6
CONTINUOUS
 10
184.260075
 20
76.941944
 40
1.920000
 41
0.900000
  1
+40
  7
KANJI
 50
0.000000
 51
0.000000
  0
TEXT
  8
1
 62
7
  6
CONTINUOUS
 10
185.988075
 20
74.061944
 40
1.920000
 41
0.900000
  1
 0
  7
KANJI
 50
0.000000
 51
0.000000
  0
LINE
  8
1
 62
7
  6
CONTINUOUS
 10
162.704856
 20
194.819560
 11
216.704856
 21
194.819560
  0
LINE
  8
1
 62
7
  6
CONTINUOUS
 10
216.704856
 20
162.819560
 11
216.704856
 21
195.819560
  0
LINE
  8
1
 62
7
  6
CONTINUOUS
 10
162.704856
 20
163.819560
 11
162.704856
 21
195.819560
  0
LINE
  8
1
 62
7
  6
CONTINUOUS
 10
162.704856
 20
194.819560
 11
165.904856
 21
195.235560
  0
LINE
  8
1
 62
7
  6
CONTINUOUS
 10
165.904856
 20
195.235560
 11
165.904856
 21
194.403560
  0
LINE
  8
1
 62
7
  6
CONTINUOUS
 10
165.904856
 20
194.403560
 11
162.704856
 21
194.819560
  0
LINE
  8
1
 62
7
  6
CONTINUOUS
 10
216.704856
 20
194.819560
 11
213.504856
 21
194.403560
  0
LINE
  8
1
 62
7
  6
CONTINUOUS
 10
213.504856
 20
194.403560
 11
213.504856
 21
195.235560
  0
LINE
  8
1
 62
7
  6
CONTINUOUS
 10
213.504856
 20
195.235560
 11
216.704856
 21
194.819560
  0
TEXT
  8
1
 62
7
  6
CONTINUOUS
 10
187.884735
 20
196.819560
 40
3.200000
 41
0.900000
  1
54
  7
KANJI
 50
0.000000
 51
0.000000
  0
TEXT
  8
1
 62
7
  6
CONTINUOUS
 10
185.804735
 20
196.819560
 40
3.200000
 41
0.900000
  1
(
  7
KANJI
 50
0.000000
 51
0.000000
  0
TEXT
  8
1
 62
7
  6
CONTINUOUS
 10
194.284735
 20
196.819560
 40
3.200000
 41
0.900000
  1
)
  7
KANJI
 50
0.000000
 51
0.000000
  0
LINE
  8
1
 62
7
  6
CONTINUOUS
 10
154.704856
 20
184.022780
 11
161.104856
 21
184.022780
  0
LINE
  8
1
 62
7
  6
CONTINUOUS
 10
161.104856
 20
184.022780
 11
162.704856
 21
184.022780
  0
LINE
  8
1
 62
7
  6
CONTINUOUS
 10
162.704856
 20
184.022780
 11
171.377741
 21
184.022780
  0
LINE
  8
1
 62
7
  6
CONTINUOUS
 10
161.104856
 20
154.869560
 11
161.104856
 21
185.022780
  0
LINE
  8
1
 62
7
  6
CONTINUOUS
 10
162.704856
 20
163.819560
 11
162.704856
 21
185.022780
  0
LINE
  8
1
 62
7
  6
CONTINUOUS
 10
161.104856
 20
184.022780
 11
157.904856
 21
183.606780
  0
LINE
  8
1
 62
7
  6
CONTINUOUS
 10
157.904856
 20
183.606780
 11
157.904856
 21
184.438780
  0
LINE
  8
1
 62
7
  6
CONTINUOUS
 10
157.904856
 20
184.438780
 11
161.104856
 21
184.022780
  0
LINE
  8
1
 62
7
  6
CONTINUOUS
 10
162.704856
 20
184.022780
 11
165.904856
 21
184.438780
  0
LINE
  8
1
 62
7
  6
CONTINUOUS
 10
165.904856
 20
184.438780
 11
165.904856
 21
183.606780
  0
LINE
  8
1
 62
7
  6
CONTINUOUS
 10
165.904856
 20
183.606780
 11
162.704856
 21
184.022780
  0
TEXT
  8
1
 62
7
  6
CONTINUOUS
 10
166.497741
 20
186.022780
 40
3.200000
 41
0.900000
  1
1.6
  7
KANJI
 50
0.000000
 51
0.000000
  0
LINE
  8
1
 62
7
  6
CONTINUOUS
 10
44.704856
 20
182.290960
 11
100.704856
 21
182.290960
  0
LINE
  8
1
 62
7
  6
CONTINUOUS
 10
44.704856
 20
159.819560
 11
44.704856
 21
183.290960
  0
LINE
  8
1
 62
7
  6
CONTINUOUS
 10
100.704856
 20
159.819560
 11
100.704856
 21
183.290960
  0
LINE
  8
1
 62
7
  6
CONTINUOUS
 10
44.704856
 20
182.290960
 11
47.904856
 21
182.706960
  0
LINE
  8
1
 62
7
  6
CONTINUOUS
 10
47.904856
 20
182.706960
 11
47.904856
 21
181.874960
  0
LINE
  8
1
 62
7
  6
CONTINUOUS
 10
47.904856
 20
181.874960
 11
44.704856
 21
182.290960
  0
LINE
  8
1
 62
7
  6
CONTINUOUS
 10
100.704856
 20
182.290960
 11
97.504856
 21
181.874960
  0
LINE
  8
1
 62
7
  6
CONTINUOUS
 10
97.504856
 20
181.874960
 11
97.504856
 21
182.706960
  0
LINE
  8
1
 62
7
  6
CONTINUOUS
 10
97.504856
 20
182.706960
 11
100.704856
 21
182.290960
  0
TEXT
  8
1
 62
7
  6
CONTINUOUS
 10
70.767543
 20
184.290960
 40
3.200000
 41
0.900000
  1
56
  7
KANJI
 50
0.000000
 51
0.000000
  0
TEXT
  8
1
 62
7
  6
CONTINUOUS
 10
68.687543
 20
184.290960
 40
3.200000
 41
0.900000
  1
(
  7
KANJI
 50
0.000000
 51
0.000000
  0
TEXT
  8
1
 62
7
  6
CONTINUOUS
 10
77.167543
 20
184.290960
 40
3.200000
 41
0.900000
  1
)
  7
KANJI
 50
0.000000
 51
0.000000
  0
LINE
  8
1
 62
7
  6
CONTINUOUS
 10
49.134856
 20
170.510435
 11
96.274856
 21
170.510435
  0
LINE
  8
1
 62
7
  6
CONTINUOUS
 10
49.134856
 20
162.907467
 11
49.134856
 21
171.510435
  0
LINE
  8
1
 62
7
  6
CONTINUOUS
 10
96.274856
 20
163.023168
 11
96.274856
 21
171.510435
  0
LINE
  8
1
 62
7
  6
CONTINUOUS
 10
49.134856
 20
170.510435
 11
52.334856
 21
170.926435
  0
LINE
  8
1
 62
7
  6
CONTINUOUS
 10
52.334856
 20
170.926435
 11
52.334856
 21
170.094435
  0
LINE
  8
1
 62
7
  6
CONTINUOUS
 10
52.334856
 20
170.094435
 11
49.134856
 21
170.510435
  0
LINE
  8
1
 62
7
  6
CONTINUOUS
 10
96.274856
 20
170.510435
 11
93.074856
 21
170.094435
  0
LINE
  8
1
 62
7
  6
CONTINUOUS
 10
93.074856
 20
170.094435
 11
93.074856
 21
170.926435
  0
LINE
  8
1
 62
7
  6
CONTINUOUS
 10
93.074856
 20
170.926435
 11
96.274856
 21
170.510435
  0
TEXT
  8
1
 62
7
  6
CONTINUOUS
 10
64.143543
 20
172.510435
 40
3.200000
 41
0.900000
  1
47.14
  7
KANJI
 50
0.000000
 51
0.000000
  0
TEXT
  8
1
 62
7
  6
CONTINUOUS
 10
76.383543
 20
173.150435
 40
1.920000
 41
0.900000
  1
±0.2
  7
KANJI
 50
0.000000
 51
0.000000
  0
LINE
  8
1
 62
7
  6
CONTINUOUS
 10
26.582395
 20
106.819560
 11
26.582395
 21
162.819560
  0
LINE
  8
1
 62
7
  6
CONTINUOUS
 10
47.704856
 20
106.819560
 11
25.582395
 21
106.819560
  0
LINE
  8
1
 62
7
  6
CONTINUOUS
 10
47.704856
 20
162.819560
 11
25.582395
 21
162.819560
  0
LINE
  8
1
 62
7
  6
CONTINUOUS
 10
26.582395
 20
162.819560
 11
26.998395
 21
159.619560
  0
LINE
  8
1
 62
7
  6
CONTINUOUS
 10
26.998395
 20
159.619560
 11
26.166395
 21
159.619560
  0
LINE
  8
1
 62
7
  6
CONTINUOUS
 10
26.166395
 20
159.619560
 11
26.582395
 21
162.819560
  0
LINE
  8
1
 62
7
  6
CONTINUOUS
 10
26.582395
 20
106.819560
 11
26.166395
 21
110.019560
  0
LINE
  8
1
 62
7
  6
CONTINUOUS
 10
26.166395
 20
110.019560
 11
26.998395
 21
110.019560
  0
LINE
  8
1
 62
7
  6
CONTINUOUS
 10
26.998395
 20
110.019560
 11
26.582395
 21
106.819560
  0
TEXT
  8
1
 62
7
  6
CONTINUOUS
 10
24.582395
 20
131.996364
 40
3.200000
 41
0.900000
  1
56
  7
KANJI
 50
90.000000
 51
0.000000
  0
TEXT
  8
1
 62
7
  6
CONTINUOUS
 10
24.582395
 20
129.916364
 40
3.200000
 41
0.900000
  1
(
  7
KANJI
 50
90.000000
 51
0.000000
  0
TEXT
  8
1
 62
7
  6
CONTINUOUS
 10
24.582395
 20
138.396364
 40
3.200000
 41
0.900000
  1
)
  7
KANJI
 50
90.000000
 51
0.000000
  0
LINE
  8
1
 62
7
  6
CONTINUOUS
 10
36.431687
 20
111.249560
 11
36.431687
 21
158.389560
  0
LINE
  8
1
 62
7
  6
CONTINUOUS
 10
44.616949
 20
111.249560
 11
35.431687
 21
111.249560
  0
LINE
  8
1
 62
7
  6
CONTINUOUS
 10
44.501247
 20
158.389560
 11
35.431687
 21
158.389560
  0
LINE
  8
1
 62
7
  6
CONTINUOUS
 10
36.431687
 20
158.389560
 11
36.847687
 21
155.189560
  0
LINE
  8
1
 62
7
  6
CONTINUOUS
 10
36.847687
 20
155.189560
 11
36.015687
 21
155.189560
  0
LINE
  8
1
 62
7
  6
CONTINUOUS
 10
36.015687
 20
155.189560
 11
36.431687
 21
158.389560
  0
LINE
  8
1
 62
7
  6
CONTINUOUS
 10
36.431687
 20
111.249560
 11
36.015687
 21
114.449560
  0
LINE
  8
1
 62
7
  6
CONTINUOUS
 10
36.015687
 20
114.449560
 11
36.847687
 21
114.449560
  0
LINE
  8
1
 62
7
  6
CONTINUOUS
 10
36.847687
 20
114.449560
 11
36.431687
 21
111.249560
  0
TEXT
  8
1
 62
7
  6
CONTINUOUS
 10
34.431687
 20
125.565487
 40
3.200000
 41
0.900000
  1
47.14
  7
KANJI
 50
90.000000
 51
0.000000
  0
TEXT
  8
1
 62
7
  6
CONTINUOUS
 10
33.791687
 20
137.805487
 40
1.920000
 41
0.900000
  1
±0.2
  7
KANJI
 50
90.000000
 51
0.000000
  0
LINE
  8
1
 62
7
  6
CONTINUOUS
 10
40.873524
 20
113.219560
 11
40.873524
 21
106.819560
  0
LINE
  8
1
 62
7
  6
CONTINUOUS
 10
40.873524
 20
101.519560
 11
40.873524
 21
106.819560
  0
LINE
  8
1
 62
7
  6
CONTINUOUS
 10
40.873524
 20
101.519560
 11
40.873524
 21
89.419825
  0
LINE
  8
1
 62
7
  6
CONTINUOUS
 10
55.704856
 20
101.519560
 11
39.873524
 21
101.519560
  0
LINE
  8
1
 62
7
  6
CONTINUOUS
 10
47.704856
 20
106.819560
 11
39.873524
 21
106.819560
  0
LINE
  8
1
 62
7
  6
CONTINUOUS
 10
40.873524
 20
106.819560
 11
40.457524
 21
110.019560
  0
LINE
  8
1
 62
7
  6
CONTINUOUS
 10
40.457524
 20
110.019560
 11
41.289524
 21
110.019560
  0
LINE
  8
1
 62
7
  6
CONTINUOUS
 10
41.289524
 20
110.019560
 11
40.873524
 21
106.819560
  0
LINE
  8
1
 62
7
  6
CONTINUOUS
 10
40.873524
 20
101.519560
 11
41.289524
 21
98.319560
  0
LINE
  8
1
 62
7
  6
CONTINUOUS
 10
41.289524
 20
98.319560
 11
40.457524
 21
98.319560
  0
LINE
  8
1
 62
7
  6
CONTINUOUS
 10
40.457524
 20
98.319560
 11
40.873524
 21
101.519560
  0
TEXT
  8
1
 62
7
  6
CONTINUOUS
 10
38.873524
 20
91.499825
 40
3.200000
 41
0.900000
  1
5.5
  7
KANJI
 50
90.000000
 51
0.000000
  0
TEXT
  8
1
 62
7
  6
CONTINUOUS
 10
38.873524
 20
89.419825
 40
3.200000
 41
0.900000
  1
(
  7
KANJI
 50
90.000000
 51
0.000000
  0
TEXT
  8
1
 62
7
  6
CONTINUOUS
 10
38.873524
 20
98.939825
 40
3.200000
 41
0.900000
  1
)
  7
KANJI
 50
90.000000
 51
0.000000
  0
LINE
  8
1
 62
7
  6
CONTINUOUS
 10
112.136050
 20
91.869560
 11
112.136050
 21
98.269560
  0
LINE
  8
1
 62
7
  6
CONTINUOUS
 10
112.136050
 20
98.269560
 11
112.136050
 21
106.819560
  0
LINE
  8
1
 62
7
  6
CONTINUOUS
 10
112.136050
 20
106.819560
 11
112.136050
 21
123.422136
  0
LINE
  8
1
 62
7
  6
CONTINUOUS
 10
88.604856
 20
98.269560
 11
113.136050
 21
98.269560
  0
LINE
  8
1
 62
7
  6
CONTINUOUS
 10
97.704856
 20
106.819560
 11
113.136050
 21
106.819560
  0
LINE
  8
1
 62
7
  6
CONTINUOUS
 10
112.136050
 20
98.269560
 11
112.552050
 21
95.069560
  0
LINE
  8
1
 62
7
  6
CONTINUOUS
 10
112.552050
 20
95.069560
 11
111.720050
 21
95.069560
  0
LINE
  8
1
 62
7
  6
CONTINUOUS
 10
111.720050
 20
95.069560
 11
112.136050
 21
98.269560
  0
LINE
  8
1
 62
7
  6
CONTINUOUS
 10
112.136050
 20
106.819560
 11
111.720050
 21
110.019560
  0
LINE
  8
1
 62
7
  6
CONTINUOUS
 10
111.720050
 20
110.019560
 11
112.552050
 21
110.019560
  0
LINE
  8
1
 62
7
  6
CONTINUOUS
 10
112.552050
 20
110.019560
 11
112.136050
 21
106.819560
  0
TEXT
  8
1
 62
7
  6
CONTINUOUS
 10
110.136050
 20
115.502136
 40
3.200000
 41
0.900000
  1
9.5
  7
KANJI
 50
90.000000
 51
0.000000
  0
TEXT
  8
1
 62
7
  6
CONTINUOUS
 10
110.136050
 20
110.222136
 40
3.200000
 41
0.900000
  1
※(
  7
KANJI
 50
90.000000
 51
0.000000
  0
TEXT
  8
1
 62
7
  6
CONTINUOUS
 10
110.136050
 20
122.942136
 40
3.200000
 41
0.900000
  1
)
  7
KANJI
 50
90.000000
 51
0.000000
  0
LINE
  8
1
 62
7
  6
CONTINUOUS
 10
132.104856
 20
137.994560
 11
132.104856
 21
144.394560
  0
LINE
  8
1
 62
7
  6
CONTINUOUS
 10
132.104856
 20
131.644560
 11
132.104856
 21
125.244560
  0
LINE
  8
1
 62
7
  6
CONTINUOUS
 10
132.104856
 20
131.644560
 11
132.104856
 21
137.994560
  0
LINE
  8
1
 62
7
  6
CONTINUOUS
 10
141.104856
 20
137.994560
 11
130.604856
 21
137.994560
  0
LINE
  8
1
 62
7
  6
CONTINUOUS
 10
141.104856
 20
131.644560
 11
130.604856
 21
131.644560
  0
LINE
  8
1
 62
7
  6
CONTINUOUS
 10
132.104856
 20
137.994560
 11
131.688856
 21
141.194560
  0
LINE
  8
1
 62
7
  6
CONTINUOUS
 10
131.688856
 20
141.194560
 11
132.520856
 21
141.194560
  0
LINE
  8
1
 62
7
  6
CONTINUOUS
 10
132.520856
 20
141.194560
 11
132.104856
 21
137.994560
  0
LINE
  8
1
 62
7
  6
CONTINUOUS
 10
132.104856
 20
131.644560
 11
132.520856
 21
128.444560
  0
LINE
  8
1
 62
7
  6
CONTINUOUS
 10
132.520856
 20
128.444560
 11
131.688856
 21
128.444560
  0
LINE
  8
1
 62
7
  6
CONTINUOUS
 10
131.688856
 20
128.444560
 11
132.104856
 21
131.644560
  0
TEXT
  8
1
 62
7
  6
CONTINUOUS
 10
129.304856
 20
127.713486
 40
3.200000
 41
0.900000
  1
6.35
  7
KANJI
 50
90.000000
 51
0.000000
  0
TEXT
  8
1
 62
7
  6
CONTINUOUS
 10
127.224856
 20
138.033486
 40
1.920000
 41
0.900000
  1
 0
  7
KANJI
 50
90.000000
 51
0.000000
  0
TEXT
  8
1
 62
7
  6
CONTINUOUS
 10
130.104856
 20
138.033486
 40
1.920000
 41
0.900000
  1
-0.02
  7
KANJI
 50
90.000000
 51
0.000000
  0
TEXT
  8
1
 62
7
  6
CONTINUOUS
 10
129.304856
 20
124.069042
 40
3.200000
 41
0.900000
  1
φ
  7
KANJI
 50
90.000000
 51
0.000000
  0
LINE
  8
1
 62
7
  6
CONTINUOUS
 10
142.104856
 20
194.830004
 11
162.704856
 21
194.830004
  0
LINE
  8
1
 62
7
  6
CONTINUOUS
 10
162.704856
 20
163.819560
 11
162.704856
 21
196.330004
  0
LINE
  8
1
 62
7
  6
CONTINUOUS
 10
142.104856
 20
138.994560
 11
142.104856
 21
196.330004
  0
LINE
  8
1
 62
7
  6
CONTINUOUS
 10
142.104856
 20
194.830004
 11
145.304856
 21
195.246004
  0
LINE
  8
1
 62
7
  6
CONTINUOUS
 10
145.304856
 20
195.246004
 11
145.304856
 21
194.414004
  0
LINE
  8
1
 62
7
  6
CONTINUOUS
 10
145.304856
 20
194.414004
 11
142.104856
 21
194.830004
  0
LINE
  8
1
 62
7
  6
CONTINUOUS
 10
162.704856
 20
194.830004
 11
159.504856
 21
194.414004
  0
LINE
  8
1
 62
7
  6
CONTINUOUS
 10
159.504856
 20
194.414004
 11
159.504856
 21
195.246004
  0
LINE
  8
1
 62
7
  6
CONTINUOUS
 10
159.504856
 20
195.246004
 11
162.704856
 21
194.830004
  0
TEXT
  8
1
 62
7
  6
CONTINUOUS
 10
144.424012
 20
196.830004
 40
3.200000
 41
0.900000
  1
20.6
  7
KANJI
 50
0.000000
 51
0.000000
  0
TEXT
  8
1
 62
7
  6
CONTINUOUS
 10
154.744012
 20
197.470004
 40
1.920000
 41
0.900000
  1
±0.5
  7
KANJI
 50
0.000000
 51
0.000000
  0
LINE
  8
1
 62
7
  6
CONTINUOUS
 10
98.867190
 20
149.380485
 11
98.146809
 21
150.100866
  0
LINE
  8
1
 62
7
  6
CONTINUOUS
 10
98.867190
 20
151.058635
 11
98.146809
 21
150.338254
  0
LINE
  8
1
 62
7
  6
CONTINUOUS
 10
96.665781
 20
148.857226
 11
97.386162
 21
149.577607
  0
LINE
  8
1
 62
7
  6
CONTINUOUS
 10
98.343931
 20
148.857226
 11
97.623550
 21
149.577607
  0
LINE
  8
1
 62
7
  6
CONTINUOUS
 10
96.142522
 20
151.058635
 11
96.862903
 21
150.338254
  0
LINE
  8
1
 62
7
  6
CONTINUOUS
 10
96.142522
 20
149.380485
 11
96.862903
 21
150.100866
  0
LINE
  8
1
 62
7
  6
CONTINUOUS
 10
98.343931
 20
151.581894
 11
97.623550
 21
150.861513
  0
LINE
  8
1
 62
7
  6
CONTINUOUS
 10
96.665781
 20
151.581894
 11
97.386162
 21
150.861513
  0
LINE
  8
1
 62
7
  6
CONTINUOUS
 10
93.849885
 20
150.219560
 11
101.229566
 21
150.219560
  0
LINE
  8
1
 62
7
  6
CONTINUOUS
 10
97.504856
 20
153.867486
 11
97.504856
 21
146.329951
  0
LINE
  8
1
 62
7
  6
CONTINUOUS
 10
98.867190
 20
118.580485
 11
98.146809
 21
119.300866
  0
LINE
  8
1
 62
7
  6
CONTINUOUS
 10
98.867190
 20
120.258635
 11
98.146809
 21
119.538254
  0
LINE
  8
1
 62
7
  6
CONTINUOUS
 10
96.665781
 20
118.057226
 11
97.386162
 21
118.777607
  0
LINE
  8
1
 62
7
  6
CONTINUOUS
 10
98.343931
 20
118.057226
 11
97.623550
 21
118.777607
  0
LINE
  8
1
 62
7
  6
CONTINUOUS
 10
96.142522
 20
120.258635
 11
96.862903
 21
119.538254
  0
LINE
  8
1
 62
7
  6
CONTINUOUS
 10
96.142522
 20
118.580485
 11
96.862903
 21
119.300866
  0
LINE
  8
1
 62
7
  6
CONTINUOUS
 10
98.343931
 20
120.781894
 11
97.623550
 21
120.061513
  0
LINE
  8
1
 62
7
  6
CONTINUOUS
 10
96.665781
 20
120.781894
 11
97.386162
 21
120.061513
  0
LINE
  8
1
 62
7
  6
CONTINUOUS
 10
93.849885
 20
119.419560
 11
101.229566
 21
119.419560
  0
LINE
  8
1
 62
7
  6
CONTINUOUS
 10
97.504856
 20
123.067486
 11
97.504856
 21
115.529951
  0
LINE
  8
1
 62
7
  6
CONTINUOUS
 10
49.267190
 20
149.380485
 11
48.546809
 21
150.100866
  0
LINE
  8
1
 62
7
  6
CONTINUOUS
 10
49.267190
 20
151.058635
 11
48.546809
 21
150.338254
  0
LINE
  8
1
 62
7
  6
CONTINUOUS
 10
47.065781
 20
148.857226
 11
47.786162
 21
149.577607
  0
LINE
  8
1
 62
7
  6
CONTINUOUS
 10
48.743931
 20
148.857226
 11
48.023550
 21
149.577607
  0
LINE
  8
1
 62
7
  6
CONTINUOUS
 10
46.542522
 20
151.058635
 11
47.262903
 21
150.338254
  0
LINE
  8
1
 62
7
  6
CONTINUOUS
 10
46.542522
 20
149.380485
 11
47.262903
 21
150.100866
  0
LINE
  8
1
 62
7
  6
CONTINUOUS
 10
48.743931
 20
151.581894
 11
48.023550
 21
150.861513
  0
LINE
  8
1
 62
7
  6
CONTINUOUS
 10
47.065781
 20
151.581894
 11
47.786162
 21
150.861513
  0
LINE
  8
1
 62
7
  6
CONTINUOUS
 10
44.249885
 20
150.219560
 11
51.629566
 21
150.219560
  0
LINE
  8
1
 62
7
  6
CONTINUOUS
 10
47.904856
 20
153.867486
 11
47.904856
 21
146.329951
  0
LINE
  8
1
 62
7
  6
CONTINUOUS
 10
49.267190
 20
118.580485
 11
48.546809
 21
119.300866
  0
LINE
  8
1
 62
7
  6
CONTINUOUS
 10
49.267190
 20
120.258635
 11
48.546809
 21
119.538254
  0
LINE
  8
1
 62
7
  6
CONTINUOUS
 10
47.065781
 20
118.057226
 11
47.786162
 21
118.777607
  0
LINE
  8
1
 62
7
  6
CONTINUOUS
 10
48.743931
 20
118.057226
 11
48.023550
 21
118.777607
  0
LINE
  8
1
 62
7
  6
CONTINUOUS
 10
46.542522
 20
120.258635
 11
47.262903
 21
119.538254
  0
LINE
  8
1
 62
7
  6
CONTINUOUS
 10
46.542522
 20
118.580485
 11
47.262903
 21
119.300866
  0
LINE
  8
1
 62
7
  6
CONTINUOUS
 10
48.743931
 20
120.781894
 11
48.023550
 21
120.061513
  0
LINE
  8
1
 62
7
  6
CONTINUOUS
 10
47.065781
 20
120.781894
 11
47.786162
 21
120.061513
  0
LINE
  8
1
 62
7
  6
CONTINUOUS
 10
44.249885
 20
119.419560
 11
51.629566
 21
119.419560
  0
LINE
  8
1
 62
7
  6
CONTINUOUS
 10
47.904856
 20
123.067486
 11
47.904856
 21
115.529951
  0
ARC
  8
1
 62
7
  6
CONTINUOUS
 10
97.504856
 20
150.219560
 40
0.635000
 50
-7.458449
 51
7.458449
  0
ARC
  8
1
 62
7
  6
CONTINUOUS
 10
97.504856
 20
150.219560
 40
1.600000
 50
-58.370676
 51
-31.629324
  0
ARC
  8
1
 62
7
  6
CONTINUOUS
 10
97.504856
 20
150.219560
 40
0.635000
 50
-97.458449
 51
-82.541551
  0
ARC
  8
1
 62
7
  6
CONTINUOUS
 10
97.504856
 20
150.219560
 40
1.600000
 50
-148.370676
 51
-121.629324
  0
ARC
  8
1
 62
7
  6
CONTINUOUS
 10
97.504856
 20
150.219560
 40
0.635000
 50
172.541551
 51
-172.541551
  0
ARC
  8
1
 62
7
  6
CONTINUOUS
 10
97.504856
 20
150.219560
 40
1.600000
 50
121.629324
 51
148.370676
  0
ARC
  8
1
 62
7
  6
CONTINUOUS
 10
97.504856
 20
150.219560
 40
0.635000
 50
82.541551
 51
97.458449
  0
ARC
  8
1
 62
7
  6
CONTINUOUS
 10
97.504856
 20
150.219560
 40
1.600000
 50
31.629324
 51
58.370676
  0
ARC
  8
1
 62
7
  6
CONTINUOUS
 10
97.504856
 20
119.419560
 40
0.635000
 50
-7.458449
 51
7.458449
  0
ARC
  8
1
 62
7
  6
CONTINUOUS
 10
97.504856
 20
119.419560
 40
1.600000
 50
-58.370676
 51
-31.629324
  0
ARC
  8
1
 62
7
  6
CONTINUOUS
 10
97.504856
 20
119.419560
 40
0.635000
 50
-97.458449
 51
-82.541551
  0
ARC
  8
1
 62
7
  6
CONTINUOUS
 10
97.504856
 20
119.419560
 40
1.600000
 50
-148.370676
 51
-121.629324
  0
ARC
  8
1
 62
7
  6
CONTINUOUS
 10
97.504856
 20
119.419560
 40
0.635000
 50
172.541551
 51
-172.541551
  0
ARC
  8
1
 62
7
  6
CONTINUOUS
 10
97.504856
 20
119.419560
 40
1.600000
 50
121.629324
 51
148.370676
  0
ARC
  8
1
 62
7
  6
CONTINUOUS
 10
97.504856
 20
119.419560
 40
0.635000
 50
82.541551
 51
97.458449
  0
ARC
  8
1
 62
7
  6
CONTINUOUS
 10
97.504856
 20
119.419560
 40
1.600000
 50
31.629324
 51
58.370676
  0
ARC
  8
1
 62
7
  6
CONTINUOUS
 10
47.904856
 20
150.219560
 40
0.635000
 50
-7.458449
 51
7.458449
  0
ARC
  8
1
 62
7
  6
CONTINUOUS
 10
47.904856
 20
150.219560
 40
1.600000
 50
-58.370676
 51
-31.629324
  0
ARC
  8
1
 62
7
  6
CONTINUOUS
 10
47.904856
 20
150.219560
 40
0.635000
 50
-97.458449
 51
-82.541551
  0
ARC
  8
1
 62
7
  6
CONTINUOUS
 10
47.904856
 20
150.219560
 40
1.600000
 50
-148.370676
 51
-121.629324
  0
ARC
  8
1
 62
7
  6
CONTINUOUS
 10
47.904856
 20
150.219560
 40
0.635000
 50
172.541551
 51
-172.541551
  0
ARC
  8
1
 62
7
  6
CONTINUOUS
 10
47.904856
 20
150.219560
 40
1.600000
 50
121.629324
 51
148.370676
  0
ARC
  8
1
 62
7
  6
CONTINUOUS
 10
47.904856
 20
150.219560
 40
0.635000
 50
82.541551
 51
97.458449
  0
ARC
  8
1
 62
7
  6
CONTINUOUS
 10
47.904856
 20
150.219560
 40
1.600000
 50
31.629324
 51
58.370676
  0
ARC
  8
1
 62
7
  6
CONTINUOUS
 10
47.904856
 20
119.419560
 40
0.635000
 50
-7.458449
 51
7.458449
  0
ARC
  8
1
 62
7
  6
CONTINUOUS
 10
47.904856
 20
119.419560
 40
1.600000
 50
-58.370676
 51
-31.629324
  0
ARC
  8
1
 62
7
  6
CONTINUOUS
 10
47.904856
 20
119.419560
 40
0.635000
 50
-97.458449
 51
-82.541551
  0
ARC
  8
1
 62
7
  6
CONTINUOUS
 10
47.904856
 20
119.419560
 40
1.600000
 50
-148.370676
 51
-121.629324
  0
ARC
  8
1
 62
7
  6
CONTINUOUS
 10
47.904856
 20
119.419560
 40
0.635000
 50
172.541551
 51
-172.541551
  0
ARC
  8
1
 62
7
  6
CONTINUOUS
 10
47.904856
 20
119.419560
 40
1.600000
 50
121.629324
 51
148.370676
  0
ARC
  8
1
 62
7
  6
CONTINUOUS
 10
47.904856
 20
119.419560
 40
0.635000
 50
82.541551
 51
97.458449
  0
ARC
  8
1
 62
7
  6
CONTINUOUS
 10
47.904856
 20
119.419560
 40
1.600000
 50
31.629324
 51
58.370676
  0
CIRCLE
  8
1
 62
7
  6
CONTINUOUS
 10
97.504856
 20
150.219560
 40
2.750000
  0
CIRCLE
  8
1
 62
7
  6
CONTINUOUS
 10
97.504856
 20
119.419560
 40
2.750000
  0
CIRCLE
  8
1
 62
7
  6
CONTINUOUS
 10
47.904856
 20
150.219560
 40
2.750000
  0
CIRCLE
  8
1
 62
7
  6
CONTINUOUS
 10
47.904856
 20
119.419560
 40
2.750000
  0
ARC
  8
1
 62
7
  6
CONTINUOUS
 10
98.177450
 20
150.131507
 40
0.043333
 50
172.541551
 51
-135.000000
  0
ARC
  8
1
 62
7
  6
CONTINUOUS
 10
98.177450
 20
150.307612
 40
0.043333
 50
135.000000
 51
-172.541551
  0
ARC
  8
1
 62
7
  6
CONTINUOUS
 10
97.416803
 20
149.546966
 40
0.043333
 50
82.541551
 51
135.000000
  0
ARC
  8
1
 62
7
  6
CONTINUOUS
 10
97.592909
 20
149.546966
 40
0.043333
 50
45.000000
 51
97.458449
  0
ARC
  8
1
 62
7
  6
CONTINUOUS
 10
96.832262
 20
150.307612
 40
0.043333
 50
-7.458449
 51
45.000000
  0
ARC
  8
1
 62
7
  6
CONTINUOUS
 10
96.832262
 20
150.131507
 40
0.043333
 50
-45.000000
 51
7.458449
  0
ARC
  8
1
 62
7
  6
CONTINUOUS
 10
97.592909
 20
150.892154
 40
0.043333
 50
-97.458449
 51
-45.000000
  0
ARC
  8
1
 62
7
  6
CONTINUOUS
 10
97.416803
 20
150.892154
 40
0.043333
 50
-135.000000
 51
-82.541551
  0
ARC
  8
1
 62
7
  6
CONTINUOUS
 10
98.177450
 20
119.331507
 40
0.043333
 50
172.541551
 51
-135.000000
  0
ARC
  8
1
 62
7
  6
CONTINUOUS
 10
98.177450
 20
119.507612
 40
0.043333
 50
135.000000
 51
-172.541551
  0
ARC
  8
1
 62
7
  6
CONTINUOUS
 10
97.416803
 20
118.746966
 40
0.043333
 50
82.541551
 51
135.000000
  0
ARC
  8
1
 62
7
  6
CONTINUOUS
 10
97.592909
 20
118.746966
 40
0.043333
 50
45.000000
 51
97.458449
  0
ARC
  8
1
 62
7
  6
CONTINUOUS
 10
96.832262
 20
119.507612
 40
0.043333
 50
-7.458449
 51
45.000000
  0
ARC
  8
1
 62
7
  6
CONTINUOUS
 10
96.832262
 20
119.331507
 40
0.043333
 50
-45.000000
 51
7.458449
  0
ARC
  8
1
 62
7
  6
CONTINUOUS
 10
97.592909
 20
120.092154
 40
0.043333
 50
-97.458449
 51
-45.000000
  0
ARC
  8
1
 62
7
  6
CONTINUOUS
 10
97.416803
 20
120.092154
 40
0.043333
 50
-135.000000
 51
-82.541551
  0
ARC
  8
1
 62
7
  6
CONTINUOUS
 10
48.577450
 20
150.131507
 40
0.043333
 50
172.541551
 51
-135.000000
  0
ARC
  8
1
 62
7
  6
CONTINUOUS
 10
48.577450
 20
150.307612
 40
0.043333
 50
135.000000
 51
-172.541551
  0
ARC
  8
1
 62
7
  6
CONTINUOUS
 10
47.816803
 20
149.546966
 40
0.043333
 50
82.541551
 51
135.000000
  0
ARC
  8
1
 62
7
  6
CONTINUOUS
 10
47.992909
 20
149.546966
 40
0.043333
 50
45.000000
 51
97.458449
  0
ARC
  8
1
 62
7
  6
CONTINUOUS
 10
47.232262
 20
150.307612
 40
0.043333
 50
-7.458449
 51
45.000000
  0
ARC
  8
1
 62
7
  6
CONTINUOUS
 10
47.232262
 20
150.131507
 40
0.043333
 50
-45.000000
 51
7.458449
  0
ARC
  8
1
 62
7
  6
CONTINUOUS
 10
47.992909
 20
150.892154
 40
0.043333
 50
-97.458449
 51
-45.000000
  0
ARC
  8
1
 62
7
  6
CONTINUOUS
 10
47.816803
 20
150.892154
 40
0.043333
 50
-135.000000
 51
-82.541551
  0
ARC
  8
1
 62
7
  6
CONTINUOUS
 10
48.577450
 20
119.331507
 40
0.043333
 50
172.541551
 51
-135.000000
  0
ARC
  8
1
 62
7
  6
CONTINUOUS
 10
48.577450
 20
119.507612
 40
0.043333
 50
135.000000
 51
-172.541551
  0
ARC
  8
1
 62
7
  6
CONTINUOUS
 10
47.816803
 20
118.746966
 40
0.043333
 50
82.541551
 51
135.000000
  0
ARC
  8
1
 62
7
  6
CONTINUOUS
 10
47.992909
 20
118.746966
 40
0.043333
 50
45.000000
 51
97.458449
  0
ARC
  8
1
 62
7
  6
CONTINUOUS
 10
47.232262
 20
119.507612
 40
0.043333
 50
-7.458449
 51
45.000000
  0
ARC
  8
1
 62
7
  6
CONTINUOUS
 10
47.232262
 20
119.331507
 40
0.043333
 50
-45.000000
 51
7.458449
  0
ARC
  8
1
 62
7
  6
CONTINUOUS
 10
47.992909
 20
120.092154
 40
0.043333
 50
-97.458449
 51
-45.000000
  0
ARC
  8
1
 62
7
  6
CONTINUOUS
 10
47.816803
 20
120.092154
 40
0.043333
 50
-135.000000
 51
-82.541551
  0
LINE
  8
1
 62
7
  6
CONTINUOUS
 10
122.104856
 20
115.769560
 11
122.104856
 21
153.869560
  0
LINE
  8
1
 62
7
  6
CONTINUOUS
 10
160.104856
 20
115.769560
 11
121.104856
 21
115.769560
  0
LINE
  8
1
 62
7
  6
CONTINUOUS
 10
160.104856
 20
153.869560
 11
121.104856
 21
153.869560
  0
LINE
  8
1
 62
7
  6
CONTINUOUS
 10
122.104856
 20
153.869560
 11
122.520856
 21
150.669560
  0
LINE
  8
1
 62
7
  6
CONTINUOUS
 10
122.520856
 20
150.669560
 11
121.688856
 21
150.669560
  0
LINE
  8
1
 62
7
  6
CONTINUOUS
 10
121.688856
 20
150.669560
 11
122.104856
 21
153.869560
  0
LINE
  8
1
 62
7
  6
CONTINUOUS
 10
122.104856
 20
115.769560
 11
121.688856
 21
118.969560
  0
LINE
  8
1
 62
7
  6
CONTINUOUS
 10
121.688856
 20
118.969560
 11
122.520856
 21
118.969560
  0
LINE
  8
1
 62
7
  6
CONTINUOUS
 10
122.520856
 20
118.969560
 11
122.104856
 21
115.769560
  0
TEXT
  8
1
 62
7
  6
CONTINUOUS
 10
119.304856
 20
128.577782
 40
3.200000
 41
0.900000
  1
38.1
  7
KANJI
 50
90.000000
 51
0.000000
  0
TEXT
  8
1
 62
7
  6
CONTINUOUS
 10
117.224856
 20
137.937782
 40
1.920000
 41
0.900000
  1
 0
  7
KANJI
 50
90.000000
 51
0.000000
  0
TEXT
  8
1
 62
7
  6
CONTINUOUS
 10
120.104856
 20
137.937782
 40
1.920000
 41
0.900000
  1
-0.02
  7
KANJI
 50
90.000000
 51
0.000000
  0
TEXT
  8
1
 62
7
  6
CONTINUOUS
 10
119.304856
 20
124.933338
 40
3.200000
 41
0.900000
  1
φ
  7
KANJI
 50
90.000000
 51
0.000000
  0
LINE
  8
1
 62
7
  6
CONTINUOUS
 10
104.114983
 20
169.737941
 11
137.359427
 21
169.737941
  0
LINE
  8
1
 62
7
  6
CONTINUOUS
 10
97.553764
 20
160.240747
 11
104.114983
 21
169.737941
  0
LINE
  8
1
 62
7
  6
CONTINUOUS
 10
97.553764
 20
160.240747
 11
99.030393
 21
163.110002
  0
LINE
  8
1
 62
7
  6
CONTINUOUS
 10
99.030393
 20
163.110002
 11
99.714920
 21
162.637090
  0
LINE
  8
1
 62
7
  6
CONTINUOUS
 10
99.714920
 20
162.637090
 11
97.553764
 21
160.240747
  0
TEXT
  8
1
 62
7
  6
CONTINUOUS
 10
118.399427
 20
171.737941
 40
3.200000
 41
0.900000
  1
4.5
  7
KANJI
 50
0.000000
 51
0.000000
  0
TEXT
  8
1
 62
7
  6
CONTINUOUS
 10
109.314983
 20
171.737941
 40
3.200000
 41
0.900000
  1
4-φ
  7
KANJI
 50
0.000000
 51
0.000000
  0
TEXT
  8
1
 62
7
  6
CONTINUOUS
 10
125.839427
 20
171.737941
 40
3.200000
 41
0.900000
  1
HOLE
  7
KANJI
 50
0.000000
 51
0.000000
  0
ENDSEC
  0
EOF
