  0
SECTION
  2
HEADER
  9
$ACADVER
  1
AC1003
  9
$INSBASE
 10
0.000000
 20
0.000000
  9
$EXTMIN
 10
0.000000
 20
0.000000
  9
$EXTMAX
 10
420.000000
 20
297.000000
  9
$LIMMIN
 10
0.000000
 20
0.000000
  9
$LIMMAX
 10
420.000000
 20
297.000000
  9
$VIEWCTR
 10
210.000000
 20
148.500000
  9
$VIEWSIZE
 40
297.000000
  9
$PEXTMIN
 10
0.000000
 20
0.000000
 30
0.000000
  9
$PEXTMAX
 10
420.000000
 20
297.000000
 30
0.000000
  9
$SNAPMODE
 70
     0
  9
$SNAPUNIT
 10
1.000000
 20
1.000000
  9
$SNAPBASE
 10
0.000000
 20
0.000000
  9
$SNAPANG
 50
0.000000
  9
$SNAPISOPAIR
 70
     0
  9
$SNAPSTYLE
 70
     0
  9
$GRIDMODE
 70
     0
  9
$GRIDUNIT
 10
0.000000
 20
0.000000
  9
$ORTHOMODE
 70
     0
  9
$REGENMODE
 70
     1
  9
$FILLMODE
 70
     1
  9
$QTEXTMODE
 70
     0
  9
$DRAGMODE
 70
     2
  9
$LTSCALE
 40
0.250000
  9
$OSMODE
 70
     0
  9
$ATTMODE
 70
     1
  9
$TEXTSIZE
 40
0.200000
  9
$TRACEWID
 40
0.050000
  9
$TEXTSTYLE
  7
STANDARD
  9
$CLAYER
  8
0
  9
$CELTYPE
  6
BYLAYER
  9
$CECOLOR
 62
   256
  9
$DIMSCALE
 40
1.000000
  9
$DIMASZ
 40
1.000000
  9
$DIMEXO
 40
0.000000
  9
$DIMDLI
 40
0.500000
  9
$DIMRND
 40
0.000000
  9
$DIMDLE
 40
0.000000
  9
$DIMEXE
 40
0.000000
  9
$DIMTP
 40
0.000000
  9
$DIMTM
 40
0.000000
  9
$DIMTXT
 40
0.180000
  9
$DIMCEN
 40
0.000000
  9
$DIMTSZ
 40
0.000000
  9
$DIMTOL
 70
     0
  9
$DIMLIM
 70
     0
  9
$DIMTIH
 70
     1
  9
$DIMTOH
 70
     1
  9
$DIMSE1
 70
     0
  9
$DIMSE2
 70
     0
  9
$DIMTAD
 70
     0
  9
$DIMZIN
 70
     0
  9
$DIMBLK
  1

  9
$DIMASO
 70
     0
  9
$DIMSHO
 70
     0
  9
$DIMPOST
  1

  9
$DIMAPOST
  1

  9
$DIMALT
 70
     0
  9
$DIMALTD
 70
     0
  9
$DIMALTF
 40
25.400000
  9
$DIMLFAC
 40
1.000000
  9
$DIMTOFL
 70
     0
  9
$DIMTVP
 40
0.000000
  9
$DIMTIX
 70
     0
  9
$DIMSOXD
 70
     0
  9
$DIMSAH
 70
     0
  9
$DIMBLKL
  1

  9
$DIMBLKR
  1

  9
$LUNITS
 70
     2
  9
$LUPREC
 70
     2
  9
$AXISMODE
 70
     0
  9
$AXISUNIT
 10
1.000000
 20
1.000000
  9
$SKETCHINC
 40
0.000000
  9
$FILLETRAD
 40
0.000000
  9
$AUNITS
 70
     1
  9
$AUPREC
 70
     2
  9
$MENU
  1
ACAD
  9
$ELEVATION
 40
0.000000
  9
$THICKNESS
 40
0.000000
  9
$VIEWDIR
 10
0.000000
 20
0.000000
 30
1.000000
  9
$LIMCHECK
 70
     1
  9
$BLIPMODE
 70
     1
  9
$CHAMFERA
 40
0.000000
  9
$CHAMFERB
 40
0.000000
  9
$FASTZOOM
 70
     1
  9
$SKPOLY
 70
     0
  9
$TDCREATE
 40
0.000000
  9
$TDUPDATE
 40
0.000000
  9
$TDINDWG
 40
0.000000
  9
$TDUSRTIMER
 40
0.000000
  9
$USRTIMER
 70
     1
  9
$ANGBASE
 50
0.000000
  9
$ANGDIR
 70
     0
  9
$PDMODE
 70
     0
  9
$PDSIZE
 40
0.000000
  9
$PLINEWID
 40
0.000000
  9
$COORDS
 70
     2
  9
$USERI1
 70
     0
  9
$USERI2
 70
     0
  9
$USERI3
 70
     0
  9
$USERI4
 70
     0
  9
$USERI5
 70
     0
  9
$USERR1
 40
0.000000
  9
$USERR2
 40
0.000000
  9
$USERR3
 40
0.000000
  9
$USERR4
 40
0.000000
  9
$USERR5
 40
0.000000
  0
ENDSEC
  0
SECTION
  2
TABLES
  0
TABLE
  2
LTYPE
 70
     5
  0
LTYPE
  2
CONTINUOUS
 70
    64
  3
Solid line
 72
    65
 73
     0
 40
0.0
  0
LTYPE
  2
HIDDEN
 70
    64
  3
------------------------
 72
    65
 73
     2
 40
12.6
 49
8.4
 49
-4.2
  0
LTYPE
  2
DOT
 70
    64
  3
ÑÑÑÑÑÑÑÑÑÑÑÑÑÑÑÑÑÑÑÑÑÑÑÑ
 72
    65
 73
     2
 40
8.0
 49
6.0
 49
-2.0
  0
LTYPE
  2
DASHDOT
 70
    64
  3
--Ñ--Ñ--Ñ--Ñ--Ñ--Ñ--Ñ--
 72
    65
 73
     4
 40
50.5
 49
30.0
 49
-9.0
 49
2.5
 49
-9.0
  0
LTYPE
  2
DIVIDE
 70
    64
  3
--ÑÑ--ÑÑ--ÑÑ--ÑÑ--ÑÑ--
 72
    65
 73
     6
 40
58.0
 49
30.0
 49
-9.0
 49
2.5
 49
-5.0
 49
2.5
 49
-9.0
  0
ENDTAB
  0
TABLE
  2
LAYER
 70
4
  0
LAYER
  2
1
 70
64
 62
7
  6
CONTINUOUS
  0
LAYER
  2
2
 70
64
 62
134
  6
CONTINUOUS
  0
LAYER
  2
4
 70
64
 62
54
  6
CONTINUOUS
  0
LAYER
  2
128
 70
64
 62
7
  6
CONTINUOUS
  0
ENDTAB
  0
TABLE
  2
STYLE
 70
     2
  0
STYLE
  2
STANDARD
 70
    64
 40
0.0
 41
1.0
 50
0.0
 71
     0
 42
0.2
  3
TXT
  4

  0
STYLE
  2
KANJI
 70
    64
 40
0.0
 41
1.0
 50
0.0
 71
     0
 42
0.2
  3
TXT
  4
BIGFONT
  0
ENDTAB
  0
TABLE
  2
VIEW
 70
     0
  0
ENDTAB
  0
ENDSEC
  0
SECTION
  2
BLOCKS
  0
ENDSEC
  0
SECTION
  2
ENTITIES
  0
LINE
  8
1
 62
7
  6
CONTINUOUS
 10
174.423316
 20
159.099407
 11
185.832216
 21
159.099407
  0
LINE
  8
1
 62
7
  6
CONTINUOUS
 10
25.724591
 20
113.918199
 11
25.231035
 21
113.918199
  0
LINE
  8
1
 62
7
  6
CONTINUOUS
 10
51.218146
 20
113.918199
 11
50.724591
 21
113.918199
  0
LINE
  8
1
 62
7
  6
HIDDEN
 10
50.074591
 20
109.418199
 11
26.274591
 21
109.418199
  0
LINE
  8
1
 62
7
  6
HIDDEN
 10
43.524591
 20
109.418199
 11
43.524591
 21
96.902841
  0
LINE
  8
1
 62
7
  6
HIDDEN
 10
35.524591
 20
109.418199
 11
35.524591
 21
96.902841
  0
LINE
  8
1
 62
7
  6
HIDDEN
 10
31.524591
 20
109.418199
 11
31.524591
 21
96.902841
  0
LINE
  8
1
 62
7
  6
HIDDEN
 10
48.824591
 20
109.418199
 11
48.824591
 21
96.902841
  0
LINE
  8
1
 62
7
  6
HIDDEN
 10
44.824591
 20
109.418199
 11
44.824591
 21
96.902841
  0
LINE
  8
1
 62
7
  6
HIDDEN
 10
40.824591
 20
109.418199
 11
40.824591
 21
96.902841
  0
LINE
  8
1
 62
7
  6
HIDDEN
 10
39.524591
 20
109.418199
 11
39.524591
 21
96.902841
  0
LINE
  8
1
 62
7
  6
HIDDEN
 10
27.524591
 20
109.418199
 11
27.524591
 21
96.902841
  0
LINE
  8
1
 62
7
  6
HIDDEN
 10
27.024591
 20
111.368199
 11
26.274591
 21
110.018199
  0
LINE
  8
1
 62
7
  6
HIDDEN
 10
49.424591
 20
111.368199
 11
50.074591
 21
110.018199
  0
LINE
  8
1
 62
7
  6
HIDDEN
 10
50.074591
 20
109.418199
 11
50.074591
 21
110.018199
  0
LINE
  8
1
 62
7
  6
HIDDEN
 10
26.274591
 20
109.418199
 11
26.274591
 21
110.018199
  0
LINE
  8
1
 62
7
  6
HIDDEN
 10
28.824591
 20
96.902841
 11
28.824591
 21
109.418199
  0
LINE
  8
1
 62
7
  6
HIDDEN
 10
32.824591
 20
96.902841
 11
32.824591
 21
109.418199
  0
LINE
  8
1
 62
7
  6
HIDDEN
 10
36.824591
 20
96.902841
 11
36.824591
 21
109.418199
  0
LINE
  8
1
 62
7
  6
HIDDEN
 10
47.524591
 20
109.418199
 11
47.524591
 21
96.902841
  0
LINE
  8
1
 62
7
  6
CONTINUOUS
 10
48.624591
 20
113.268199
 11
48.624591
 21
115.918199
  0
LINE
  8
1
 62
7
  6
CONTINUOUS
 10
49.624591
 20
113.268199
 11
48.624591
 21
113.268199
  0
LINE
  8
1
 62
7
  6
CONTINUOUS
 10
49.624591
 20
115.918199
 11
49.624591
 21
113.268199
  0
LINE
  8
1
 62
7
  6
CONTINUOUS
 10
27.824591
 20
113.268199
 11
27.824591
 21
115.918199
  0
LINE
  8
1
 62
7
  6
CONTINUOUS
 10
26.824591
 20
113.268199
 11
27.824591
 21
113.268199
  0
LINE
  8
1
 62
7
  6
CONTINUOUS
 10
26.824591
 20
115.918199
 11
26.824591
 21
113.268199
  0
LINE
  8
1
 62
7
  6
CONTINUOUS
 10
47.174591
 20
115.918199
 11
47.174591
 21
111.368199
  0
LINE
  8
1
 62
7
  6
CONTINUOUS
 10
29.274591
 20
115.918199
 11
29.274591
 21
111.368199
  0
LINE
  8
1
 62
7
  6
CONTINUOUS
 10
26.274591
 20
111.368199
 11
50.174591
 21
111.368199
  0
LINE
  8
1
 62
7
  6
CONTINUOUS
 10
50.174591
 20
111.368199
 11
50.174591
 21
115.918199
  0
LINE
  8
1
 62
7
  6
CONTINUOUS
 10
26.274591
 20
111.368199
 11
26.274591
 21
115.918199
  0
LINE
  8
1
 62
7
  6
CONTINUOUS
 10
50.224591
 20
112.368199
 11
50.724591
 21
112.368199
  0
LINE
  8
1
 62
7
  6
CONTINUOUS
 10
50.224591
 20
115.918199
 11
50.224591
 21
112.368199
  0
LINE
  8
1
 62
7
  6
CONTINUOUS
 10
26.224591
 20
112.368199
 11
26.224591
 21
115.918199
  0
LINE
  8
1
 62
7
  6
CONTINUOUS
 10
25.724591
 20
112.368199
 11
26.224591
 21
112.368199
  0
LINE
  8
1
 62
7
  6
CONTINUOUS
 10
50.724591
 20
112.368199
 11
50.724591
 21
115.918199
  0
LINE
  8
1
 62
7
  6
CONTINUOUS
 10
25.724591
 20
112.368199
 11
25.724591
 21
115.918199
  0
LINE
  8
1
 62
7
  6
CONTINUOUS
 10
51.174591
 20
113.918199
 11
51.218146
 21
113.918199
  0
LINE
  8
1
 62
7
  6
CONTINUOUS
 10
50.874591
 20
115.918199
 11
50.874591
 21
114.218199
  0
LINE
  8
1
 62
7
  6
CONTINUOUS
 10
25.574591
 20
114.218199
 11
25.574591
 21
115.918199
  0
LINE
  8
1
 62
7
  6
CONTINUOUS
 10
26.224591
 20
158.918199
 11
50.224591
 21
158.918199
  0
LINE
  8
1
 62
7
  6
CONTINUOUS
 10
59.224591
 20
120.918201
 11
59.224591
 21
152.918199
  0
LINE
  8
1
 62
7
  6
CONTINUOUS
 10
54.224591
 20
157.918199
 11
22.224590
 21
157.918199
  0
LINE
  8
2
 62
134
  6
CONTINUOUS
 10
51.224591
 20
121.418199
 11
56.224591
 21
121.418199
  0
LINE
  8
2
 62
134
  6
CONTINUOUS
 10
53.724591
 20
123.918199
 11
53.724591
 21
118.918199
  0
LINE
  8
2
 62
134
  6
CONTINUOUS
 10
22.724581
 20
123.918199
 11
22.724581
 21
118.918199
  0
LINE
  8
2
 62
134
  6
CONTINUOUS
 10
25.224591
 20
121.418199
 11
20.224591
 21
121.418199
  0
LINE
  8
2
 62
134
  6
CONTINUOUS
 10
25.224591
 20
152.418199
 11
20.224591
 21
152.418199
  0
LINE
  8
2
 62
134
  6
CONTINUOUS
 10
22.724601
 20
149.918199
 11
22.724601
 21
154.918199
  0
LINE
  8
2
 62
134
  6
CONTINUOUS
 10
53.724591
 20
149.918199
 11
53.724591
 21
154.918199
  0
LINE
  8
2
 62
134
  6
CONTINUOUS
 10
51.224591
 20
152.418199
 11
56.224591
 21
152.418199
  0
LINE
  8
2
 62
134
  6
CONTINUOUS
 10
11.303111
 20
136.918199
 11
64.724091
 21
136.918199
  0
LINE
  8
2
 62
134
  6
CONTINUOUS
 10
38.224591
 20
110.330132
 11
38.224591
 21
161.918199
  0
LINE
  8
1
 62
7
  6
CONTINUOUS
 10
25.231035
 20
113.918199
 11
25.274591
 21
113.918199
  0
LINE
  8
1
 62
7
  6
CONTINUOUS
 10
17.224582
 20
120.918211
 11
17.224590
 21
152.918201
  0
LINE
  8
1
 62
7
  6
CONTINUOUS
 10
22.224581
 20
115.918210
 11
54.224590
 21
115.918201
  0
LINE
  8
1
 62
7
  6
CONTINUOUS
 10
198.656274
 20
35.058408
 11
202.156274
 21
35.058408
  0
LINE
  8
1
 62
7
  6
CONTINUOUS
 10
198.656274
 20
35.358408
 11
202.156274
 21
35.358408
  0
LINE
  8
1
 62
7
  6
CONTINUOUS
 10
198.656274
 20
39.058408
 11
202.156274
 21
39.058408
  0
LINE
  8
1
 62
7
  6
CONTINUOUS
 10
198.656274
 20
39.358408
 11
202.156274
 21
39.358408
  0
LINE
  8
1
 62
7
  6
CONTINUOUS
 10
198.656274
 20
43.058408
 11
202.156274
 21
43.058408
  0
LINE
  8
1
 62
7
  6
CONTINUOUS
 10
198.656274
 20
43.358408
 11
202.156274
 21
43.358408
  0
LINE
  8
1
 62
7
  6
CONTINUOUS
 10
198.656274
 20
47.058408
 11
202.156274
 21
47.058408
  0
LINE
  8
1
 62
7
  6
CONTINUOUS
 10
198.656274
 20
47.358408
 11
202.156274
 21
47.358408
  0
LINE
  8
1
 62
7
  6
CONTINUOUS
 10
198.656274
 20
51.058408
 11
202.156274
 21
51.058408
  0
LINE
  8
1
 62
7
  6
CONTINUOUS
 10
198.656274
 20
51.358408
 11
202.156274
 21
51.358408
  0
LINE
  8
1
 62
7
  6
CONTINUOUS
 10
198.656274
 20
55.058408
 11
202.156274
 21
55.058408
  0
LINE
  8
1
 62
7
  6
CONTINUOUS
 10
198.656274
 20
55.358408
 11
202.156274
 21
55.358408
  0
LINE
  8
1
 62
7
  6
CONTINUOUS
 10
198.656274
 20
35.658408
 11
202.156274
 21
35.658408
  0
LINE
  8
1
 62
7
  6
CONTINUOUS
 10
198.656274
 20
39.658408
 11
202.156274
 21
39.658408
  0
LINE
  8
1
 62
7
  6
CONTINUOUS
 10
198.656274
 20
43.658408
 11
202.156274
 21
43.658408
  0
LINE
  8
1
 62
7
  6
CONTINUOUS
 10
198.656274
 20
47.658408
 11
202.156274
 21
47.658408
  0
LINE
  8
1
 62
7
  6
CONTINUOUS
 10
198.656274
 20
51.658408
 11
202.156274
 21
51.658408
  0
LINE
  8
1
 62
7
  6
CONTINUOUS
 10
198.656274
 20
55.658408
 11
202.156274
 21
55.658408
  0
LINE
  8
1
 62
7
  6
CONTINUOUS
 10
198.656274
 20
38.738408
 11
198.656274
 21
39.978408
  0
LINE
  8
1
 62
7
  6
CONTINUOUS
 10
198.656274
 20
42.738408
 11
198.656274
 21
43.978408
  0
LINE
  8
1
 62
7
  6
CONTINUOUS
 10
198.656274
 20
46.738408
 11
198.656274
 21
47.978408
  0
LINE
  8
1
 62
7
  6
CONTINUOUS
 10
198.656274
 20
50.738408
 11
198.656274
 21
51.978408
  0
LINE
  8
1
 62
7
  6
CONTINUOUS
 10
198.656274
 20
54.738408
 11
198.656274
 21
55.978408
  0
LINE
  8
1
 62
7
  6
CONTINUOUS
 10
172.515209
 20
55.978408
 11
153.488463
 21
55.978408
  0
LINE
  8
1
 62
7
  6
CONTINUOUS
 10
172.515209
 20
54.738408
 11
153.488463
 21
54.738408
  0
LINE
  8
1
 62
7
  6
CONTINUOUS
 10
172.515209
 20
51.978408
 11
153.488463
 21
51.978408
  0
LINE
  8
1
 62
7
  6
CONTINUOUS
 10
172.515209
 20
50.738408
 11
153.488463
 21
50.738408
  0
LINE
  8
1
 62
7
  6
CONTINUOUS
 10
172.515209
 20
47.978408
 11
153.488463
 21
47.978408
  0
LINE
  8
1
 62
7
  6
CONTINUOUS
 10
172.515209
 20
46.738408
 11
153.488463
 21
46.738408
  0
LINE
  8
1
 62
7
  6
CONTINUOUS
 10
172.515209
 20
43.978408
 11
153.488463
 21
43.978408
  0
LINE
  8
1
 62
7
  6
CONTINUOUS
 10
172.515209
 20
42.738408
 11
153.488463
 21
42.738408
  0
LINE
  8
1
 62
7
  6
CONTINUOUS
 10
172.515209
 20
39.978408
 11
153.488463
 21
39.978408
  0
LINE
  8
1
 62
7
  6
CONTINUOUS
 10
172.515209
 20
38.738408
 11
153.488463
 21
38.738408
  0
LINE
  8
1
 62
7
  6
CONTINUOUS
 10
172.515209
 20
35.978408
 11
153.488463
 21
35.978408
  0
LINE
  8
1
 62
7
  6
CONTINUOUS
 10
172.515209
 20
34.738408
 11
153.488463
 21
34.738408
  0
LINE
  8
1
 62
7
  6
CONTINUOUS
 10
153.488463
 20
55.978408
 11
145.614700
 21
55.978408
  0
LINE
  8
1
 62
7
  6
CONTINUOUS
 10
153.488463
 20
54.738408
 11
145.614700
 21
54.738408
  0
LINE
  8
1
 62
7
  6
CONTINUOUS
 10
153.488463
 20
51.978408
 11
145.614700
 21
51.978408
  0
LINE
  8
1
 62
7
  6
CONTINUOUS
 10
153.488463
 20
50.738408
 11
145.614700
 21
50.738408
  0
LINE
  8
1
 62
7
  6
CONTINUOUS
 10
153.488463
 20
47.978408
 11
145.614700
 21
47.978408
  0
LINE
  8
1
 62
7
  6
CONTINUOUS
 10
153.488463
 20
46.738408
 11
145.614700
 21
46.738408
  0
LINE
  8
1
 62
7
  6
CONTINUOUS
 10
153.488463
 20
43.978408
 11
145.614700
 21
43.978408
  0
LINE
  8
1
 62
7
  6
CONTINUOUS
 10
153.488463
 20
42.738408
 11
145.614700
 21
42.738408
  0
LINE
  8
1
 62
7
  6
CONTINUOUS
 10
153.488463
 20
39.978408
 11
145.614700
 21
39.978408
  0
LINE
  8
1
 62
7
  6
CONTINUOUS
 10
153.488463
 20
38.738408
 11
145.614700
 21
38.738408
  0
LINE
  8
1
 62
7
  6
CONTINUOUS
 10
153.488463
 20
35.978408
 11
145.614700
 21
35.978408
  0
LINE
  8
1
 62
7
  6
CONTINUOUS
 10
145.614700
 20
34.738408
 11
153.488463
 21
34.738408
  0
LINE
  8
1
 62
7
  6
CONTINUOUS
 10
173.515209
 20
34.738408
 11
198.656274
 21
34.738408
  0
LINE
  8
1
 62
7
  6
CONTINUOUS
 10
173.515209
 20
35.978408
 11
198.656274
 21
35.978408
  0
LINE
  8
1
 62
7
  6
CONTINUOUS
 10
173.515209
 20
38.738408
 11
198.656274
 21
38.738408
  0
LINE
  8
1
 62
7
  6
CONTINUOUS
 10
173.515209
 20
39.978408
 11
198.656274
 21
39.978408
  0
LINE
  8
1
 62
7
  6
CONTINUOUS
 10
173.515209
 20
42.738408
 11
198.656274
 21
42.738408
  0
LINE
  8
1
 62
7
  6
CONTINUOUS
 10
173.515209
 20
43.978408
 11
198.656274
 21
43.978408
  0
LINE
  8
1
 62
7
  6
CONTINUOUS
 10
173.515209
 20
46.738408
 11
198.656274
 21
46.738408
  0
LINE
  8
1
 62
7
  6
CONTINUOUS
 10
173.515209
 20
47.978408
 11
198.656274
 21
47.978408
  0
LINE
  8
1
 62
7
  6
CONTINUOUS
 10
173.515209
 20
50.738408
 11
198.656274
 21
50.738408
  0
LINE
  8
1
 62
7
  6
CONTINUOUS
 10
173.515209
 20
51.978408
 11
198.656274
 21
51.978408
  0
LINE
  8
1
 62
7
  6
CONTINUOUS
 10
173.515209
 20
54.738408
 11
198.656274
 21
54.738408
  0
LINE
  8
1
 62
7
  6
CONTINUOUS
 10
173.515209
 20
55.978408
 11
198.656274
 21
55.978408
  0
LINE
  8
1
 62
7
  6
CONTINUOUS
 10
172.515209
 20
32.738408
 11
172.515209
 21
57.978408
  0
LINE
  8
1
 62
7
  6
CONTINUOUS
 10
173.515209
 20
32.738408
 11
173.515209
 21
57.978408
  0
LINE
  8
1
 62
7
  6
CONTINUOUS
 10
145.614700
 20
55.978408
 11
142.238209
 21
55.978408
  0
LINE
  8
1
 62
7
  6
CONTINUOUS
 10
145.614700
 20
54.738408
 11
142.238209
 21
54.738408
  0
LINE
  8
1
 62
7
  6
CONTINUOUS
 10
145.614700
 20
51.978408
 11
142.238209
 21
51.978408
  0
LINE
  8
1
 62
7
  6
CONTINUOUS
 10
145.614700
 20
50.738408
 11
142.238209
 21
50.738408
  0
LINE
  8
1
 62
7
  6
CONTINUOUS
 10
145.614700
 20
47.978408
 11
142.238209
 21
47.978408
  0
LINE
  8
1
 62
7
  6
CONTINUOUS
 10
145.614700
 20
46.738408
 11
142.238209
 21
46.738408
  0
LINE
  8
1
 62
7
  6
CONTINUOUS
 10
145.614700
 20
43.978408
 11
142.238209
 21
43.978408
  0
LINE
  8
1
 62
7
  6
CONTINUOUS
 10
145.614700
 20
42.738408
 11
142.238209
 21
42.738408
  0
LINE
  8
1
 62
7
  6
CONTINUOUS
 10
145.614700
 20
39.978408
 11
142.238209
 21
39.978408
  0
LINE
  8
1
 62
7
  6
CONTINUOUS
 10
145.614700
 20
38.738408
 11
142.238209
 21
38.738408
  0
LINE
  8
1
 62
7
  6
CONTINUOUS
 10
145.614700
 20
35.978408
 11
142.238209
 21
35.978408
  0
LINE
  8
1
 62
7
  6
CONTINUOUS
 10
145.614700
 20
34.738408
 11
142.238209
 21
34.738408
  0
LINE
  8
1
 62
7
  6
CONTINUOUS
 10
142.238209
 20
55.958408
 11
141.738209
 21
55.958408
  0
LINE
  8
1
 62
7
  6
CONTINUOUS
 10
142.238209
 20
34.758408
 11
141.738209
 21
34.758408
  0
LINE
  8
1
 62
7
  6
CONTINUOUS
 10
139.538209
 20
37.758408
 11
139.538209
 21
52.958408
  0
LINE
  8
1
 62
7
  6
CONTINUOUS
 10
141.738209
 20
53.958408
 11
135.388209
 21
53.958408
  0
LINE
  8
1
 62
7
  6
CONTINUOUS
 10
141.038209
 20
52.958408
 11
135.388209
 21
52.958408
  0
LINE
  8
1
 62
7
  6
CONTINUOUS
 10
141.038209
 20
37.758408
 11
141.038209
 21
52.958408
  0
LINE
  8
1
 62
7
  6
CONTINUOUS
 10
135.388209
 20
37.758408
 11
141.038209
 21
37.758408
  0
LINE
  8
1
 62
7
  6
CONTINUOUS
 10
141.738209
 20
36.758408
 11
135.388209
 21
36.758408
  0
LINE
  8
1
 62
7
  6
CONTINUOUS
 10
142.238209
 20
57.308408
 11
142.238209
 21
55.958408
  0
LINE
  8
1
 62
7
  6
CONTINUOUS
 10
141.738209
 20
57.308408
 11
142.238209
 21
57.308408
  0
LINE
  8
1
 62
7
  6
CONTINUOUS
 10
142.238209
 20
33.408408
 11
141.738209
 21
33.408408
  0
LINE
  8
1
 62
7
  6
CONTINUOUS
 10
142.238209
 20
34.758408
 11
142.238209
 21
33.408408
  0
LINE
  8
1
 62
7
  6
CONTINUOUS
 10
142.238209
 20
36.758408
 11
141.738209
 21
36.758408
  0
LINE
  8
1
 62
7
  6
CONTINUOUS
 10
142.238209
 20
35.958408
 11
142.238209
 21
36.758408
  0
LINE
  8
1
 62
7
  6
CONTINUOUS
 10
141.738209
 20
35.958408
 11
142.238209
 21
35.958408
  0
LINE
  8
1
 62
7
  6
CONTINUOUS
 10
142.238209
 20
38.758408
 11
141.738209
 21
38.758408
  0
LINE
  8
1
 62
7
  6
CONTINUOUS
 10
142.238209
 20
37.958408
 11
142.238209
 21
38.758408
  0
LINE
  8
1
 62
7
  6
CONTINUOUS
 10
141.738209
 20
37.958408
 11
142.238209
 21
37.958408
  0
LINE
  8
1
 62
7
  6
CONTINUOUS
 10
142.238209
 20
40.758408
 11
141.738209
 21
40.758408
  0
LINE
  8
1
 62
7
  6
CONTINUOUS
 10
142.238209
 20
39.958408
 11
142.238209
 21
40.758408
  0
LINE
  8
1
 62
7
  6
CONTINUOUS
 10
141.738209
 20
39.958408
 11
142.238209
 21
39.958408
  0
LINE
  8
1
 62
7
  6
CONTINUOUS
 10
142.238209
 20
42.758408
 11
141.738209
 21
42.758408
  0
LINE
  8
1
 62
7
  6
CONTINUOUS
 10
142.238209
 20
41.958408
 11
142.238209
 21
42.758408
  0
LINE
  8
1
 62
7
  6
CONTINUOUS
 10
141.738209
 20
41.958408
 11
142.238209
 21
41.958408
  0
LINE
  8
1
 62
7
  6
CONTINUOUS
 10
142.238209
 20
44.758408
 11
141.738209
 21
44.758408
  0
LINE
  8
1
 62
7
  6
CONTINUOUS
 10
142.238209
 20
43.958408
 11
142.238209
 21
44.758408
  0
LINE
  8
1
 62
7
  6
CONTINUOUS
 10
141.738209
 20
43.958408
 11
142.238209
 21
43.958408
  0
LINE
  8
1
 62
7
  6
CONTINUOUS
 10
142.238209
 20
46.758408
 11
141.738209
 21
46.758408
  0
LINE
  8
1
 62
7
  6
CONTINUOUS
 10
142.238209
 20
45.958408
 11
142.238209
 21
46.758408
  0
LINE
  8
1
 62
7
  6
CONTINUOUS
 10
141.738209
 20
45.958408
 11
142.238209
 21
45.958408
  0
LINE
  8
1
 62
7
  6
CONTINUOUS
 10
142.238209
 20
48.758408
 11
141.738209
 21
48.758408
  0
LINE
  8
1
 62
7
  6
CONTINUOUS
 10
142.238209
 20
47.958408
 11
142.238209
 21
48.758408
  0
LINE
  8
1
 62
7
  6
CONTINUOUS
 10
141.738209
 20
47.958408
 11
142.238209
 21
47.958408
  0
LINE
  8
1
 62
7
  6
CONTINUOUS
 10
142.238209
 20
50.758408
 11
141.738209
 21
50.758408
  0
LINE
  8
1
 62
7
  6
CONTINUOUS
 10
142.238209
 20
49.958408
 11
142.238209
 21
50.758408
  0
LINE
  8
1
 62
7
  6
CONTINUOUS
 10
141.738209
 20
49.958408
 11
142.238209
 21
49.958408
  0
LINE
  8
1
 62
7
  6
CONTINUOUS
 10
142.238209
 20
52.758408
 11
141.738209
 21
52.758408
  0
LINE
  8
1
 62
7
  6
CONTINUOUS
 10
142.238209
 20
51.958408
 11
142.238209
 21
52.758408
  0
LINE
  8
1
 62
7
  6
CONTINUOUS
 10
141.738209
 20
51.958408
 11
142.238209
 21
51.958408
  0
LINE
  8
1
 62
7
  6
CONTINUOUS
 10
142.238209
 20
54.758408
 11
141.738209
 21
54.758408
  0
LINE
  8
1
 62
7
  6
CONTINUOUS
 10
142.238209
 20
53.958408
 11
142.238209
 21
54.758408
  0
LINE
  8
1
 62
7
  6
CONTINUOUS
 10
141.738209
 20
53.958408
 11
142.238209
 21
53.958408
  0
LINE
  8
1
 62
7
  6
CONTINUOUS
 10
141.738209
 20
33.408408
 11
141.738209
 21
57.308408
  0
LINE
  8
1
 62
7
  6
CONTINUOUS
 10
140.538209
 20
34.158408
 11
141.738209
 21
33.408408
  0
LINE
  8
1
 62
7
  6
CONTINUOUS
 10
140.538209
 20
56.558408
 11
141.738209
 21
57.308408
  0
LINE
  8
1
 62
7
  6
CONTINUOUS
 10
135.388209
 20
56.558408
 11
140.538209
 21
56.558408
  0
LINE
  8
1
 62
7
  6
CONTINUOUS
 10
135.388209
 20
34.158408
 11
135.388209
 21
56.558408
  0
LINE
  8
1
 62
7
  6
CONTINUOUS
 10
140.538209
 20
34.158408
 11
135.388209
 21
34.158408
  0
LINE
  8
1
 62
7
  6
CONTINUOUS
 10
198.656274
 20
34.738408
 11
198.656274
 21
35.978408
  0
LINE
  8
1
 62
7
  6
CONTINUOUS
 10
145.445143
 20
20.138592
 11
193.166287
 21
20.138592
  0
LINE
  8
1
 62
7
  6
CONTINUOUS
 10
174.423316
 20
111.368199
 11
174.423316
 21
112.368199
  0
LINE
  8
1
 62
7
  6
CONTINUOUS
 10
179.223316
 20
111.368199
 11
174.423316
 21
111.368199
  0
LINE
  8
1
 62
7
  6
CONTINUOUS
 10
179.223316
 20
112.368199
 11
179.223316
 21
111.368199
  0
LINE
  8
1
 62
7
  6
CONTINUOUS
 10
179.823316
 20
112.368199
 11
179.823316
 21
113.918199
  0
LINE
  8
1
 62
7
  6
CONTINUOUS
 10
174.423316
 20
112.368199
 11
179.823316
 21
112.368199
  0
LINE
  8
1
 62
7
  6
CONTINUOUS
 10
174.423316
 20
113.918199
 11
174.423316
 21
112.368199
  0
LINE
  8
1
 62
7
  6
CONTINUOUS
 10
187.423304
 20
114.918201
 11
187.423301
 21
116.918199
  0
LINE
  8
1
 62
7
  6
CONTINUOUS
 10
174.423316
 20
113.918199
 11
186.423304
 21
113.918199
  0
LINE
  8
1
 62
7
  6
CONTINUOUS
 10
174.423316
 20
113.918199
 11
174.423316
 21
121.918199
  0
LINE
  8
1
 62
7
  6
CONTINUOUS
 10
112.023316
 20
136.918199
 11
189.423216
 21
136.918199
  0
LINE
  8
1
 62
7
  6
CONTINUOUS
 10
114.523327
 20
139.418199
 11
114.523305
 21
134.418199
  0
LINE
  8
1
 62
7
  6
CONTINUOUS
 10
187.423316
 20
156.918199
 11
187.423301
 21
116.918199
  0
LINE
  8
1
 62
7
  6
CONTINUOUS
 10
148.423316
 20
121.918299
 11
148.423216
 21
115.918199
  0
LINE
  8
1
 62
7
  6
CONTINUOUS
 10
174.423316
 20
151.918199
 11
174.423316
 21
157.918199
  0
LINE
  8
1
 62
7
  6
CONTINUOUS
 10
148.423316
 20
151.918199
 11
148.423316
 21
157.918199
  0
LINE
  8
1
 62
7
  6
CONTINUOUS
 10
136.523216
 20
125.918199
 11
136.523316
 21
147.918199
  0
LINE
  8
1
 62
7
  6
CONTINUOUS
 10
136.523216
 20
125.918199
 11
138.523316
 21
125.918199
  0
LINE
  8
1
 62
7
  6
CONTINUOUS
 10
136.523316
 20
147.918199
 11
138.523316
 21
147.918199
  0
LINE
  8
1
 62
7
  6
CONTINUOUS
 10
138.523316
 20
156.918199
 11
138.523316
 21
156.549191
  0
LINE
  8
1
 62
7
  6
CONTINUOUS
 10
148.423316
 20
151.918199
 11
174.423316
 21
151.918199
  0
LINE
  8
1
 62
7
  6
CONTINUOUS
 10
148.423316
 20
121.918299
 11
174.423316
 21
121.918199
  0
LINE
  8
4
 62
54
  6
CONTINUOUS
 10
152.823216
 20
119.259999
 11
152.823216
 21
115.918099
  0
LINE
  8
4
 62
54
  6
CONTINUOUS
 10
152.023216
 20
120.529799
 11
152.023216
 21
115.918099
  0
LINE
  8
4
 62
54
  6
CONTINUOUS
 10
151.223216
 20
121.799499
 11
151.223216
 21
115.918099
  0
LINE
  8
4
 62
54
  6
CONTINUOUS
 10
150.423216
 20
123.069299
 11
150.423216
 21
115.918099
  0
LINE
  8
4
 62
54
  6
CONTINUOUS
 10
149.623216
 20
124.339099
 11
149.623216
 21
115.918099
  0
LINE
  8
4
 62
54
  6
CONTINUOUS
 10
148.823216
 20
125.608899
 11
148.823216
 21
115.918099
  0
LINE
  8
4
 62
54
  6
CONTINUOUS
 10
170.023316
 20
154.576299
 11
170.023316
 21
157.918199
  0
LINE
  8
4
 62
54
  6
CONTINUOUS
 10
170.823316
 20
153.306599
 11
170.823316
 21
157.918199
  0
LINE
  8
4
 62
54
  6
CONTINUOUS
 10
171.623316
 20
152.036799
 11
171.623316
 21
157.918199
  0
LINE
  8
4
 62
54
  6
CONTINUOUS
 10
172.423316
 20
150.766999
 11
172.423316
 21
157.918199
  0
LINE
  8
4
 62
54
  6
CONTINUOUS
 10
173.223316
 20
149.497199
 11
173.223316
 21
157.918199
  0
LINE
  8
4
 62
54
  6
CONTINUOUS
 10
174.023316
 20
148.227399
 11
174.023316
 21
157.918199
  0
LINE
  8
1
 62
7
  6
CONTINUOUS
 10
139.523316
 20
157.918199
 11
186.423316
 21
157.918199
  0
LINE
  8
1
 62
7
  6
CONTINUOUS
 10
139.523316
 20
115.918200
 11
174.423316
 21
115.918210
  0
LINE
  8
1
 62
7
  6
CONTINUOUS
 10
114.523327
 20
139.418199
 11
136.523277
 21
139.418199
  0
LINE
  8
1
 62
7
  6
CONTINUOUS
 10
114.523305
 20
134.418199
 11
136.523255
 21
134.418199
  0
LINE
  8
1
 62
7
  6
CONTINUOUS
 10
174.423316
 20
151.918199
 11
174.423316
 21
121.918199
  0
LINE
  8
1
 62
7
  6
CONTINUOUS
 10
148.423316
 20
121.918299
 11
148.423316
 21
151.918199
  0
LINE
  8
1
 62
7
  6
CONTINUOUS
 10
138.523316
 20
156.918199
 11
138.523316
 21
116.918200
  0
LINE
  8
1
 62
7
  6
CONTINUOUS
 10
68.286454
 20
68.225677
 11
129.208462
 21
68.225677
  0
ARC
  8
1
 62
7
  6
CONTINUOUS
 10
54.598689
 20
113.079964
 40
2.851440
 50
95.516143
 51
152.895453
  0
ARC
  8
1
 62
7
  6
CONTINUOUS
 10
21.850492
 20
113.079964
 40
2.851440
 50
27.104547
 51
84.483857
  0
ARC
  8
1
 62
7
  6
CONTINUOUS
 10
186.423316
 20
156.918199
 40
1.000000
 50
0.000000
 51
90.000000
  0
CIRCLE
  8
1
 62
7
  6
CONTINUOUS
 10
53.724591
 20
121.418199
 40
1.500000
  0
CIRCLE
  8
1
 62
7
  6
CONTINUOUS
 10
22.724581
 20
121.418199
 40
1.500000
  0
CIRCLE
  8
1
 62
7
  6
CONTINUOUS
 10
22.724591
 20
152.418199
 40
1.500000
  0
CIRCLE
  8
1
 62
7
  6
CONTINUOUS
 10
53.724591
 20
152.418199
 40
1.500000
  0
CIRCLE
  8
4
 62
54
  6
CONTINUOUS
 10
53.724591
 20
121.418199
 40
1.000000
  0
CIRCLE
  8
4
 62
54
  6
CONTINUOUS
 10
22.724581
 20
121.418199
 40
1.000010
  0
CIRCLE
  8
4
 62
54
  6
CONTINUOUS
 10
53.724591
 20
152.418199
 40
1.000000
  0
CIRCLE
  8
4
 62
54
  6
CONTINUOUS
 10
22.724591
 20
152.418199
 40
1.000010
  0
CIRCLE
  8
1
 62
7
  6
CONTINUOUS
 10
38.224591
 20
136.918199
 40
4.500000
  0
CIRCLE
  8
1
 62
7
  6
CONTINUOUS
 10
38.224591
 20
136.918199
 40
2.500000
  0
CIRCLE
  8
1
 62
7
  6
CONTINUOUS
 10
38.224591
 20
136.918199
 40
7.500000
  0
CIRCLE
  8
1
 62
7
  6
CONTINUOUS
 10
38.224591
 20
136.918199
 40
11.000000
  0
CIRCLE
  8
1
 62
7
  6
CONTINUOUS
 10
38.224591
 20
136.918199
 40
15.000000
  0
CIRCLE
  8
1
 62
7
  6
CONTINUOUS
 10
38.224591
 20
136.918199
 40
12.750000
  0
ARC
  8
1
 62
7
  6
CONTINUOUS
 10
51.218146
 20
114.918199
 40
1.000000
 50
-90.000000
 51
-32.620690
  0
ARC
  8
1
 62
7
  6
CONTINUOUS
 10
25.231035
 20
114.918199
 40
1.000000
 50
-147.379310
 51
-90.000000
  0
ARC
  8
1
 62
7
  6
CONTINUOUS
 10
51.174591
 20
114.218199
 40
0.300000
 50
180.000000
 51
-90.000000
  0
ARC
  8
1
 62
7
  6
CONTINUOUS
 10
25.274591
 20
114.218199
 40
0.300000
 50
-90.000000
 51
0.000000
  0
ARC
  8
1
 62
7
  6
CONTINUOUS
 10
54.224591
 20
120.918201
 40
5.000000
 50
-90.000017
 51
-0.000000
  0
ARC
  8
1
 62
7
  6
CONTINUOUS
 10
22.224582
 20
120.918210
 40
5.000000
 50
179.999986
 51
-90.000017
  0
ARC
  8
1
 62
7
  6
CONTINUOUS
 10
22.224590
 20
152.918199
 40
5.000000
 50
90.000000
 51
179.999986
  0
ARC
  8
1
 62
7
  6
CONTINUOUS
 10
54.224591
 20
152.918199
 40
5.000000
 50
0.000000
 51
90.000000
  0
ARC
  8
1
 62
7
  6
CONTINUOUS
 10
186.423304
 20
114.918199
 40
1.000000
 50
-90.000000
 51
0.000100
  0
ARC
  8
1
 62
7
  6
CONTINUOUS
 10
139.523316
 20
156.918199
 40
1.000000
 50
90.000000
 51
180.000000
  0
ARC
  8
1
 62
7
  6
CONTINUOUS
 10
139.523316
 20
116.918200
 40
1.000000
 50
180.000000
 51
-89.999977
  0
LINE
  8
1
 62
7
  6
CONTINUOUS
 10
216.501314
 20
187.918199
 11
189.846998
 21
187.918199
  0
LINE
  8
1
 62
7
  6
CONTINUOUS
 10
189.846998
 20
187.918199
 11
185.832216
 21
159.099407
  0
LINE
  8
1
 62
7
  6
CONTINUOUS
 10
185.856490
 20
162.326929
 11
186.691006
 21
162.210671
  0
LINE
  8
1
 62
7
  6
CONTINUOUS
 10
186.691006
 20
162.210671
 11
185.832216
 21
159.099407
  0
LINE
  8
1
 62
7
  6
CONTINUOUS
 10
185.832216
 20
159.099407
 11
185.856490
 21
162.326929
  0
LINE
  8
1
 62
7
  6
CONTINUOUS
 10
27.264962
 20
87.203168
 11
38.182393
 21
87.203168
  0
LINE
  8
1
 62
7
  6
CONTINUOUS
 10
34.982393
 20
86.781880
 11
34.982393
 21
87.624456
  0
LINE
  8
1
 62
7
  6
CONTINUOUS
 10
34.982393
 20
87.624456
 11
38.182393
 21
87.203168
  0
LINE
  8
1
 62
7
  6
CONTINUOUS
 10
38.182393
 20
87.203168
 11
34.982393
 21
86.781880
  0
LINE
  8
1
 62
7
  6
CONTINUOUS
 10
100.112032
 20
89.456045
 11
62.955305
 21
89.456045
  0
LINE
  8
1
 62
7
  6
CONTINUOUS
 10
62.955305
 20
89.456045
 11
54.718991
 21
120.295182
  0
LINE
  8
1
 62
7
  6
CONTINUOUS
 10
55.951708
 20
117.312248
 11
55.137664
 21
117.094838
  0
LINE
  8
1
 62
7
  6
CONTINUOUS
 10
55.137664
 20
117.094838
 11
54.718991
 21
120.295182
  0
LINE
  8
1
 62
7
  6
CONTINUOUS
 10
54.718991
 20
120.295182
 11
55.951708
 21
117.312248
  0
LINE
  8
1
 62
7
  6
CONTINUOUS
 10
82.892592
 20
16.542742
 11
126.056456
 21
16.542742
  0
LINE
  8
1
 62
7
  6
CONTINUOUS
 10
126.056456
 20
16.542742
 11
137.747246
 21
34.158408
  0
LINE
  8
1
 62
7
  6
CONTINUOUS
 10
136.328781
 20
31.259194
 11
135.626742
 21
31.725108
  0
LINE
  8
1
 62
7
  6
CONTINUOUS
 10
135.626742
 20
31.725108
 11
137.747246
 21
34.158408
  0
LINE
  8
1
 62
7
  6
CONTINUOUS
 10
137.747246
 20
34.158408
 11
136.328781
 21
31.259194
  0
LINE
  8
1
 62
7
  6
CONTINUOUS
 10
129.208462
 20
68.225677
 11
150.386391
 21
55.978408
  0
LINE
  8
1
 62
7
  6
CONTINUOUS
 10
147.405349
 20
57.215692
 11
147.827159
 21
57.945083
  0
LINE
  8
1
 62
7
  6
CONTINUOUS
 10
147.827159
 20
57.945083
 11
150.386391
 21
55.978408
  0
LINE
  8
1
 62
7
  6
CONTINUOUS
 10
150.386391
 20
55.978408
 11
147.405349
 21
57.215692
  0
TEXT
  8
1
 62
7
  6
CONTINUOUS
 10
189.038918
 20
188.918199
 40
5.000000
 41
0.720000
  1
âlü|âÇâvâîü|âg
  7
KANJI
 50
0.000000
 51
0.000000
  0
TEXT
  8
1
 62
7
  6
CONTINUOUS
 10
189.879464
 20
183.166518
 40
3.000000
 41
0.675000
  1
(NAME PLATE)
  7
KANJI
 50
0.000000
 51
0.000000
  0
TEXT
  8
1
 62
7
  6
CONTINUOUS
 10
65.360439
 20
84.614173
 40
3.500000
 41
0.540000
  1
É[âT(DEPTH) 3.5MIN.
  7
KANJI
 50
0.000975
 51
0.000000
  0
TEXT
  8
1
 62
7
  6
CONTINUOUS
 10
67.477488
 20
91.381888
 40
3.500000
 41
0.810000
  1
4-M3ü~0.5
  7
KANJI
 50
0.000000
 51
0.000000
  0
TEXT
  8
1
 62
7
  6
CONTINUOUS
 10
8.812967
 20
84.896668
 40
4.000000
 41
0.900000
  1
âsâôöÈìå
  7
KANJI
 50
0.000000
 51
0.000000
  0
TEXT
  8
1
 62
7
  6
CONTINUOUS
 10
15.586232
 20
90.739800
 40
2.600000
 41
0.828000
  1
ü@ü@ü@ü@ü@1 3 5 7 9 11
  7
KANJI
 50
0.000000
 51
0.000000
  0
TEXT
  8
1
 62
7
  6
CONTINUOUS
 10
145.868704
 20
15.094130
 40
3.000000
 41
0.540000
  1
ATTACHMENT:CONNECTOR LEAD
  7
KANJI
 50
0.000000
 51
0.000000
  0
TEXT
  8
1
 62
7
  6
CONTINUOUS
 10
145.868704
 20
21.138592
 40
4.000000
 41
0.900000
  1
òtæ«òiüFâRâlâNâ^ü[âèü[âh
  7
KANJI
 50
0.000000
 51
0.000000
  0
TEXT
  8
1
 62
7
  6
CONTINUOUS
 10
9.306657
 20
79.922811
 40
3.200000
 41
0.675000
  1
PIN NO.
  7
KANJI
 50
0.000000
 51
0.000000
  0
TEXT
  8
1
 62
7
  6
CONTINUOUS
 10
71.072519
 20
69.130090
 40
1.600000
 41
0.720000
  1
LEAD WIRE
  7
KANJI
 50
0.000000
 51
0.000000
  0
TEXT
  8
1
 62
7
  6
CONTINUOUS
 10
70.272519
 20
71.530090
 40
2.400000
 41
1.215000
  1
âèü|âhÉ³Ädùl
  7
KANJI
 50
0.000000
 51
0.000000
  0
TEXT
  8
1
 62
7
  6
CONTINUOUS
 10
98.472519
 20
71.530090
 40
2.400000
 41
0.900000
  1
UL1007 AWG26
  7
KANJI
 50
0.000000
 51
0.000000
  0
TEXT
  8
1
 62
7
  6
CONTINUOUS
 10
84.560317
 20
19.847155
 40
2.400000
 41
1.215000
  1
ânâEâWâôâO
  7
KANJI
 50
0.000000
 51
0.000000
  0
TEXT
  8
1
 62
7
  6
CONTINUOUS
 10
85.360317
 20
17.447155
 40
1.600000
 41
0.720000
  1
HOUSING
  7
KANJI
 50
0.000000
 51
0.000000
  0
TEXT
  8
1
 62
7
  6
CONTINUOUS
 10
108.760317
 20
19.847155
 40
2.400000
 41
0.900000
  1
PHR-11
  7
KANJI
 50
0.000000
 51
0.000000
  0
LINE
  8
128
 62
7
  6
CONTINUOUS
 10
17.224590
 20
182.918199
 11
59.224591
 21
182.918199
  0
LINE
  8
128
 62
7
  6
CONTINUOUS
 10
59.224591
 20
153.918199
 11
59.224591
 21
183.918199
  0
LINE
  8
128
 62
7
  6
CONTINUOUS
 10
17.224590
 20
153.918201
 11
17.224590
 21
183.918199
  0
LINE
  8
128
 62
7
  6
CONTINUOUS
 10
17.224590
 20
182.918199
 11
20.424590
 21
183.334199
  0
LINE
  8
128
 62
7
  6
CONTINUOUS
 10
20.424590
 20
183.334199
 11
20.424590
 21
182.502199
  0
LINE
  8
128
 62
7
  6
CONTINUOUS
 10
20.424590
 20
182.502199
 11
17.224590
 21
182.918199
  0
LINE
  8
128
 62
7
  6
CONTINUOUS
 10
59.224591
 20
182.918199
 11
56.024591
 21
182.502199
  0
LINE
  8
128
 62
7
  6
CONTINUOUS
 10
56.024591
 20
182.502199
 11
56.024591
 21
183.334199
  0
LINE
  8
128
 62
7
  6
CONTINUOUS
 10
56.024591
 20
183.334199
 11
59.224591
 21
182.918199
  0
TEXT
  8
128
 62
7
  6
CONTINUOUS
 10
35.824591
 20
184.518199
 40
3.200000
 41
0.900000
  1
42
  7
KANJI
 50
0.000000
 51
0.000000
  0
TEXT
  8
128
 62
7
  6
CONTINUOUS
 10
33.744591
 20
184.518199
 40
3.200000
 41
0.900000
  1
(
  7
KANJI
 50
0.000000
 51
0.000000
  0
TEXT
  8
128
 62
7
  6
CONTINUOUS
 10
42.224591
 20
184.518199
 40
3.200000
 41
0.900000
  1
)
  7
KANJI
 50
0.000000
 51
0.000000
  0
LINE
  8
128
 62
7
  6
CONTINUOUS
 10
22.724601
 20
172.918199
 11
53.724591
 21
172.918199
  0
LINE
  8
128
 62
7
  6
CONTINUOUS
 10
53.724591
 20
154.918199
 11
53.724591
 21
173.918199
  0
LINE
  8
128
 62
7
  6
CONTINUOUS
 10
22.724601
 20
154.918199
 11
22.724601
 21
173.918199
  0
LINE
  8
128
 62
7
  6
CONTINUOUS
 10
22.724601
 20
172.918199
 11
25.924601
 21
173.334199
  0
LINE
  8
128
 62
7
  6
CONTINUOUS
 10
25.924601
 20
173.334199
 11
25.924601
 21
172.502199
  0
LINE
  8
128
 62
7
  6
CONTINUOUS
 10
25.924601
 20
172.502199
 11
22.724601
 21
172.918199
  0
LINE
  8
128
 62
7
  6
CONTINUOUS
 10
53.724591
 20
172.918199
 11
50.524591
 21
172.502199
  0
LINE
  8
128
 62
7
  6
CONTINUOUS
 10
50.524591
 20
172.502199
 11
50.524591
 21
173.334199
  0
LINE
  8
128
 62
7
  6
CONTINUOUS
 10
50.524591
 20
173.334199
 11
53.724591
 21
172.918199
  0
TEXT
  8
128
 62
7
  6
CONTINUOUS
 10
32.600591
 20
174.518199
 40
3.200000
 41
0.900000
  1
31
  7
KANJI
 50
0.000000
 51
0.000000
  0
TEXT
  8
128
 62
7
  6
CONTINUOUS
 10
38.040591
 20
175.158199
 40
1.920000
 41
0.900000
  1
ü}0.2
  7
KANJI
 50
0.000000
 51
0.000000
  0
LINE
  8
1
 62
7
  6
CONTINUOUS
 10
74.224591
 20
121.418199
 11
74.224591
 21
152.418199
  0
LINE
  8
1
 62
7
  6
CONTINUOUS
 10
57.224591
 20
152.418199
 11
75.224591
 21
152.418199
  0
LINE
  8
1
 62
7
  6
CONTINUOUS
 10
57.224591
 20
121.418199
 11
75.224591
 21
121.418199
  0
LINE
  8
1
 62
7
  6
CONTINUOUS
 10
74.224591
 20
152.418199
 11
74.640591
 21
149.218199
  0
LINE
  8
1
 62
7
  6
CONTINUOUS
 10
74.640591
 20
149.218199
 11
73.808591
 21
149.218199
  0
LINE
  8
1
 62
7
  6
CONTINUOUS
 10
73.808591
 20
149.218199
 11
74.224591
 21
152.418199
  0
LINE
  8
1
 62
7
  6
CONTINUOUS
 10
74.224591
 20
121.418199
 11
73.808591
 21
124.618199
  0
LINE
  8
1
 62
7
  6
CONTINUOUS
 10
73.808591
 20
124.618199
 11
74.640591
 21
124.618199
  0
LINE
  8
1
 62
7
  6
CONTINUOUS
 10
74.640591
 20
124.618199
 11
74.224591
 21
121.418199
  0
TEXT
  8
1
 62
7
  6
CONTINUOUS
 10
72.224591
 20
130.512937
 40
3.200000
 41
0.900000
  1
31
  7
KANJI
 50
90.000000
 51
0.000000
  0
TEXT
  8
1
 62
7
  6
CONTINUOUS
 10
71.584591
 20
135.952937
 40
1.920000
 41
0.900000
  1
ü}0.2
  7
KANJI
 50
90.000000
 51
0.000000
  0
LINE
  8
1
 62
7
  6
CONTINUOUS
 10
114.523327
 20
187.918199
 11
138.523316
 21
187.918199
  0
LINE
  8
1
 62
7
  6
CONTINUOUS
 10
114.523327
 20
140.418199
 11
114.523327
 21
188.918199
  0
LINE
  8
1
 62
7
  6
CONTINUOUS
 10
138.523316
 20
157.918199
 11
138.523316
 21
188.918199
  0
LINE
  8
1
 62
7
  6
CONTINUOUS
 10
114.523327
 20
187.918199
 11
117.723327
 21
188.334199
  0
LINE
  8
1
 62
7
  6
CONTINUOUS
 10
117.723327
 20
188.334199
 11
117.723327
 21
187.502199
  0
LINE
  8
1
 62
7
  6
CONTINUOUS
 10
117.723327
 20
187.502199
 11
114.523327
 21
187.918199
  0
LINE
  8
1
 62
7
  6
CONTINUOUS
 10
138.523316
 20
187.918199
 11
135.323316
 21
187.502199
  0
LINE
  8
1
 62
7
  6
CONTINUOUS
 10
135.323316
 20
187.502199
 11
135.323316
 21
188.334199
  0
LINE
  8
1
 62
7
  6
CONTINUOUS
 10
135.323316
 20
188.334199
 11
138.523316
 21
187.918199
  0
TEXT
  8
1
 62
7
  6
CONTINUOUS
 10
122.149822
 20
189.918199
 40
3.200000
 41
0.900000
  1
24
  7
KANJI
 50
0.000000
 51
0.000000
  0
TEXT
  8
1
 62
7
  6
CONTINUOUS
 10
128.549822
 20
190.558199
 40
1.920000
 41
0.900000
  1
ü}0.5
  7
KANJI
 50
0.000000
 51
0.000000
  0
LINE
  8
128
 62
7
  6
CONTINUOUS
 10
138.523316
 20
187.918199
 11
187.423316
 21
187.918199
  0
LINE
  8
128
 62
7
  6
CONTINUOUS
 10
138.523316
 20
157.549191
 11
138.523316
 21
188.918199
  0
LINE
  8
128
 62
7
  6
CONTINUOUS
 10
187.423316
 20
157.918199
 11
187.423316
 21
188.918199
  0
LINE
  8
128
 62
7
  6
CONTINUOUS
 10
138.523316
 20
187.918199
 11
141.723316
 21
188.334199
  0
LINE
  8
128
 62
7
  6
CONTINUOUS
 10
141.723316
 20
188.334199
 11
141.723316
 21
187.502199
  0
LINE
  8
128
 62
7
  6
CONTINUOUS
 10
141.723316
 20
187.502199
 11
138.523316
 21
187.918199
  0
LINE
  8
128
 62
7
  6
CONTINUOUS
 10
187.423316
 20
187.918199
 11
184.223316
 21
187.502199
  0
LINE
  8
128
 62
7
  6
CONTINUOUS
 10
184.223316
 20
187.502199
 11
184.223316
 21
188.334199
  0
LINE
  8
128
 62
7
  6
CONTINUOUS
 10
184.223316
 20
188.334199
 11
187.423316
 21
187.918199
  0
TEXT
  8
128
 62
7
  6
CONTINUOUS
 10
153.855993
 20
189.518199
 40
3.200000
 41
0.900000
  1
50
  7
KANJI
 50
0.000000
 51
0.000000
  0
TEXT
  8
128
 62
7
  6
CONTINUOUS
 10
160.255993
 20
189.518199
 40
3.200000
 41
0.900000
  1
MAX.
  7
KANJI
 50
0.000000
 51
0.000000
  0
LINE
  8
128
 62
7
  6
CONTINUOUS
 10
144.923316
 20
177.918199
 11
138.523316
 21
177.918199
  0
LINE
  8
128
 62
7
  6
CONTINUOUS
 10
136.523316
 20
177.918199
 11
138.523316
 21
177.918199
  0
LINE
  8
128
 62
7
  6
CONTINUOUS
 10
136.523316
 20
177.918199
 11
126.692517
 21
177.918199
  0
LINE
  8
128
 62
7
  6
CONTINUOUS
 10
136.523316
 20
148.918199
 11
136.523316
 21
178.918199
  0
LINE
  8
128
 62
7
  6
CONTINUOUS
 10
138.523316
 20
157.549191
 11
138.523316
 21
178.918199
  0
LINE
  8
128
 62
7
  6
CONTINUOUS
 10
136.523316
 20
177.918199
 11
133.323316
 21
177.502199
  0
LINE
  8
128
 62
7
  6
CONTINUOUS
 10
133.323316
 20
177.502199
 11
133.323316
 21
178.334199
  0
LINE
  8
128
 62
7
  6
CONTINUOUS
 10
133.323316
 20
178.334199
 11
136.523316
 21
177.918199
  0
LINE
  8
128
 62
7
  6
CONTINUOUS
 10
138.523316
 20
177.918199
 11
141.723316
 21
178.334199
  0
LINE
  8
128
 62
7
  6
CONTINUOUS
 10
141.723316
 20
178.334199
 11
141.723316
 21
177.502199
  0
LINE
  8
128
 62
7
  6
CONTINUOUS
 10
141.723316
 20
177.502199
 11
138.523316
 21
177.918199
  0
TEXT
  8
128
 62
7
  6
CONTINUOUS
 10
126.692517
 20
179.518199
 40
3.200000
 41
0.900000
  1
2
  7
KANJI
 50
0.000000
 51
0.000000
  0
TEXT
  8
128
 62
7
  6
CONTINUOUS
 10
130.212517
 20
180.158199
 40
1.920000
 41
0.900000
  1
ü}0.2
  7
KANJI
 50
0.000000
 51
0.000000
  0
LINE
  8
128
 62
7
  6
CONTINUOUS
 10
94.523318
 20
125.918199
 11
94.523318
 21
147.918199
  0
LINE
  8
128
 62
7
  6
CONTINUOUS
 10
135.523316
 20
147.918199
 11
93.523318
 21
147.918199
  0
LINE
  8
128
 62
7
  6
CONTINUOUS
 10
135.523216
 20
125.918199
 11
93.523318
 21
125.918199
  0
LINE
  8
128
 62
7
  6
CONTINUOUS
 10
94.523318
 20
147.918199
 11
94.939318
 21
144.718199
  0
LINE
  8
128
 62
7
  6
CONTINUOUS
 10
94.939318
 20
144.718199
 11
94.107318
 21
144.718199
  0
LINE
  8
128
 62
7
  6
CONTINUOUS
 10
94.107318
 20
144.718199
 11
94.523318
 21
147.918199
  0
LINE
  8
128
 62
7
  6
CONTINUOUS
 10
94.523318
 20
125.918199
 11
94.107318
 21
129.118199
  0
LINE
  8
128
 62
7
  6
CONTINUOUS
 10
94.107318
 20
129.118199
 11
94.939318
 21
129.118199
  0
LINE
  8
128
 62
7
  6
CONTINUOUS
 10
94.939318
 20
129.118199
 11
94.523318
 21
125.918199
  0
TEXT
  8
128
 62
7
  6
CONTINUOUS
 10
92.123318
 20
132.753138
 40
3.200000
 41
0.900000
  1
22
  7
KANJI
 50
90.000000
 51
0.000000
  0
TEXT
  8
128
 62
7
  6
CONTINUOUS
 10
90.043318
 20
140.689138
 40
1.920000
 41
0.900000
  1
0
  7
KANJI
 50
90.000000
 51
0.000000
  0
TEXT
  8
128
 62
7
  6
CONTINUOUS
 10
92.923318
 20
139.153138
 40
1.920000
 41
0.900000
  1
-0.05
  7
KANJI
 50
90.000000
 51
0.000000
  0
TEXT
  8
128
 62
7
  6
CONTINUOUS
 10
92.123318
 20
128.913138
 40
3.200000
 41
0.900000
  1
âË
  7
KANJI
 50
90.000000
 51
0.000000
  0
LINE
  8
1
 62
7
  6
CONTINUOUS
 10
104.523408
 20
139.418199
 11
104.523408
 21
164.386474
  0
LINE
  8
1
 62
7
  6
CONTINUOUS
 10
104.523408
 20
134.418199
 11
104.523408
 21
139.418199
  0
LINE
  8
1
 62
7
  6
CONTINUOUS
 10
104.523408
 20
128.018199
 11
104.523408
 21
134.418199
  0
LINE
  8
1
 62
7
  6
CONTINUOUS
 10
113.523327
 20
139.418199
 11
103.523408
 21
139.418199
  0
LINE
  8
1
 62
7
  6
CONTINUOUS
 10
113.523305
 20
134.418199
 11
103.523408
 21
134.418199
  0
LINE
  8
1
 62
7
  6
CONTINUOUS
 10
104.523408
 20
139.418199
 11
104.107408
 21
142.618199
  0
LINE
  8
1
 62
7
  6
CONTINUOUS
 10
104.107408
 20
142.618199
 11
104.939408
 21
142.618199
  0
LINE
  8
1
 62
7
  6
CONTINUOUS
 10
104.939408
 20
142.618199
 11
104.523408
 21
139.418199
  0
LINE
  8
1
 62
7
  6
CONTINUOUS
 10
104.523408
 20
134.418199
 11
104.939408
 21
131.218199
  0
LINE
  8
1
 62
7
  6
CONTINUOUS
 10
104.939408
 20
131.218199
 11
104.107408
 21
131.218199
  0
LINE
  8
1
 62
7
  6
CONTINUOUS
 10
104.107408
 20
131.218199
 11
104.523408
 21
134.418199
  0
TEXT
  8
1
 62
7
  6
CONTINUOUS
 10
101.723408
 20
153.522474
 40
3.200000
 41
0.900000
  1
5
  7
KANJI
 50
90.000000
 51
0.000000
  0
TEXT
  8
1
 62
7
  6
CONTINUOUS
 10
99.643408
 20
157.042474
 40
1.920000
 41
0.900000
  1
 0
  7
KANJI
 50
90.000000
 51
0.000000
  0
TEXT
  8
1
 62
7
  6
CONTINUOUS
 10
102.523408
 20
157.042474
 40
1.920000
 41
0.900000
  1
-0.011
  7
KANJI
 50
90.000000
 51
0.000000
  0
TEXT
  8
1
 62
7
  6
CONTINUOUS
 10
101.723408
 20
149.878030
 40
3.200000
 41
0.900000
  1
âË
  7
KANJI
 50
90.000000
 51
0.000000
  0
LINE
  8
1
 62
7
  6
CONTINUOUS
 10
84.224591
 20
111.368199
 11
84.224591
 21
98.107723
  0
LINE
  8
1
 62
7
  6
CONTINUOUS
 10
84.224591
 20
111.368199
 11
84.224591
 21
115.918201
  0
LINE
  8
1
 62
7
  6
CONTINUOUS
 10
84.224591
 20
122.318201
 11
84.224591
 21
115.918201
  0
LINE
  8
1
 62
7
  6
CONTINUOUS
 10
55.224590
 20
115.918201
 11
85.724591
 21
115.918201
  0
LINE
  8
1
 62
7
  6
CONTINUOUS
 10
51.174591
 20
111.368199
 11
85.724591
 21
111.368199
  0
LINE
  8
1
 62
7
  6
CONTINUOUS
 10
84.224591
 20
115.918201
 11
83.808591
 21
119.118201
  0
LINE
  8
1
 62
7
  6
CONTINUOUS
 10
83.808591
 20
119.118201
 11
84.640591
 21
119.118201
  0
LINE
  8
1
 62
7
  6
CONTINUOUS
 10
84.640591
 20
119.118201
 11
84.224591
 21
115.918201
  0
LINE
  8
1
 62
7
  6
CONTINUOUS
 10
84.224591
 20
111.368199
 11
84.640591
 21
108.168199
  0
LINE
  8
1
 62
7
  6
CONTINUOUS
 10
84.640591
 20
108.168199
 11
83.808591
 21
108.168199
  0
LINE
  8
1
 62
7
  6
CONTINUOUS
 10
83.808591
 20
108.168199
 11
84.224591
 21
111.368199
  0
TEXT
  8
1
 62
7
  6
CONTINUOUS
 10
82.224591
 20
100.187723
 40
3.200000
 41
0.900000
  1
4.6
  7
KANJI
 50
90.000000
 51
0.000000
  0
TEXT
  8
1
 62
7
  6
CONTINUOUS
 10
82.224591
 20
98.107723
 40
3.200000
 41
0.900000
  1
(
  7
KANJI
 50
90.000000
 51
0.000000
  0
TEXT
  8
1
 62
7
  6
CONTINUOUS
 10
82.224591
 20
107.627723
 40
3.200000
 41
0.900000
  1
)
  7
KANJI
 50
90.000000
 51
0.000000
  0
LINE
  8
1
 62
7
  6
CONTINUOUS
 10
13.992535
 20
109.418199
 11
13.992535
 21
93.499605
  0
LINE
  8
1
 62
7
  6
CONTINUOUS
 10
13.992535
 20
109.418199
 11
13.992535
 21
115.918210
  0
LINE
  8
1
 62
7
  6
CONTINUOUS
 10
13.992535
 20
122.318210
 11
13.992535
 21
115.918210
  0
LINE
  8
1
 62
7
  6
CONTINUOUS
 10
21.224581
 20
115.918210
 11
12.492535
 21
115.918210
  0
LINE
  8
1
 62
7
  6
CONTINUOUS
 10
25.274591
 20
109.418199
 11
12.492535
 21
109.418199
  0
LINE
  8
1
 62
7
  6
CONTINUOUS
 10
13.992535
 20
115.918210
 11
13.576535
 21
119.118210
  0
LINE
  8
1
 62
7
  6
CONTINUOUS
 10
13.576535
 20
119.118210
 11
14.408535
 21
119.118210
  0
LINE
  8
1
 62
7
  6
CONTINUOUS
 10
14.408535
 20
119.118210
 11
13.992535
 21
115.918210
  0
LINE
  8
1
 62
7
  6
CONTINUOUS
 10
13.992535
 20
109.418199
 11
14.408535
 21
106.218199
  0
LINE
  8
1
 62
7
  6
CONTINUOUS
 10
14.408535
 20
106.218199
 11
13.576535
 21
106.218199
  0
LINE
  8
1
 62
7
  6
CONTINUOUS
 10
13.576535
 20
106.218199
 11
13.992535
 21
109.418199
  0
TEXT
  8
1
 62
7
  6
CONTINUOUS
 10
11.992535
 20
98.779605
 40
3.200000
 41
0.900000
  1
6.5
  7
KANJI
 50
90.000000
 51
0.000000
  0
TEXT
  8
1
 62
7
  6
CONTINUOUS
 10
11.992535
 20
93.499605
 40
3.200000
 41
0.900000
  1
üª(
  7
KANJI
 50
90.000000
 51
0.000000
  0
TEXT
  8
1
 62
7
  6
CONTINUOUS
 10
11.992535
 20
106.219605
 40
3.200000
 41
0.900000
  1
)
  7
KANJI
 50
90.000000
 51
0.000000
  0
LINE
  8
1
 62
7
  6
CONTINUOUS
 10
84.224591
 20
115.918201
 11
84.224591
 21
157.918199
  0
LINE
  8
1
 62
7
  6
CONTINUOUS
 10
55.224591
 20
157.918199
 11
85.724591
 21
157.918199
  0
LINE
  8
1
 62
7
  6
CONTINUOUS
 10
55.224590
 20
115.918201
 11
85.724591
 21
115.918201
  0
LINE
  8
1
 62
7
  6
CONTINUOUS
 10
84.224591
 20
157.918199
 11
84.640591
 21
154.718199
  0
LINE
  8
1
 62
7
  6
CONTINUOUS
 10
84.640591
 20
154.718199
 11
83.808591
 21
154.718199
  0
LINE
  8
1
 62
7
  6
CONTINUOUS
 10
83.808591
 20
154.718199
 11
84.224591
 21
157.918199
  0
LINE
  8
1
 62
7
  6
CONTINUOUS
 10
84.224591
 20
115.918201
 11
83.808591
 21
119.118201
  0
LINE
  8
1
 62
7
  6
CONTINUOUS
 10
83.808591
 20
119.118201
 11
84.640591
 21
119.118201
  0
LINE
  8
1
 62
7
  6
CONTINUOUS
 10
84.640591
 20
119.118201
 11
84.224591
 21
115.918201
  0
TEXT
  8
1
 62
7
  6
CONTINUOUS
 10
82.224591
 20
133.992977
 40
3.200000
 41
0.900000
  1
42
  7
KANJI
 50
90.000000
 51
0.000000
  0
TEXT
  8
1
 62
7
  6
CONTINUOUS
 10
82.224591
 20
131.912977
 40
3.200000
 41
0.900000
  1
(
  7
KANJI
 50
90.000000
 51
0.000000
  0
TEXT
  8
1
 62
7
  6
CONTINUOUS
 10
82.224591
 20
140.392977
 40
3.200000
 41
0.900000
  1
)
  7
KANJI
 50
90.000000
 51
0.000000
  0
LINE
  8
1
 62
7
  6
CONTINUOUS
 10
208.556274
 20
64.653832
 11
202.156274
 21
64.653832
  0
LINE
  8
1
 62
7
  6
CONTINUOUS
 10
198.656274
 20
64.653832
 11
202.156274
 21
64.653832
  0
LINE
  8
1
 62
7
  6
CONTINUOUS
 10
198.656274
 20
64.653832
 11
183.218444
 21
64.653832
  0
LINE
  8
1
 62
7
  6
CONTINUOUS
 10
198.656274
 20
56.978408
 11
198.656274
 21
66.153832
  0
LINE
  8
1
 62
7
  6
CONTINUOUS
 10
202.156274
 20
56.658408
 11
202.156274
 21
66.153832
  0
LINE
  8
1
 62
7
  6
CONTINUOUS
 10
198.656274
 20
64.653832
 11
195.456274
 21
64.237832
  0
LINE
  8
1
 62
7
  6
CONTINUOUS
 10
195.456274
 20
64.237832
 11
195.456274
 21
65.069832
  0
LINE
  8
1
 62
7
  6
CONTINUOUS
 10
195.456274
 20
65.069832
 11
198.656274
 21
64.653832
  0
LINE
  8
1
 62
7
  6
CONTINUOUS
 10
202.156274
 20
64.653832
 11
205.356274
 21
65.069832
  0
LINE
  8
1
 62
7
  6
CONTINUOUS
 10
205.356274
 20
65.069832
 11
205.356274
 21
64.237832
  0
LINE
  8
1
 62
7
  6
CONTINUOUS
 10
205.356274
 20
64.237832
 11
202.156274
 21
64.653832
  0
TEXT
  8
1
 62
7
  6
CONTINUOUS
 10
185.298444
 20
66.653832
 40
3.200000
 41
0.900000
  1
3.5
  7
KANJI
 50
0.000000
 51
0.000000
  0
TEXT
  8
1
 62
7
  6
CONTINUOUS
 10
183.218444
 20
66.653832
 40
3.200000
 41
0.900000
  1
(
  7
KANJI
 50
0.000000
 51
0.000000
  0
TEXT
  8
1
 62
7
  6
CONTINUOUS
 10
192.738444
 20
66.653832
 40
3.200000
 41
0.900000
  1
)
  7
KANJI
 50
0.000000
 51
0.000000
  0
LINE
  8
1
 62
7
  6
CONTINUOUS
 10
142.238209
 20
73.327367
 11
202.156274
 21
73.327367
  0
LINE
  8
1
 62
7
  6
CONTINUOUS
 10
142.238209
 20
58.308408
 11
142.238209
 21
74.827367
  0
LINE
  8
1
 62
7
  6
CONTINUOUS
 10
202.156274
 20
56.658408
 11
202.156274
 21
74.827367
  0
LINE
  8
1
 62
7
  6
CONTINUOUS
 10
142.238209
 20
73.327367
 11
145.438209
 21
73.743367
  0
LINE
  8
1
 62
7
  6
CONTINUOUS
 10
145.438209
 20
73.743367
 11
145.438209
 21
72.911367
  0
LINE
  8
1
 62
7
  6
CONTINUOUS
 10
145.438209
 20
72.911367
 11
142.238209
 21
73.327367
  0
LINE
  8
1
 62
7
  6
CONTINUOUS
 10
202.156274
 20
73.327367
 11
198.956274
 21
72.911367
  0
LINE
  8
1
 62
7
  6
CONTINUOUS
 10
198.956274
 20
72.911367
 11
198.956274
 21
73.743367
  0
LINE
  8
1
 62
7
  6
CONTINUOUS
 10
198.956274
 20
73.743367
 11
202.156274
 21
73.327367
  0
TEXT
  8
1
 62
7
  6
CONTINUOUS
 10
164.852750
 20
76.127367
 40
3.200000
 41
0.900000
  1
300
  7
KANJI
 50
0.000000
 51
0.000000
  0
TEXT
  8
1
 62
7
  6
CONTINUOUS
 10
174.132750
 20
78.207367
 40
1.920000
 41
0.900000
  1
+40
  7
KANJI
 50
0.000000
 51
0.000000
  0
TEXT
  8
1
 62
7
  6
CONTINUOUS
 10
175.860750
 20
75.327367
 40
1.920000
 41
0.900000
  1
 0
  7
KANJI
 50
0.000000
 51
0.000000
  0
LINE
  8
1
 62
7
  6
CONTINUOUS
 10
183.295998
 20
160.528812
 11
177.295998
 21
160.528812
  0
LINE
  8
1
 62
7
  6
CONTINUOUS
 10
177.295998
 20
166.528812
 11
183.295998
 21
166.528812
  0
LINE
  8
1
 62
7
  6
CONTINUOUS
 10
177.795998
 20
163.528812
 11
180.295998
 21
162.028812
  0
LINE
  8
1
 62
7
  6
CONTINUOUS
 10
182.795998
 20
163.528812
 11
177.795998
 21
163.528812
  0
LINE
  8
1
 62
7
  6
CONTINUOUS
 10
180.295998
 20
162.028812
 11
180.295998
 21
164.528812
  0
LINE
  8
1
 62
7
  6
CONTINUOUS
 10
177.295998
 20
186.528812
 11
183.295998
 21
186.528812
  0
LINE
  8
1
 62
7
  6
CONTINUOUS
 10
177.295998
 20
160.528812
 11
177.295998
 21
186.528812
  0
LINE
  8
1
 62
7
  6
CONTINUOUS
 10
183.295998
 20
186.528812
 11
183.295998
 21
160.528812
  0
TEXT
  8
1
 62
7
  6
CONTINUOUS
 10
182.295998
 20
167.575558
 40
4.000000
 41
0.900000
  1
òÂÄÜâmî³âL
  7
KANJI
 50
90.000000
 51
0.000000
  0
TEXT
  8
1
 62
7
  6
CONTINUOUS
 10
172.273430
 20
166.266182
 40
2.000000
 41
0.900000
  1
DIRECTION
  7
KANJI
 50
90.000000
 51
0.000000
  0
TEXT
  8
1
 62
7
  6
CONTINUOUS
 10
175.273430
 20
166.266182
 40
2.000000
 41
0.900000
  1
OF LETTER
  7
KANJI
 50
90.000000
 51
0.000000
  0
TEXT
  8
1
 62
7
  6
CONTINUOUS
 10
175.193077
 20
162.749101
 40
5.000000
 41
0.900000
  1
(   )
  7
KANJI
 50
90.000000
 51
0.000000
  0
ENDSEC
  0
EOF
