  0
SECTION
  2
HEADER
  9
$ACADVER
  1
AC1003
  9
$INSBASE
 10
0.000000
 20
0.000000
  9
$EXTMIN
 10
0.000000
 20
0.000000
  9
$EXTMAX
 10
420.000000
 20
297.000000
  9
$LIMMIN
 10
0.000000
 20
0.000000
  9
$LIMMAX
 10
420.000000
 20
297.000000
  9
$VIEWCTR
 10
210.000000
 20
148.500000
  9
$VIEWSIZE
 40
297.000000
  9
$PEXTMIN
 10
0.000000
 20
0.000000
 30
0.000000
  9
$PEXTMAX
 10
420.000000
 20
297.000000
 30
0.000000
  9
$SNAPMODE
 70
     0
  9
$SNAPUNIT
 10
1.000000
 20
1.000000
  9
$SNAPBASE
 10
0.000000
 20
0.000000
  9
$SNAPANG
 50
0.000000
  9
$SNAPISOPAIR
 70
     0
  9
$SNAPSTYLE
 70
     0
  9
$GRIDMODE
 70
     0
  9
$GRIDUNIT
 10
0.000000
 20
0.000000
  9
$ORTHOMODE
 70
     0
  9
$REGENMODE
 70
     1
  9
$FILLMODE
 70
     1
  9
$QTEXTMODE
 70
     0
  9
$DRAGMODE
 70
     2
  9
$LTSCALE
 40
0.250000
  9
$OSMODE
 70
     0
  9
$ATTMODE
 70
     1
  9
$TEXTSIZE
 40
0.200000
  9
$TRACEWID
 40
0.050000
  9
$TEXTSTYLE
  7
STANDARD
  9
$CLAYER
  8
0
  9
$CELTYPE
  6
BYLAYER
  9
$CECOLOR
 62
   256
  9
$DIMSCALE
 40
1.000000
  9
$DIMASZ
 40
1.000000
  9
$DIMEXO
 40
0.000000
  9
$DIMDLI
 40
0.500000
  9
$DIMRND
 40
0.000000
  9
$DIMDLE
 40
0.000000
  9
$DIMEXE
 40
0.000000
  9
$DIMTP
 40
0.000000
  9
$DIMTM
 40
0.000000
  9
$DIMTXT
 40
0.180000
  9
$DIMCEN
 40
0.000000
  9
$DIMTSZ
 40
0.000000
  9
$DIMTOL
 70
     0
  9
$DIMLIM
 70
     0
  9
$DIMTIH
 70
     1
  9
$DIMTOH
 70
     1
  9
$DIMSE1
 70
     0
  9
$DIMSE2
 70
     0
  9
$DIMTAD
 70
     0
  9
$DIMZIN
 70
     0
  9
$DIMBLK
  1

  9
$DIMASO
 70
     0
  9
$DIMSHO
 70
     0
  9
$DIMPOST
  1

  9
$DIMAPOST
  1

  9
$DIMALT
 70
     0
  9
$DIMALTD
 70
     0
  9
$DIMALTF
 40
25.400000
  9
$DIMLFAC
 40
1.000000
  9
$DIMTOFL
 70
     0
  9
$DIMTVP
 40
0.000000
  9
$DIMTIX
 70
     0
  9
$DIMSOXD
 70
     0
  9
$DIMSAH
 70
     0
  9
$DIMBLKL
  1

  9
$DIMBLKR
  1

  9
$LUNITS
 70
     2
  9
$LUPREC
 70
     2
  9
$AXISMODE
 70
     0
  9
$AXISUNIT
 10
1.000000
 20
1.000000
  9
$SKETCHINC
 40
0.000000
  9
$FILLETRAD
 40
0.000000
  9
$AUNITS
 70
     1
  9
$AUPREC
 70
     2
  9
$MENU
  1
ACAD
  9
$ELEVATION
 40
0.000000
  9
$THICKNESS
 40
0.000000
  9
$VIEWDIR
 10
0.000000
 20
0.000000
 30
1.000000
  9
$LIMCHECK
 70
     1
  9
$BLIPMODE
 70
     1
  9
$CHAMFERA
 40
0.000000
  9
$CHAMFERB
 40
0.000000
  9
$FASTZOOM
 70
     1
  9
$SKPOLY
 70
     0
  9
$TDCREATE
 40
0.000000
  9
$TDUPDATE
 40
0.000000
  9
$TDINDWG
 40
0.000000
  9
$TDUSRTIMER
 40
0.000000
  9
$USRTIMER
 70
     1
  9
$ANGBASE
 50
0.000000
  9
$ANGDIR
 70
     0
  9
$PDMODE
 70
     0
  9
$PDSIZE
 40
0.000000
  9
$PLINEWID
 40
0.000000
  9
$COORDS
 70
     2
  9
$USERI1
 70
     0
  9
$USERI2
 70
     0
  9
$USERI3
 70
     0
  9
$USERI4
 70
     0
  9
$USERI5
 70
     0
  9
$USERR1
 40
0.000000
  9
$USERR2
 40
0.000000
  9
$USERR3
 40
0.000000
  9
$USERR4
 40
0.000000
  9
$USERR5
 40
0.000000
  0
ENDSEC
  0
SECTION
  2
TABLES
  0
TABLE
  2
LTYPE
 70
     5
  0
LTYPE
  2
CONTINUOUS
 70
    64
  3
Solid line
 72
    65
 73
     0
 40
0.0
  0
LTYPE
  2
HIDDEN
 70
    64
  3
------------------------
 72
    65
 73
     2
 40
12.6
 49
8.4
 49
-4.2
  0
LTYPE
  2
DOT
 70
    64
  3
ÑÑÑÑÑÑÑÑÑÑÑÑÑÑÑÑÑÑÑÑÑÑÑÑ
 72
    65
 73
     2
 40
8.0
 49
6.0
 49
-2.0
  0
LTYPE
  2
DASHDOT
 70
    64
  3
--Ñ--Ñ--Ñ--Ñ--Ñ--Ñ--Ñ--
 72
    65
 73
     4
 40
50.5
 49
30.0
 49
-9.0
 49
2.5
 49
-9.0
  0
LTYPE
  2
DIVIDE
 70
    64
  3
--ÑÑ--ÑÑ--ÑÑ--ÑÑ--ÑÑ--
 72
    65
 73
     6
 40
58.0
 49
30.0
 49
-9.0
 49
2.5
 49
-5.0
 49
2.5
 49
-9.0
  0
ENDTAB
  0
TABLE
  2
LAYER
 70
4
  0
LAYER
  2
1
 70
64
 62
7
  6
CONTINUOUS
  0
LAYER
  2
2
 70
64
 62
134
  6
CONTINUOUS
  0
LAYER
  2
4
 70
64
 62
54
  6
CONTINUOUS
  0
LAYER
  2
128
 70
64
 62
7
  6
CONTINUOUS
  0
ENDTAB
  0
TABLE
  2
STYLE
 70
     2
  0
STYLE
  2
STANDARD
 70
    64
 40
0.0
 41
1.0
 50
0.0
 71
     0
 42
0.2
  3
TXT
  4

  0
STYLE
  2
KANJI
 70
    64
 40
0.0
 41
1.0
 50
0.0
 71
     0
 42
0.2
  3
TXT
  4
BIGFONT
  0
ENDTAB
  0
TABLE
  2
VIEW
 70
     0
  0
ENDTAB
  0
ENDSEC
  0
SECTION
  2
BLOCKS
  0
ENDSEC
  0
SECTION
  2
ENTITIES
  0
LINE
  8
1
 62
7
  6
CONTINUOUS
 10
148.523316
 20
166.918199
 11
148.523316
 21
126.918200
  0
LINE
  8
1
 62
7
  6
CONTINUOUS
 10
158.423316
 20
131.918299
 11
158.423316
 21
161.918199
  0
LINE
  8
1
 62
7
  6
CONTINUOUS
 10
184.423316
 20
161.918199
 11
184.423316
 21
131.918199
  0
LINE
  8
1
 62
7
  6
CONTINUOUS
 10
124.523305
 20
144.418199
 11
146.523255
 21
144.418199
  0
LINE
  8
1
 62
7
  6
CONTINUOUS
 10
124.523327
 20
149.418199
 11
146.523277
 21
149.418199
  0
LINE
  8
1
 62
7
  6
CONTINUOUS
 10
149.523316
 20
125.918200
 11
184.423316
 21
125.918210
  0
LINE
  8
1
 62
7
  6
CONTINUOUS
 10
149.523316
 20
167.918199
 11
196.423316
 21
167.918199
  0
LINE
  8
4
 62
54
  6
CONTINUOUS
 10
184.023316
 20
158.227399
 11
184.023316
 21
167.918199
  0
LINE
  8
4
 62
54
  6
CONTINUOUS
 10
183.223316
 20
159.497199
 11
183.223316
 21
167.918199
  0
LINE
  8
4
 62
54
  6
CONTINUOUS
 10
182.423316
 20
160.766999
 11
182.423316
 21
167.918199
  0
LINE
  8
4
 62
54
  6
CONTINUOUS
 10
181.623316
 20
162.036799
 11
181.623316
 21
167.918199
  0
LINE
  8
4
 62
54
  6
CONTINUOUS
 10
180.823316
 20
163.306599
 11
180.823316
 21
167.918199
  0
LINE
  8
4
 62
54
  6
CONTINUOUS
 10
180.023316
 20
164.576299
 11
180.023316
 21
167.918199
  0
LINE
  8
4
 62
54
  6
CONTINUOUS
 10
158.823216
 20
135.608899
 11
158.823216
 21
125.918099
  0
LINE
  8
4
 62
54
  6
CONTINUOUS
 10
159.623216
 20
134.339099
 11
159.623216
 21
125.918099
  0
LINE
  8
4
 62
54
  6
CONTINUOUS
 10
160.423216
 20
133.069299
 11
160.423216
 21
125.918099
  0
LINE
  8
4
 62
54
  6
CONTINUOUS
 10
161.223216
 20
131.799499
 11
161.223216
 21
125.918099
  0
LINE
  8
4
 62
54
  6
CONTINUOUS
 10
162.023216
 20
130.529799
 11
162.023216
 21
125.918099
  0
LINE
  8
4
 62
54
  6
CONTINUOUS
 10
162.823216
 20
129.259999
 11
162.823216
 21
125.918099
  0
LINE
  8
1
 62
7
  6
CONTINUOUS
 10
158.423316
 20
131.918299
 11
184.423316
 21
131.918199
  0
LINE
  8
1
 62
7
  6
CONTINUOUS
 10
158.423316
 20
161.918199
 11
184.423316
 21
161.918199
  0
LINE
  8
1
 62
7
  6
CONTINUOUS
 10
148.523316
 20
166.918199
 11
148.523316
 21
166.549191
  0
LINE
  8
1
 62
7
  6
CONTINUOUS
 10
184.423316
 20
169.099407
 11
195.832216
 21
169.099407
  0
LINE
  8
1
 62
7
  6
CONTINUOUS
 10
146.523316
 20
157.918199
 11
148.523316
 21
157.918199
  0
LINE
  8
1
 62
7
  6
CONTINUOUS
 10
146.523216
 20
135.918199
 11
148.523316
 21
135.918199
  0
LINE
  8
1
 62
7
  6
CONTINUOUS
 10
146.523216
 20
135.918199
 11
146.523316
 21
157.918199
  0
LINE
  8
1
 62
7
  6
CONTINUOUS
 10
158.423316
 20
161.918199
 11
158.423316
 21
167.918199
  0
LINE
  8
1
 62
7
  6
CONTINUOUS
 10
184.423316
 20
161.918199
 11
184.423316
 21
167.918199
  0
LINE
  8
1
 62
7
  6
CONTINUOUS
 10
158.423316
 20
131.918299
 11
158.423216
 21
125.918199
  0
LINE
  8
1
 62
7
  6
CONTINUOUS
 10
197.423316
 20
166.918199
 11
197.423301
 21
126.918199
  0
LINE
  8
1
 62
7
  6
CONTINUOUS
 10
124.523327
 20
149.418199
 11
124.523305
 21
144.418199
  0
LINE
  8
1
 62
7
  6
CONTINUOUS
 10
122.023316
 20
146.918199
 11
199.423216
 21
146.918199
  0
LINE
  8
1
 62
7
  6
CONTINUOUS
 10
184.423316
 20
123.918199
 11
184.423316
 21
131.918199
  0
LINE
  8
1
 62
7
  6
CONTINUOUS
 10
184.423316
 20
123.918199
 11
196.423304
 21
123.918199
  0
LINE
  8
1
 62
7
  6
CONTINUOUS
 10
197.423304
 20
124.918201
 11
197.423301
 21
126.918199
  0
LINE
  8
1
 62
7
  6
CONTINUOUS
 10
184.423316
 20
123.918199
 11
184.423316
 21
122.368199
  0
LINE
  8
1
 62
7
  6
CONTINUOUS
 10
184.423316
 20
122.368199
 11
189.823316
 21
122.368199
  0
LINE
  8
1
 62
7
  6
CONTINUOUS
 10
189.823316
 20
122.368199
 11
189.823316
 21
123.918199
  0
LINE
  8
1
 62
7
  6
CONTINUOUS
 10
189.223316
 20
122.368199
 11
189.223316
 21
121.368199
  0
LINE
  8
1
 62
7
  6
CONTINUOUS
 10
189.223316
 20
121.368199
 11
184.423316
 21
121.368199
  0
LINE
  8
1
 62
7
  6
CONTINUOUS
 10
184.423316
 20
121.368199
 11
184.423316
 21
122.368199
  0
LINE
  8
1
 62
7
  6
CONTINUOUS
 10
32.224581
 20
125.918210
 11
64.224590
 21
125.918201
  0
LINE
  8
1
 62
7
  6
CONTINUOUS
 10
27.224582
 20
130.918211
 11
27.224590
 21
162.918201
  0
LINE
  8
1
 62
7
  6
CONTINUOUS
 10
35.231035
 20
123.918199
 11
35.274591
 21
123.918199
  0
LINE
  8
2
 62
134
  6
CONTINUOUS
 10
48.224591
 20
120.164152
 11
48.224591
 21
171.918199
  0
LINE
  8
2
 62
134
  6
CONTINUOUS
 10
21.303111
 20
146.918199
 11
74.724091
 21
146.918199
  0
LINE
  8
2
 62
134
  6
CONTINUOUS
 10
61.224591
 20
162.418199
 11
66.224591
 21
162.418199
  0
LINE
  8
2
 62
134
  6
CONTINUOUS
 10
63.724591
 20
159.918199
 11
63.724591
 21
164.918199
  0
LINE
  8
2
 62
134
  6
CONTINUOUS
 10
32.724601
 20
159.918199
 11
32.724601
 21
164.918199
  0
LINE
  8
2
 62
134
  6
CONTINUOUS
 10
35.224591
 20
162.418199
 11
30.224591
 21
162.418199
  0
LINE
  8
2
 62
134
  6
CONTINUOUS
 10
35.224591
 20
131.418199
 11
30.224591
 21
131.418199
  0
LINE
  8
2
 62
134
  6
CONTINUOUS
 10
32.724581
 20
133.918199
 11
32.724581
 21
128.918199
  0
LINE
  8
2
 62
134
  6
CONTINUOUS
 10
63.724591
 20
133.918199
 11
63.724591
 21
128.918199
  0
LINE
  8
2
 62
134
  6
CONTINUOUS
 10
61.224591
 20
131.418199
 11
66.224591
 21
131.418199
  0
LINE
  8
1
 62
7
  6
CONTINUOUS
 10
64.224591
 20
167.918199
 11
32.224590
 21
167.918199
  0
LINE
  8
1
 62
7
  6
CONTINUOUS
 10
69.224591
 20
130.918201
 11
69.224591
 21
162.918199
  0
LINE
  8
1
 62
7
  6
CONTINUOUS
 10
36.224591
 20
168.918199
 11
60.224591
 21
168.918199
  0
LINE
  8
1
 62
7
  6
CONTINUOUS
 10
35.574591
 20
124.218199
 11
35.574591
 21
125.918199
  0
LINE
  8
1
 62
7
  6
CONTINUOUS
 10
60.874591
 20
125.918199
 11
60.874591
 21
124.218199
  0
LINE
  8
1
 62
7
  6
CONTINUOUS
 10
61.174591
 20
123.918199
 11
61.218146
 21
123.918199
  0
LINE
  8
1
 62
7
  6
CONTINUOUS
 10
35.724591
 20
122.368199
 11
35.724591
 21
125.918199
  0
LINE
  8
1
 62
7
  6
CONTINUOUS
 10
60.724591
 20
122.368199
 11
60.724591
 21
125.918199
  0
LINE
  8
1
 62
7
  6
CONTINUOUS
 10
35.724591
 20
122.368199
 11
36.224591
 21
122.368199
  0
LINE
  8
1
 62
7
  6
CONTINUOUS
 10
36.224591
 20
122.368199
 11
36.224591
 21
125.918199
  0
LINE
  8
1
 62
7
  6
CONTINUOUS
 10
60.224591
 20
125.918199
 11
60.224591
 21
122.368199
  0
LINE
  8
1
 62
7
  6
CONTINUOUS
 10
60.224591
 20
122.368199
 11
60.724591
 21
122.368199
  0
LINE
  8
1
 62
7
  6
CONTINUOUS
 10
36.274591
 20
121.368199
 11
36.274591
 21
125.918199
  0
LINE
  8
1
 62
7
  6
CONTINUOUS
 10
60.174591
 20
121.368199
 11
60.174591
 21
125.918199
  0
LINE
  8
1
 62
7
  6
CONTINUOUS
 10
36.274591
 20
121.368199
 11
60.174591
 21
121.368199
  0
LINE
  8
1
 62
7
  6
CONTINUOUS
 10
39.274591
 20
125.918199
 11
39.274591
 21
121.368199
  0
LINE
  8
1
 62
7
  6
CONTINUOUS
 10
57.174591
 20
125.918199
 11
57.174591
 21
121.368199
  0
LINE
  8
1
 62
7
  6
CONTINUOUS
 10
36.824591
 20
125.918199
 11
36.824591
 21
123.268199
  0
LINE
  8
1
 62
7
  6
CONTINUOUS
 10
36.824591
 20
123.268199
 11
37.824591
 21
123.268199
  0
LINE
  8
1
 62
7
  6
CONTINUOUS
 10
37.824591
 20
123.268199
 11
37.824591
 21
125.918199
  0
LINE
  8
1
 62
7
  6
CONTINUOUS
 10
59.624591
 20
125.918199
 11
59.624591
 21
123.268199
  0
LINE
  8
1
 62
7
  6
CONTINUOUS
 10
59.624591
 20
123.268199
 11
58.624591
 21
123.268199
  0
LINE
  8
1
 62
7
  6
CONTINUOUS
 10
58.624591
 20
123.268199
 11
58.624591
 21
125.918199
  0
LINE
  8
1
 62
7
  6
HIDDEN
 10
57.524591
 20
119.418199
 11
57.524591
 21
106.902841
  0
LINE
  8
1
 62
7
  6
HIDDEN
 10
46.824591
 20
106.902841
 11
46.824591
 21
119.418199
  0
LINE
  8
1
 62
7
  6
HIDDEN
 10
42.824591
 20
106.902841
 11
42.824591
 21
119.418199
  0
LINE
  8
1
 62
7
  6
HIDDEN
 10
38.824591
 20
106.902841
 11
38.824591
 21
119.418199
  0
LINE
  8
1
 62
7
  6
HIDDEN
 10
36.274591
 20
119.418199
 11
36.274591
 21
120.018199
  0
LINE
  8
1
 62
7
  6
HIDDEN
 10
60.074591
 20
119.418199
 11
60.074591
 21
120.018199
  0
LINE
  8
1
 62
7
  6
HIDDEN
 10
59.424591
 20
121.368199
 11
60.074591
 21
120.018199
  0
LINE
  8
1
 62
7
  6
HIDDEN
 10
37.024591
 20
121.368199
 11
36.274591
 21
120.018199
  0
LINE
  8
1
 62
7
  6
HIDDEN
 10
37.524591
 20
119.418199
 11
37.524591
 21
106.902841
  0
LINE
  8
1
 62
7
  6
HIDDEN
 10
49.524591
 20
119.418199
 11
49.524591
 21
106.902841
  0
LINE
  8
1
 62
7
  6
HIDDEN
 10
50.824591
 20
119.418199
 11
50.824591
 21
106.902841
  0
LINE
  8
1
 62
7
  6
HIDDEN
 10
54.824591
 20
119.418199
 11
54.824591
 21
106.902841
  0
LINE
  8
1
 62
7
  6
HIDDEN
 10
58.824591
 20
119.418199
 11
58.824591
 21
106.902841
  0
LINE
  8
1
 62
7
  6
HIDDEN
 10
41.524591
 20
119.418199
 11
41.524591
 21
106.902841
  0
LINE
  8
1
 62
7
  6
HIDDEN
 10
45.524591
 20
119.418199
 11
45.524591
 21
106.902841
  0
LINE
  8
1
 62
7
  6
HIDDEN
 10
53.524591
 20
119.418199
 11
53.524591
 21
106.902841
  0
LINE
  8
1
 62
7
  6
HIDDEN
 10
60.074591
 20
119.418199
 11
36.274591
 21
119.418199
  0
LINE
  8
1
 62
7
  6
CONTINUOUS
 10
61.218146
 20
123.918199
 11
60.724591
 21
123.918199
  0
LINE
  8
1
 62
7
  6
CONTINUOUS
 10
35.724591
 20
123.918199
 11
35.231035
 21
123.918199
  0
LINE
  8
1
 62
7
  6
CONTINUOUS
 10
209.026930
 20
47.937238
 11
212.526930
 21
47.937238
  0
LINE
  8
1
 62
7
  6
CONTINUOUS
 10
209.026930
 20
48.237238
 11
212.526930
 21
48.237238
  0
LINE
  8
1
 62
7
  6
CONTINUOUS
 10
209.026930
 20
51.937238
 11
212.526930
 21
51.937238
  0
LINE
  8
1
 62
7
  6
CONTINUOUS
 10
209.026930
 20
52.237238
 11
212.526930
 21
52.237238
  0
LINE
  8
1
 62
7
  6
CONTINUOUS
 10
209.026930
 20
55.937238
 11
212.526930
 21
55.937238
  0
LINE
  8
1
 62
7
  6
CONTINUOUS
 10
209.026930
 20
56.237238
 11
212.526930
 21
56.237238
  0
LINE
  8
1
 62
7
  6
CONTINUOUS
 10
209.026930
 20
59.937238
 11
212.526930
 21
59.937238
  0
LINE
  8
1
 62
7
  6
CONTINUOUS
 10
209.026930
 20
60.237238
 11
212.526930
 21
60.237238
  0
LINE
  8
1
 62
7
  6
CONTINUOUS
 10
209.026930
 20
48.537238
 11
212.526930
 21
48.537238
  0
LINE
  8
1
 62
7
  6
CONTINUOUS
 10
209.026930
 20
52.537238
 11
212.526930
 21
52.537238
  0
LINE
  8
1
 62
7
  6
CONTINUOUS
 10
209.026930
 20
56.537238
 11
212.526930
 21
56.537238
  0
LINE
  8
1
 62
7
  6
CONTINUOUS
 10
209.026930
 20
60.537238
 11
212.526930
 21
60.537238
  0
LINE
  8
1
 62
7
  6
CONTINUOUS
 10
209.026930
 20
47.617238
 11
209.026930
 21
48.857238
  0
LINE
  8
1
 62
7
  6
CONTINUOUS
 10
209.026930
 20
51.617238
 11
209.026930
 21
52.857238
  0
LINE
  8
1
 62
7
  6
CONTINUOUS
 10
209.026930
 20
55.617238
 11
209.026930
 21
56.857238
  0
LINE
  8
1
 62
7
  6
CONTINUOUS
 10
209.026930
 20
59.617238
 11
209.026930
 21
60.857238
  0
LINE
  8
1
 62
7
  6
CONTINUOUS
 10
182.885865
 20
60.857238
 11
163.859120
 21
60.857238
  0
LINE
  8
1
 62
7
  6
CONTINUOUS
 10
182.885865
 20
59.617238
 11
163.859120
 21
59.617238
  0
LINE
  8
1
 62
7
  6
CONTINUOUS
 10
182.885865
 20
56.857238
 11
163.859120
 21
56.857238
  0
LINE
  8
1
 62
7
  6
CONTINUOUS
 10
182.885865
 20
55.617238
 11
163.859120
 21
55.617238
  0
LINE
  8
1
 62
7
  6
CONTINUOUS
 10
182.885865
 20
52.857238
 11
163.859120
 21
52.857238
  0
LINE
  8
1
 62
7
  6
CONTINUOUS
 10
182.885865
 20
51.617238
 11
163.859120
 21
51.617238
  0
LINE
  8
1
 62
7
  6
CONTINUOUS
 10
182.885865
 20
48.857238
 11
163.859120
 21
48.857238
  0
LINE
  8
1
 62
7
  6
CONTINUOUS
 10
182.885865
 20
47.617238
 11
163.859120
 21
47.617238
  0
LINE
  8
1
 62
7
  6
CONTINUOUS
 10
163.859120
 20
60.857238
 11
155.985357
 21
60.857238
  0
LINE
  8
1
 62
7
  6
CONTINUOUS
 10
163.859120
 20
59.617238
 11
155.985357
 21
59.617238
  0
LINE
  8
1
 62
7
  6
CONTINUOUS
 10
163.859120
 20
56.857238
 11
155.985357
 21
56.857238
  0
LINE
  8
1
 62
7
  6
CONTINUOUS
 10
163.859120
 20
55.617238
 11
155.985357
 21
55.617238
  0
LINE
  8
1
 62
7
  6
CONTINUOUS
 10
163.859120
 20
52.857238
 11
155.985357
 21
52.857238
  0
LINE
  8
1
 62
7
  6
CONTINUOUS
 10
163.859120
 20
51.617238
 11
155.985357
 21
51.617238
  0
LINE
  8
1
 62
7
  6
CONTINUOUS
 10
163.859120
 20
48.857238
 11
155.985357
 21
48.857238
  0
LINE
  8
1
 62
7
  6
CONTINUOUS
 10
163.859120
 20
47.617238
 11
155.985357
 21
47.617238
  0
LINE
  8
1
 62
7
  6
CONTINUOUS
 10
183.885865
 20
47.617238
 11
209.026930
 21
47.617238
  0
LINE
  8
1
 62
7
  6
CONTINUOUS
 10
183.885865
 20
48.857238
 11
209.026930
 21
48.857238
  0
LINE
  8
1
 62
7
  6
CONTINUOUS
 10
183.885865
 20
51.617238
 11
209.026930
 21
51.617238
  0
LINE
  8
1
 62
7
  6
CONTINUOUS
 10
183.885865
 20
52.857238
 11
209.026930
 21
52.857238
  0
LINE
  8
1
 62
7
  6
CONTINUOUS
 10
183.885865
 20
55.617238
 11
209.026930
 21
55.617238
  0
LINE
  8
1
 62
7
  6
CONTINUOUS
 10
183.885865
 20
56.857238
 11
209.026930
 21
56.857238
  0
LINE
  8
1
 62
7
  6
CONTINUOUS
 10
183.885865
 20
59.617238
 11
209.026930
 21
59.617238
  0
LINE
  8
1
 62
7
  6
CONTINUOUS
 10
183.885865
 20
60.857238
 11
209.026930
 21
60.857238
  0
LINE
  8
1
 62
7
  6
CONTINUOUS
 10
182.885865
 20
41.617238
 11
182.885865
 21
66.857238
  0
LINE
  8
1
 62
7
  6
CONTINUOUS
 10
183.885865
 20
41.617238
 11
183.885865
 21
66.857238
  0
LINE
  8
1
 62
7
  6
CONTINUOUS
 10
155.985357
 20
60.857238
 11
152.608866
 21
60.857238
  0
LINE
  8
1
 62
7
  6
CONTINUOUS
 10
155.985357
 20
59.617238
 11
152.608866
 21
59.617238
  0
LINE
  8
1
 62
7
  6
CONTINUOUS
 10
155.985357
 20
56.857238
 11
152.608866
 21
56.857238
  0
LINE
  8
1
 62
7
  6
CONTINUOUS
 10
155.985357
 20
55.617238
 11
152.608866
 21
55.617238
  0
LINE
  8
1
 62
7
  6
CONTINUOUS
 10
155.985357
 20
52.857238
 11
152.608866
 21
52.857238
  0
LINE
  8
1
 62
7
  6
CONTINUOUS
 10
155.985357
 20
51.617238
 11
152.608866
 21
51.617238
  0
LINE
  8
1
 62
7
  6
CONTINUOUS
 10
155.985357
 20
48.857238
 11
152.608866
 21
48.857238
  0
LINE
  8
1
 62
7
  6
CONTINUOUS
 10
155.985357
 20
47.617238
 11
152.608866
 21
47.617238
  0
LINE
  8
1
 62
7
  6
CONTINUOUS
 10
152.608866
 20
64.837238
 11
152.108866
 21
64.837238
  0
LINE
  8
1
 62
7
  6
CONTINUOUS
 10
152.608866
 20
43.637238
 11
152.108866
 21
43.637238
  0
LINE
  8
1
 62
7
  6
CONTINUOUS
 10
149.908866
 20
46.637238
 11
149.908866
 21
61.837238
  0
LINE
  8
1
 62
7
  6
CONTINUOUS
 10
152.108866
 20
62.837238
 11
145.758866
 21
62.837238
  0
LINE
  8
1
 62
7
  6
CONTINUOUS
 10
151.408866
 20
61.837238
 11
145.758866
 21
61.837238
  0
LINE
  8
1
 62
7
  6
CONTINUOUS
 10
151.408866
 20
46.637238
 11
151.408866
 21
61.837238
  0
LINE
  8
1
 62
7
  6
CONTINUOUS
 10
145.758866
 20
46.637238
 11
151.408866
 21
46.637238
  0
LINE
  8
1
 62
7
  6
CONTINUOUS
 10
152.108866
 20
45.637238
 11
145.758866
 21
45.637238
  0
LINE
  8
1
 62
7
  6
CONTINUOUS
 10
152.608866
 20
66.187238
 11
152.608866
 21
64.837238
  0
LINE
  8
1
 62
7
  6
CONTINUOUS
 10
152.108866
 20
66.187238
 11
152.608866
 21
66.187238
  0
LINE
  8
1
 62
7
  6
CONTINUOUS
 10
152.608866
 20
42.287238
 11
152.108866
 21
42.287238
  0
LINE
  8
1
 62
7
  6
CONTINUOUS
 10
152.608866
 20
43.637238
 11
152.608866
 21
42.287238
  0
LINE
  8
1
 62
7
  6
CONTINUOUS
 10
152.608866
 20
45.637238
 11
152.108866
 21
45.637238
  0
LINE
  8
1
 62
7
  6
CONTINUOUS
 10
152.608866
 20
44.837238
 11
152.608866
 21
45.637238
  0
LINE
  8
1
 62
7
  6
CONTINUOUS
 10
152.108866
 20
44.837238
 11
152.608866
 21
44.837238
  0
LINE
  8
1
 62
7
  6
CONTINUOUS
 10
152.608866
 20
47.637238
 11
152.108866
 21
47.637238
  0
LINE
  8
1
 62
7
  6
CONTINUOUS
 10
152.608866
 20
46.837238
 11
152.608866
 21
47.637238
  0
LINE
  8
1
 62
7
  6
CONTINUOUS
 10
152.108866
 20
46.837238
 11
152.608866
 21
46.837238
  0
LINE
  8
1
 62
7
  6
CONTINUOUS
 10
152.608866
 20
49.637238
 11
152.108866
 21
49.637238
  0
LINE
  8
1
 62
7
  6
CONTINUOUS
 10
152.608866
 20
48.837238
 11
152.608866
 21
49.637238
  0
LINE
  8
1
 62
7
  6
CONTINUOUS
 10
152.108866
 20
48.837238
 11
152.608866
 21
48.837238
  0
LINE
  8
1
 62
7
  6
CONTINUOUS
 10
152.608866
 20
51.637238
 11
152.108866
 21
51.637238
  0
LINE
  8
1
 62
7
  6
CONTINUOUS
 10
152.608866
 20
50.837238
 11
152.608866
 21
51.637238
  0
LINE
  8
1
 62
7
  6
CONTINUOUS
 10
152.108866
 20
50.837238
 11
152.608866
 21
50.837238
  0
LINE
  8
1
 62
7
  6
CONTINUOUS
 10
152.608866
 20
53.637238
 11
152.108866
 21
53.637238
  0
LINE
  8
1
 62
7
  6
CONTINUOUS
 10
152.608866
 20
52.837238
 11
152.608866
 21
53.637238
  0
LINE
  8
1
 62
7
  6
CONTINUOUS
 10
152.108866
 20
52.837238
 11
152.608866
 21
52.837238
  0
LINE
  8
1
 62
7
  6
CONTINUOUS
 10
152.608866
 20
55.637238
 11
152.108866
 21
55.637238
  0
LINE
  8
1
 62
7
  6
CONTINUOUS
 10
152.608866
 20
54.837238
 11
152.608866
 21
55.637238
  0
LINE
  8
1
 62
7
  6
CONTINUOUS
 10
152.108866
 20
54.837238
 11
152.608866
 21
54.837238
  0
LINE
  8
1
 62
7
  6
CONTINUOUS
 10
152.608866
 20
57.637238
 11
152.108866
 21
57.637238
  0
LINE
  8
1
 62
7
  6
CONTINUOUS
 10
152.608866
 20
56.837238
 11
152.608866
 21
57.637238
  0
LINE
  8
1
 62
7
  6
CONTINUOUS
 10
152.108866
 20
56.837238
 11
152.608866
 21
56.837238
  0
LINE
  8
1
 62
7
  6
CONTINUOUS
 10
152.608866
 20
59.637238
 11
152.108866
 21
59.637238
  0
LINE
  8
1
 62
7
  6
CONTINUOUS
 10
152.608866
 20
58.837238
 11
152.608866
 21
59.637238
  0
LINE
  8
1
 62
7
  6
CONTINUOUS
 10
152.108866
 20
58.837238
 11
152.608866
 21
58.837238
  0
LINE
  8
1
 62
7
  6
CONTINUOUS
 10
152.608866
 20
61.637238
 11
152.108866
 21
61.637238
  0
LINE
  8
1
 62
7
  6
CONTINUOUS
 10
152.608866
 20
60.837238
 11
152.608866
 21
61.637238
  0
LINE
  8
1
 62
7
  6
CONTINUOUS
 10
152.108866
 20
60.837238
 11
152.608866
 21
60.837238
  0
LINE
  8
1
 62
7
  6
CONTINUOUS
 10
152.608866
 20
63.637238
 11
152.108866
 21
63.637238
  0
LINE
  8
1
 62
7
  6
CONTINUOUS
 10
152.608866
 20
62.837238
 11
152.608866
 21
63.637238
  0
LINE
  8
1
 62
7
  6
CONTINUOUS
 10
152.108866
 20
62.837238
 11
152.608866
 21
62.837238
  0
LINE
  8
1
 62
7
  6
CONTINUOUS
 10
152.108866
 20
42.287238
 11
152.108866
 21
66.187238
  0
LINE
  8
1
 62
7
  6
CONTINUOUS
 10
150.908866
 20
43.037238
 11
152.108866
 21
42.287238
  0
LINE
  8
1
 62
7
  6
CONTINUOUS
 10
150.908866
 20
65.437238
 11
152.108866
 21
66.187238
  0
LINE
  8
1
 62
7
  6
CONTINUOUS
 10
145.758866
 20
65.437238
 11
150.908866
 21
65.437238
  0
LINE
  8
1
 62
7
  6
CONTINUOUS
 10
145.758866
 20
43.037238
 11
145.758866
 21
65.437238
  0
LINE
  8
1
 62
7
  6
CONTINUOUS
 10
150.908866
 20
43.037238
 11
145.758866
 21
43.037238
  0
LINE
  8
1
 62
7
  6
CONTINUOUS
 10
155.815800
 20
29.017423
 11
203.536943
 21
29.017423
  0
LINE
  8
1
 62
7
  6
CONTINUOUS
 10
78.286454
 20
78.225677
 11
139.208462
 21
78.225677
  0
ARC
  8
1
 62
7
  6
CONTINUOUS
 10
196.423316
 20
166.918199
 40
1.000000
 50
0.000000
 51
90.000000
  0
ARC
  8
1
 62
7
  6
CONTINUOUS
 10
31.850492
 20
123.079964
 40
2.851440
 50
27.104547
 51
84.483857
  0
ARC
  8
1
 62
7
  6
CONTINUOUS
 10
64.598689
 20
123.079964
 40
2.851440
 50
95.516143
 51
152.895453
  0
CIRCLE
  8
1
 62
7
  6
CONTINUOUS
 10
48.224591
 20
146.918199
 40
12.750000
  0
CIRCLE
  8
1
 62
7
  6
CONTINUOUS
 10
48.224591
 20
146.918199
 40
15.000000
  0
CIRCLE
  8
1
 62
7
  6
CONTINUOUS
 10
48.224591
 20
146.918199
 40
11.000000
  0
CIRCLE
  8
1
 62
7
  6
CONTINUOUS
 10
48.224591
 20
146.918199
 40
7.500000
  0
CIRCLE
  8
1
 62
7
  6
CONTINUOUS
 10
48.224591
 20
146.918199
 40
2.500000
  0
CIRCLE
  8
1
 62
7
  6
CONTINUOUS
 10
48.224591
 20
146.918199
 40
4.500000
  0
CIRCLE
  8
4
 62
54
  6
CONTINUOUS
 10
32.724591
 20
162.418199
 40
1.000010
  0
CIRCLE
  8
4
 62
54
  6
CONTINUOUS
 10
63.724591
 20
162.418199
 40
1.000000
  0
CIRCLE
  8
4
 62
54
  6
CONTINUOUS
 10
32.724581
 20
131.418199
 40
1.000010
  0
CIRCLE
  8
4
 62
54
  6
CONTINUOUS
 10
63.724591
 20
131.418199
 40
1.000000
  0
CIRCLE
  8
1
 62
7
  6
CONTINUOUS
 10
63.724591
 20
162.418199
 40
1.500000
  0
CIRCLE
  8
1
 62
7
  6
CONTINUOUS
 10
32.724591
 20
162.418199
 40
1.500000
  0
CIRCLE
  8
1
 62
7
  6
CONTINUOUS
 10
32.724581
 20
131.418199
 40
1.500000
  0
CIRCLE
  8
1
 62
7
  6
CONTINUOUS
 10
63.724591
 20
131.418199
 40
1.500000
  0
ARC
  8
1
 62
7
  6
CONTINUOUS
 10
149.523316
 20
126.918200
 40
1.000000
 50
180.000000
 51
-89.999977
  0
ARC
  8
1
 62
7
  6
CONTINUOUS
 10
149.523316
 20
166.918199
 40
1.000000
 50
90.000000
 51
180.000000
  0
ARC
  8
1
 62
7
  6
CONTINUOUS
 10
196.423304
 20
124.918199
 40
1.000000
 50
-90.000000
 51
0.000100
  0
ARC
  8
1
 62
7
  6
CONTINUOUS
 10
64.224591
 20
162.918199
 40
5.000000
 50
0.000000
 51
90.000000
  0
ARC
  8
1
 62
7
  6
CONTINUOUS
 10
32.224590
 20
162.918199
 40
5.000000
 50
90.000000
 51
179.999986
  0
ARC
  8
1
 62
7
  6
CONTINUOUS
 10
32.224582
 20
130.918210
 40
5.000000
 50
179.999986
 51
-90.000017
  0
ARC
  8
1
 62
7
  6
CONTINUOUS
 10
64.224591
 20
130.918201
 40
5.000000
 50
-90.000017
 51
-0.000000
  0
ARC
  8
1
 62
7
  6
CONTINUOUS
 10
35.274591
 20
124.218199
 40
0.300000
 50
-90.000000
 51
0.000000
  0
ARC
  8
1
 62
7
  6
CONTINUOUS
 10
61.174591
 20
124.218199
 40
0.300000
 50
180.000000
 51
-90.000000
  0
ARC
  8
1
 62
7
  6
CONTINUOUS
 10
35.231035
 20
124.918199
 40
1.000000
 50
-147.379310
 51
-90.000000
  0
ARC
  8
1
 62
7
  6
CONTINUOUS
 10
61.218146
 20
124.918199
 40
1.000000
 50
-90.000000
 51
-32.620690
  0
LINE
  8
1
 62
7
  6
CONTINUOUS
 10
110.112032
 20
99.456045
 11
72.955305
 21
99.456045
  0
LINE
  8
1
 62
7
  6
CONTINUOUS
 10
72.955305
 20
99.456045
 11
64.718991
 21
130.295182
  0
LINE
  8
1
 62
7
  6
CONTINUOUS
 10
65.951708
 20
127.312248
 11
65.137664
 21
127.094838
  0
LINE
  8
1
 62
7
  6
CONTINUOUS
 10
65.137664
 20
127.094838
 11
64.718991
 21
130.295182
  0
LINE
  8
1
 62
7
  6
CONTINUOUS
 10
64.718991
 20
130.295182
 11
65.951708
 21
127.312248
  0
LINE
  8
1
 62
7
  6
CONTINUOUS
 10
37.264962
 20
97.203168
 11
48.182393
 21
97.203168
  0
LINE
  8
1
 62
7
  6
CONTINUOUS
 10
44.982393
 20
96.781880
 11
44.982393
 21
97.624456
  0
LINE
  8
1
 62
7
  6
CONTINUOUS
 10
44.982393
 20
97.624456
 11
48.182393
 21
97.203168
  0
LINE
  8
1
 62
7
  6
CONTINUOUS
 10
48.182393
 20
97.203168
 11
44.982393
 21
96.781880
  0
LINE
  8
1
 62
7
  6
CONTINUOUS
 10
155.599671
 20
206.884227
 11
215.200363
 21
206.884227
  0
LINE
  8
1
 62
7
  6
CONTINUOUS
 10
215.200363
 20
206.884227
 11
195.832216
 21
169.099407
  0
LINE
  8
1
 62
7
  6
CONTINUOUS
 10
196.917007
 20
172.139262
 11
197.666815
 21
171.754917
  0
LINE
  8
1
 62
7
  6
CONTINUOUS
 10
197.666815
 20
171.754917
 11
195.832216
 21
169.099407
  0
LINE
  8
1
 62
7
  6
CONTINUOUS
 10
195.832216
 20
169.099407
 11
196.917007
 21
172.139262
  0
LINE
  8
1
 62
7
  6
CONTINUOUS
 10
93.807976
 20
25.421572
 11
136.971840
 21
25.421572
  0
LINE
  8
1
 62
7
  6
CONTINUOUS
 10
136.971840
 20
25.421572
 11
148.662630
 21
43.037238
  0
LINE
  8
1
 62
7
  6
CONTINUOUS
 10
147.244165
 20
40.138024
 11
146.542127
 21
40.603939
  0
LINE
  8
1
 62
7
  6
CONTINUOUS
 10
146.542127
 20
40.603939
 11
148.662630
 21
43.037238
  0
LINE
  8
1
 62
7
  6
CONTINUOUS
 10
148.662630
 20
43.037238
 11
147.244165
 21
40.138024
  0
LINE
  8
1
 62
7
  6
CONTINUOUS
 10
139.208462
 20
78.225677
 11
160.386391
 21
65.978408
  0
LINE
  8
1
 62
7
  6
CONTINUOUS
 10
157.405349
 20
67.215692
 11
157.827159
 21
67.945083
  0
LINE
  8
1
 62
7
  6
CONTINUOUS
 10
157.827159
 20
67.945083
 11
160.386391
 21
65.978408
  0
LINE
  8
1
 62
7
  6
CONTINUOUS
 10
160.386391
 20
65.978408
 11
157.405349
 21
67.215692
  0
TEXT
  8
1
 62
7
  6
CONTINUOUS
 10
19.306657
 20
89.922811
 40
3.200000
 41
0.675000
  1
PIN NO.
  7
KANJI
 50
0.000000
 51
0.000000
  0
TEXT
  8
1
 62
7
  6
CONTINUOUS
 10
25.586232
 20
100.739800
 40
2.600000
 41
0.828000
  1
ü@ü@ü@ü@ü@1 3 5 7 9 11
  7
KANJI
 50
0.000000
 51
0.000000
  0
TEXT
  8
1
 62
7
  6
CONTINUOUS
 10
18.812967
 20
94.896668
 40
4.000000
 41
0.900000
  1
âsâôöÈìå
  7
KANJI
 50
0.000000
 51
0.000000
  0
TEXT
  8
1
 62
7
  6
CONTINUOUS
 10
77.477488
 20
101.381888
 40
3.500000
 41
0.810000
  1
4-M3ü~0.5
  7
KANJI
 50
0.000000
 51
0.000000
  0
TEXT
  8
1
 62
7
  6
CONTINUOUS
 10
75.360439
 20
94.614173
 40
3.500000
 41
0.540000
  1
É[é▀(DEPTH) 3.5MIN.
  7
KANJI
 50
0.000975
 51
0.000000
  0
TEXT
  8
1
 62
7
  6
CONTINUOUS
 10
156.239360
 20
23.972961
 40
3.000000
 41
0.540000
  1
ATTACHMENT:CONNECTOR LEAD
  7
KANJI
 50
0.000000
 51
0.000000
  0
TEXT
  8
1
 62
7
  6
CONTINUOUS
 10
156.239360
 20
30.017423
 40
4.000000
 41
0.900000
  1
òtæ«òiüFâRâlâNâ^ü[âèü[âh
  7
KANJI
 50
0.000000
 51
0.000000
  0
TEXT
  8
1
 62
7
  6
CONTINUOUS
 10
187.214394
 20
208.578586
 40
3.000000
 41
0.720000
  1
(NAME PLATE)
  7
KANJI
 50
0.000000
 51
0.000000
  0
TEXT
  8
1
 62
7
  6
CONTINUOUS
 10
157.938758
 20
207.578586
 40
5.000000
 41
0.720000
  1
âlü|âÇâvâîü|âg
  7
KANJI
 50
0.000000
 51
0.000000
  0
TEXT
  8
1
 62
7
  6
CONTINUOUS
 10
81.072519
 20
79.130090
 40
1.600000
 41
0.720000
  1
LEAD WIRE
  7
KANJI
 50
0.000000
 51
0.000000
  0
TEXT
  8
1
 62
7
  6
CONTINUOUS
 10
80.272519
 20
81.530090
 40
2.400000
 41
1.215000
  1
âèü|âhÉ³Ädùl
  7
KANJI
 50
0.000000
 51
0.000000
  0
TEXT
  8
1
 62
7
  6
CONTINUOUS
 10
108.472519
 20
81.530090
 40
2.400000
 41
0.900000
  1
UL3266 AWG26
  7
KANJI
 50
0.000000
 51
0.000000
  0
TEXT
  8
1
 62
7
  6
CONTINUOUS
 10
95.475701
 20
28.725985
 40
2.400000
 41
1.215000
  1
ânâEâWâôâO
  7
KANJI
 50
0.000000
 51
0.000000
  0
TEXT
  8
1
 62
7
  6
CONTINUOUS
 10
96.275701
 20
26.325985
 40
1.600000
 41
0.720000
  1
HOUSING
  7
KANJI
 50
0.000000
 51
0.000000
  0
TEXT
  8
1
 62
7
  6
CONTINUOUS
 10
119.675701
 20
28.725985
 40
2.400000
 41
0.900000
  1
PHR-11
  7
KANJI
 50
0.000000
 51
0.000000
  0
TEXT
  8
1
 62
7
  6
CONTINUOUS
 10
120.732942
 20
26.325985
 40
1.600000
 41
0.720000
  1
(JST)
  7
KANJI
 50
0.000000
 51
0.000000
  0
LINE
  8
1
 62
7
  6
CONTINUOUS
 10
114.523408
 20
138.018199
 11
114.523408
 21
144.418199
  0
LINE
  8
1
 62
7
  6
CONTINUOUS
 10
114.523408
 20
144.418199
 11
114.523408
 21
149.418199
  0
LINE
  8
1
 62
7
  6
CONTINUOUS
 10
114.523408
 20
149.418199
 11
114.523408
 21
174.386474
  0
LINE
  8
1
 62
7
  6
CONTINUOUS
 10
123.523305
 20
144.418199
 11
113.523408
 21
144.418199
  0
LINE
  8
1
 62
7
  6
CONTINUOUS
 10
123.523327
 20
149.418199
 11
113.523408
 21
149.418199
  0
LINE
  8
1
 62
7
  6
CONTINUOUS
 10
114.523408
 20
149.418199
 11
114.107408
 21
152.618199
  0
LINE
  8
1
 62
7
  6
CONTINUOUS
 10
114.107408
 20
152.618199
 11
114.939408
 21
152.618199
  0
LINE
  8
1
 62
7
  6
CONTINUOUS
 10
114.939408
 20
152.618199
 11
114.523408
 21
149.418199
  0
LINE
  8
1
 62
7
  6
CONTINUOUS
 10
114.523408
 20
144.418199
 11
114.939408
 21
141.218199
  0
LINE
  8
1
 62
7
  6
CONTINUOUS
 10
114.939408
 20
141.218199
 11
114.107408
 21
141.218199
  0
LINE
  8
1
 62
7
  6
CONTINUOUS
 10
114.107408
 20
141.218199
 11
114.523408
 21
144.418199
  0
TEXT
  8
1
 62
7
  6
CONTINUOUS
 10
111.723408
 20
163.522474
 40
3.200000
 41
0.900000
  1
5
  7
KANJI
 50
90.000000
 51
0.000000
  0
TEXT
  8
1
 62
7
  6
CONTINUOUS
 10
109.643408
 20
167.042474
 40
1.920000
 41
0.900000
  1
 0
  7
KANJI
 50
90.000000
 51
0.000000
  0
TEXT
  8
1
 62
7
  6
CONTINUOUS
 10
112.523408
 20
167.042474
 40
1.920000
 41
0.900000
  1
-0.011
  7
KANJI
 50
90.000000
 51
0.000000
  0
TEXT
  8
1
 62
7
  6
CONTINUOUS
 10
111.723408
 20
159.878030
 40
3.200000
 41
0.900000
  1
âË
  7
KANJI
 50
90.000000
 51
0.000000
  0
LINE
  8
128
 62
7
  6
CONTINUOUS
 10
104.523318
 20
135.918199
 11
104.523318
 21
157.918199
  0
LINE
  8
128
 62
7
  6
CONTINUOUS
 10
145.523216
 20
135.918199
 11
103.523318
 21
135.918199
  0
LINE
  8
128
 62
7
  6
CONTINUOUS
 10
145.523316
 20
157.918199
 11
103.523318
 21
157.918199
  0
LINE
  8
128
 62
7
  6
CONTINUOUS
 10
104.523318
 20
157.918199
 11
104.939318
 21
154.718199
  0
LINE
  8
128
 62
7
  6
CONTINUOUS
 10
104.939318
 20
154.718199
 11
104.107318
 21
154.718199
  0
LINE
  8
128
 62
7
  6
CONTINUOUS
 10
104.107318
 20
154.718199
 11
104.523318
 21
157.918199
  0
LINE
  8
128
 62
7
  6
CONTINUOUS
 10
104.523318
 20
135.918199
 11
104.107318
 21
139.118199
  0
LINE
  8
128
 62
7
  6
CONTINUOUS
 10
104.107318
 20
139.118199
 11
104.939318
 21
139.118199
  0
LINE
  8
128
 62
7
  6
CONTINUOUS
 10
104.939318
 20
139.118199
 11
104.523318
 21
135.918199
  0
TEXT
  8
128
 62
7
  6
CONTINUOUS
 10
102.123318
 20
142.753138
 40
3.200000
 41
0.900000
  1
22
  7
KANJI
 50
90.000000
 51
0.000000
  0
TEXT
  8
128
 62
7
  6
CONTINUOUS
 10
100.043318
 20
150.689138
 40
1.920000
 41
0.900000
  1
0
  7
KANJI
 50
90.000000
 51
0.000000
  0
TEXT
  8
128
 62
7
  6
CONTINUOUS
 10
102.923318
 20
149.153138
 40
1.920000
 41
0.900000
  1
-0.05
  7
KANJI
 50
90.000000
 51
0.000000
  0
TEXT
  8
128
 62
7
  6
CONTINUOUS
 10
102.123318
 20
138.913138
 40
3.200000
 41
0.900000
  1
âË
  7
KANJI
 50
90.000000
 51
0.000000
  0
LINE
  8
128
 62
7
  6
CONTINUOUS
 10
146.523316
 20
187.918199
 11
136.692517
 21
187.918199
  0
LINE
  8
128
 62
7
  6
CONTINUOUS
 10
146.523316
 20
187.918199
 11
148.523316
 21
187.918199
  0
LINE
  8
128
 62
7
  6
CONTINUOUS
 10
154.923316
 20
187.918199
 11
148.523316
 21
187.918199
  0
LINE
  8
128
 62
7
  6
CONTINUOUS
 10
148.523316
 20
167.549191
 11
148.523316
 21
188.918199
  0
LINE
  8
128
 62
7
  6
CONTINUOUS
 10
146.523316
 20
158.918199
 11
146.523316
 21
188.918199
  0
LINE
  8
128
 62
7
  6
CONTINUOUS
 10
146.523316
 20
187.918199
 11
143.323316
 21
187.502199
  0
LINE
  8
128
 62
7
  6
CONTINUOUS
 10
143.323316
 20
187.502199
 11
143.323316
 21
188.334199
  0
LINE
  8
128
 62
7
  6
CONTINUOUS
 10
143.323316
 20
188.334199
 11
146.523316
 21
187.918199
  0
LINE
  8
128
 62
7
  6
CONTINUOUS
 10
148.523316
 20
187.918199
 11
151.723316
 21
188.334199
  0
LINE
  8
128
 62
7
  6
CONTINUOUS
 10
151.723316
 20
188.334199
 11
151.723316
 21
187.502199
  0
LINE
  8
128
 62
7
  6
CONTINUOUS
 10
151.723316
 20
187.502199
 11
148.523316
 21
187.918199
  0
TEXT
  8
128
 62
7
  6
CONTINUOUS
 10
136.692517
 20
189.518199
 40
3.200000
 41
0.900000
  1
2
  7
KANJI
 50
0.000000
 51
0.000000
  0
TEXT
  8
128
 62
7
  6
CONTINUOUS
 10
140.212517
 20
190.158199
 40
1.920000
 41
0.900000
  1
ü}0.2
  7
KANJI
 50
0.000000
 51
0.000000
  0
LINE
  8
128
 62
7
  6
CONTINUOUS
 10
148.523316
 20
197.918199
 11
197.423316
 21
197.918199
  0
LINE
  8
128
 62
7
  6
CONTINUOUS
 10
197.423316
 20
167.918199
 11
197.423316
 21
198.918199
  0
LINE
  8
128
 62
7
  6
CONTINUOUS
 10
148.523316
 20
167.549191
 11
148.523316
 21
198.918199
  0
LINE
  8
128
 62
7
  6
CONTINUOUS
 10
148.523316
 20
197.918199
 11
151.723316
 21
198.334199
  0
LINE
  8
128
 62
7
  6
CONTINUOUS
 10
151.723316
 20
198.334199
 11
151.723316
 21
197.502199
  0
LINE
  8
128
 62
7
  6
CONTINUOUS
 10
151.723316
 20
197.502199
 11
148.523316
 21
197.918199
  0
LINE
  8
128
 62
7
  6
CONTINUOUS
 10
197.423316
 20
197.918199
 11
194.223316
 21
197.502199
  0
LINE
  8
128
 62
7
  6
CONTINUOUS
 10
194.223316
 20
197.502199
 11
194.223316
 21
198.334199
  0
LINE
  8
128
 62
7
  6
CONTINUOUS
 10
194.223316
 20
198.334199
 11
197.423316
 21
197.918199
  0
TEXT
  8
128
 62
7
  6
CONTINUOUS
 10
163.855993
 20
199.518199
 40
3.200000
 41
0.900000
  1
50
  7
KANJI
 50
0.000000
 51
0.000000
  0
TEXT
  8
128
 62
7
  6
CONTINUOUS
 10
170.255993
 20
199.518199
 40
3.200000
 41
0.900000
  1
MAX.
  7
KANJI
 50
0.000000
 51
0.000000
  0
LINE
  8
1
 62
7
  6
CONTINUOUS
 10
124.523327
 20
197.918199
 11
148.523316
 21
197.918199
  0
LINE
  8
1
 62
7
  6
CONTINUOUS
 10
148.523316
 20
167.918199
 11
148.523316
 21
198.918199
  0
LINE
  8
1
 62
7
  6
CONTINUOUS
 10
124.523327
 20
150.418199
 11
124.523327
 21
198.918199
  0
LINE
  8
1
 62
7
  6
CONTINUOUS
 10
124.523327
 20
197.918199
 11
127.723327
 21
198.334199
  0
LINE
  8
1
 62
7
  6
CONTINUOUS
 10
127.723327
 20
198.334199
 11
127.723327
 21
197.502199
  0
LINE
  8
1
 62
7
  6
CONTINUOUS
 10
127.723327
 20
197.502199
 11
124.523327
 21
197.918199
  0
LINE
  8
1
 62
7
  6
CONTINUOUS
 10
148.523316
 20
197.918199
 11
145.323316
 21
197.502199
  0
LINE
  8
1
 62
7
  6
CONTINUOUS
 10
145.323316
 20
197.502199
 11
145.323316
 21
198.334199
  0
LINE
  8
1
 62
7
  6
CONTINUOUS
 10
145.323316
 20
198.334199
 11
148.523316
 21
197.918199
  0
TEXT
  8
1
 62
7
  6
CONTINUOUS
 10
132.149822
 20
199.918199
 40
3.200000
 41
0.900000
  1
24
  7
KANJI
 50
0.000000
 51
0.000000
  0
TEXT
  8
1
 62
7
  6
CONTINUOUS
 10
138.549822
 20
200.558199
 40
1.920000
 41
0.900000
  1
ü}0.5
  7
KANJI
 50
0.000000
 51
0.000000
  0
LINE
  8
1
 62
7
  6
CONTINUOUS
 10
84.224591
 20
131.418199
 11
84.224591
 21
162.418199
  0
LINE
  8
1
 62
7
  6
CONTINUOUS
 10
67.224591
 20
131.418199
 11
85.224591
 21
131.418199
  0
LINE
  8
1
 62
7
  6
CONTINUOUS
 10
67.224591
 20
162.418199
 11
85.224591
 21
162.418199
  0
LINE
  8
1
 62
7
  6
CONTINUOUS
 10
84.224591
 20
162.418199
 11
84.640591
 21
159.218199
  0
LINE
  8
1
 62
7
  6
CONTINUOUS
 10
84.640591
 20
159.218199
 11
83.808591
 21
159.218199
  0
LINE
  8
1
 62
7
  6
CONTINUOUS
 10
83.808591
 20
159.218199
 11
84.224591
 21
162.418199
  0
LINE
  8
1
 62
7
  6
CONTINUOUS
 10
84.224591
 20
131.418199
 11
83.808591
 21
134.618199
  0
LINE
  8
1
 62
7
  6
CONTINUOUS
 10
83.808591
 20
134.618199
 11
84.640591
 21
134.618199
  0
LINE
  8
1
 62
7
  6
CONTINUOUS
 10
84.640591
 20
134.618199
 11
84.224591
 21
131.418199
  0
TEXT
  8
1
 62
7
  6
CONTINUOUS
 10
82.224591
 20
140.512937
 40
3.200000
 41
0.900000
  1
31
  7
KANJI
 50
90.000000
 51
0.000000
  0
TEXT
  8
1
 62
7
  6
CONTINUOUS
 10
81.584591
 20
145.952937
 40
1.920000
 41
0.900000
  1
ü}0.2
  7
KANJI
 50
90.000000
 51
0.000000
  0
LINE
  8
128
 62
7
  6
CONTINUOUS
 10
32.724601
 20
182.918199
 11
63.724591
 21
182.918199
  0
LINE
  8
128
 62
7
  6
CONTINUOUS
 10
32.724601
 20
164.918199
 11
32.724601
 21
183.918199
  0
LINE
  8
128
 62
7
  6
CONTINUOUS
 10
63.724591
 20
164.918199
 11
63.724591
 21
183.918199
  0
LINE
  8
128
 62
7
  6
CONTINUOUS
 10
32.724601
 20
182.918199
 11
35.924601
 21
183.334199
  0
LINE
  8
128
 62
7
  6
CONTINUOUS
 10
35.924601
 20
183.334199
 11
35.924601
 21
182.502199
  0
LINE
  8
128
 62
7
  6
CONTINUOUS
 10
35.924601
 20
182.502199
 11
32.724601
 21
182.918199
  0
LINE
  8
128
 62
7
  6
CONTINUOUS
 10
63.724591
 20
182.918199
 11
60.524591
 21
182.502199
  0
LINE
  8
128
 62
7
  6
CONTINUOUS
 10
60.524591
 20
182.502199
 11
60.524591
 21
183.334199
  0
LINE
  8
128
 62
7
  6
CONTINUOUS
 10
60.524591
 20
183.334199
 11
63.724591
 21
182.918199
  0
TEXT
  8
128
 62
7
  6
CONTINUOUS
 10
42.600591
 20
184.518199
 40
3.200000
 41
0.900000
  1
31
  7
KANJI
 50
0.000000
 51
0.000000
  0
TEXT
  8
128
 62
7
  6
CONTINUOUS
 10
48.040591
 20
185.158199
 40
1.920000
 41
0.900000
  1
ü}0.2
  7
KANJI
 50
0.000000
 51
0.000000
  0
LINE
  8
128
 62
7
  6
CONTINUOUS
 10
27.224590
 20
192.918199
 11
69.224591
 21
192.918199
  0
LINE
  8
128
 62
7
  6
CONTINUOUS
 10
27.224590
 20
163.918201
 11
27.224590
 21
193.918199
  0
LINE
  8
128
 62
7
  6
CONTINUOUS
 10
69.224591
 20
163.918199
 11
69.224591
 21
193.918199
  0
LINE
  8
128
 62
7
  6
CONTINUOUS
 10
27.224590
 20
192.918199
 11
30.424590
 21
193.334199
  0
LINE
  8
128
 62
7
  6
CONTINUOUS
 10
30.424590
 20
193.334199
 11
30.424590
 21
192.502199
  0
LINE
  8
128
 62
7
  6
CONTINUOUS
 10
30.424590
 20
192.502199
 11
27.224590
 21
192.918199
  0
LINE
  8
128
 62
7
  6
CONTINUOUS
 10
69.224591
 20
192.918199
 11
66.024591
 21
192.502199
  0
LINE
  8
128
 62
7
  6
CONTINUOUS
 10
66.024591
 20
192.502199
 11
66.024591
 21
193.334199
  0
LINE
  8
128
 62
7
  6
CONTINUOUS
 10
66.024591
 20
193.334199
 11
69.224591
 21
192.918199
  0
TEXT
  8
128
 62
7
  6
CONTINUOUS
 10
45.824591
 20
194.518199
 40
3.200000
 41
0.900000
  1
42
  7
KANJI
 50
0.000000
 51
0.000000
  0
TEXT
  8
128
 62
7
  6
CONTINUOUS
 10
43.744591
 20
194.518199
 40
3.200000
 41
0.900000
  1
(
  7
KANJI
 50
0.000000
 51
0.000000
  0
TEXT
  8
128
 62
7
  6
CONTINUOUS
 10
52.224591
 20
194.518199
 40
3.200000
 41
0.900000
  1
)
  7
KANJI
 50
0.000000
 51
0.000000
  0
LINE
  8
1
 62
7
  6
CONTINUOUS
 10
152.608866
 20
87.442049
 11
212.526930
 21
87.442049
  0
LINE
  8
1
 62
7
  6
CONTINUOUS
 10
152.608866
 20
67.187238
 11
152.608866
 21
88.942049
  0
LINE
  8
1
 62
7
  6
CONTINUOUS
 10
212.526930
 20
61.237238
 11
212.526930
 21
88.942049
  0
LINE
  8
1
 62
7
  6
CONTINUOUS
 10
212.526930
 20
87.442049
 11
209.326930
 21
87.026049
  0
LINE
  8
1
 62
7
  6
CONTINUOUS
 10
209.326930
 20
87.026049
 11
209.326930
 21
87.858049
  0
LINE
  8
1
 62
7
  6
CONTINUOUS
 10
209.326930
 20
87.858049
 11
212.526930
 21
87.442049
  0
LINE
  8
1
 62
7
  6
CONTINUOUS
 10
152.608866
 20
87.442049
 11
155.808866
 21
87.858049
  0
LINE
  8
1
 62
7
  6
CONTINUOUS
 10
155.808866
 20
87.858049
 11
155.808866
 21
87.026049
  0
LINE
  8
1
 62
7
  6
CONTINUOUS
 10
155.808866
 20
87.026049
 11
152.608866
 21
87.442049
  0
TEXT
  8
1
 62
7
  6
CONTINUOUS
 10
175.654324
 20
90.242049
 40
3.200000
 41
0.900000
  1
300
  7
KANJI
 50
0.000000
 51
0.000000
  0
TEXT
  8
1
 62
7
  6
CONTINUOUS
 10
184.934324
 20
92.322049
 40
1.920000
 41
0.900000
  1
+40
  7
KANJI
 50
0.000000
 51
0.000000
  0
TEXT
  8
1
 62
7
  6
CONTINUOUS
 10
186.662324
 20
89.442049
 40
1.920000
 41
0.900000
  1
 0
  7
KANJI
 50
0.000000
 51
0.000000
  0
LINE
  8
1
 62
7
  6
CONTINUOUS
 10
218.926930
 20
72.774176
 11
212.526930
 21
72.774176
  0
LINE
  8
1
 62
7
  6
CONTINUOUS
 10
209.026930
 20
72.774176
 11
212.526930
 21
72.774176
  0
LINE
  8
1
 62
7
  6
CONTINUOUS
 10
209.026930
 20
72.774176
 11
195.946087
 21
72.774176
  0
LINE
  8
1
 62
7
  6
CONTINUOUS
 10
209.026930
 20
61.857238
 11
209.026930
 21
74.274176
  0
LINE
  8
1
 62
7
  6
CONTINUOUS
 10
212.526930
 20
61.537238
 11
212.526930
 21
74.274176
  0
LINE
  8
1
 62
7
  6
CONTINUOUS
 10
209.026930
 20
72.774176
 11
205.826930
 21
72.358176
  0
LINE
  8
1
 62
7
  6
CONTINUOUS
 10
205.826930
 20
72.358176
 11
205.826930
 21
73.190176
  0
LINE
  8
1
 62
7
  6
CONTINUOUS
 10
205.826930
 20
73.190176
 11
209.026930
 21
72.774176
  0
LINE
  8
1
 62
7
  6
CONTINUOUS
 10
212.526930
 20
72.774176
 11
215.726930
 21
73.190176
  0
LINE
  8
1
 62
7
  6
CONTINUOUS
 10
215.726930
 20
73.190176
 11
215.726930
 21
72.358176
  0
LINE
  8
1
 62
7
  6
CONTINUOUS
 10
215.726930
 20
72.358176
 11
212.526930
 21
72.774176
  0
TEXT
  8
1
 62
7
  6
CONTINUOUS
 10
195.946087
 20
74.774176
 40
3.200000
 41
0.900000
  1
(3.5)
  7
KANJI
 50
0.000000
 51
0.000000
  0
LINE
  8
1
 62
7
  6
CONTINUOUS
 10
94.224591
 20
125.918201
 11
94.224591
 21
167.918199
  0
LINE
  8
1
 62
7
  6
CONTINUOUS
 10
65.224590
 20
125.918201
 11
95.724591
 21
125.918201
  0
LINE
  8
1
 62
7
  6
CONTINUOUS
 10
65.224591
 20
167.918199
 11
95.724591
 21
167.918199
  0
LINE
  8
1
 62
7
  6
CONTINUOUS
 10
94.224591
 20
167.918199
 11
94.640591
 21
164.718199
  0
LINE
  8
1
 62
7
  6
CONTINUOUS
 10
94.640591
 20
164.718199
 11
93.808591
 21
164.718199
  0
LINE
  8
1
 62
7
  6
CONTINUOUS
 10
93.808591
 20
164.718199
 11
94.224591
 21
167.918199
  0
LINE
  8
1
 62
7
  6
CONTINUOUS
 10
94.224591
 20
125.918201
 11
93.808591
 21
129.118201
  0
LINE
  8
1
 62
7
  6
CONTINUOUS
 10
93.808591
 20
129.118201
 11
94.640591
 21
129.118201
  0
LINE
  8
1
 62
7
  6
CONTINUOUS
 10
94.640591
 20
129.118201
 11
94.224591
 21
125.918201
  0
TEXT
  8
1
 62
7
  6
CONTINUOUS
 10
92.224591
 20
143.992977
 40
3.200000
 41
0.900000
  1
42
  7
KANJI
 50
90.000000
 51
0.000000
  0
TEXT
  8
1
 62
7
  6
CONTINUOUS
 10
92.224591
 20
141.912977
 40
3.200000
 41
0.900000
  1
(
  7
KANJI
 50
90.000000
 51
0.000000
  0
TEXT
  8
1
 62
7
  6
CONTINUOUS
 10
92.224591
 20
150.392977
 40
3.200000
 41
0.900000
  1
)
  7
KANJI
 50
90.000000
 51
0.000000
  0
LINE
  8
1
 62
7
  6
CONTINUOUS
 10
23.992535
 20
132.318210
 11
23.992535
 21
125.918210
  0
LINE
  8
1
 62
7
  6
CONTINUOUS
 10
23.992535
 20
119.418199
 11
23.992535
 21
125.918210
  0
LINE
  8
1
 62
7
  6
CONTINUOUS
 10
23.992535
 20
119.418199
 11
23.992535
 21
103.499605
  0
LINE
  8
1
 62
7
  6
CONTINUOUS
 10
35.274591
 20
119.418199
 11
22.492535
 21
119.418199
  0
LINE
  8
1
 62
7
  6
CONTINUOUS
 10
31.224581
 20
125.918210
 11
22.492535
 21
125.918210
  0
LINE
  8
1
 62
7
  6
CONTINUOUS
 10
23.992535
 20
125.918210
 11
23.576535
 21
129.118210
  0
LINE
  8
1
 62
7
  6
CONTINUOUS
 10
23.576535
 20
129.118210
 11
24.408535
 21
129.118210
  0
LINE
  8
1
 62
7
  6
CONTINUOUS
 10
24.408535
 20
129.118210
 11
23.992535
 21
125.918210
  0
LINE
  8
1
 62
7
  6
CONTINUOUS
 10
23.992535
 20
119.418199
 11
24.408535
 21
116.218199
  0
LINE
  8
1
 62
7
  6
CONTINUOUS
 10
24.408535
 20
116.218199
 11
23.576535
 21
116.218199
  0
LINE
  8
1
 62
7
  6
CONTINUOUS
 10
23.576535
 20
116.218199
 11
23.992535
 21
119.418199
  0
TEXT
  8
1
 62
7
  6
CONTINUOUS
 10
21.992535
 20
108.779605
 40
3.200000
 41
0.900000
  1
6.5
  7
KANJI
 50
90.000000
 51
0.000000
  0
TEXT
  8
1
 62
7
  6
CONTINUOUS
 10
21.992535
 20
103.499605
 40
3.200000
 41
0.900000
  1
üª(
  7
KANJI
 50
90.000000
 51
0.000000
  0
TEXT
  8
1
 62
7
  6
CONTINUOUS
 10
21.992535
 20
116.219605
 40
3.200000
 41
0.900000
  1
)
  7
KANJI
 50
90.000000
 51
0.000000
  0
LINE
  8
1
 62
7
  6
CONTINUOUS
 10
94.224591
 20
132.318201
 11
94.224591
 21
125.918201
  0
LINE
  8
1
 62
7
  6
CONTINUOUS
 10
94.224591
 20
121.368199
 11
94.224591
 21
125.918201
  0
LINE
  8
1
 62
7
  6
CONTINUOUS
 10
94.224591
 20
121.368199
 11
94.224591
 21
108.107723
  0
LINE
  8
1
 62
7
  6
CONTINUOUS
 10
61.174591
 20
121.368199
 11
95.724591
 21
121.368199
  0
LINE
  8
1
 62
7
  6
CONTINUOUS
 10
65.224590
 20
125.918201
 11
95.724591
 21
125.918201
  0
LINE
  8
1
 62
7
  6
CONTINUOUS
 10
94.224591
 20
125.918201
 11
93.808591
 21
129.118201
  0
LINE
  8
1
 62
7
  6
CONTINUOUS
 10
93.808591
 20
129.118201
 11
94.640591
 21
129.118201
  0
LINE
  8
1
 62
7
  6
CONTINUOUS
 10
94.640591
 20
129.118201
 11
94.224591
 21
125.918201
  0
LINE
  8
1
 62
7
  6
CONTINUOUS
 10
94.224591
 20
121.368199
 11
94.640591
 21
118.168199
  0
LINE
  8
1
 62
7
  6
CONTINUOUS
 10
94.640591
 20
118.168199
 11
93.808591
 21
118.168199
  0
LINE
  8
1
 62
7
  6
CONTINUOUS
 10
93.808591
 20
118.168199
 11
94.224591
 21
121.368199
  0
TEXT
  8
1
 62
7
  6
CONTINUOUS
 10
92.224591
 20
110.187723
 40
3.200000
 41
0.900000
  1
4.6
  7
KANJI
 50
90.000000
 51
0.000000
  0
TEXT
  8
1
 62
7
  6
CONTINUOUS
 10
92.224591
 20
108.107723
 40
3.200000
 41
0.900000
  1
(
  7
KANJI
 50
90.000000
 51
0.000000
  0
TEXT
  8
1
 62
7
  6
CONTINUOUS
 10
92.224591
 20
117.627723
 40
3.200000
 41
0.900000
  1
)
  7
KANJI
 50
90.000000
 51
0.000000
  0
LINE
  8
1
 62
7
  6
CONTINUOUS
 10
193.295998
 20
196.528812
 11
193.295998
 21
170.528812
  0
LINE
  8
1
 62
7
  6
CONTINUOUS
 10
187.295998
 20
170.528812
 11
187.295998
 21
196.528812
  0
LINE
  8
1
 62
7
  6
CONTINUOUS
 10
187.295998
 20
196.528812
 11
193.295998
 21
196.528812
  0
LINE
  8
1
 62
7
  6
CONTINUOUS
 10
190.295998
 20
172.028812
 11
190.295998
 21
174.528812
  0
LINE
  8
1
 62
7
  6
CONTINUOUS
 10
192.795998
 20
173.528812
 11
187.795998
 21
173.528812
  0
LINE
  8
1
 62
7
  6
CONTINUOUS
 10
187.795998
 20
173.528812
 11
190.295998
 21
172.028812
  0
LINE
  8
1
 62
7
  6
CONTINUOUS
 10
187.295998
 20
176.528812
 11
193.295998
 21
176.528812
  0
LINE
  8
1
 62
7
  6
CONTINUOUS
 10
193.295998
 20
170.528812
 11
187.295998
 21
170.528812
  0
TEXT
  8
1
 62
7
  6
CONTINUOUS
 10
185.193077
 20
172.749101
 40
5.000000
 41
0.900000
  1
(   )
  7
KANJI
 50
90.000000
 51
0.000000
  0
TEXT
  8
1
 62
7
  6
CONTINUOUS
 10
182.273430
 20
176.266182
 40
2.000000
 41
0.900000
  1
DIRECTION
  7
KANJI
 50
90.000000
 51
0.000000
  0
TEXT
  8
1
 62
7
  6
CONTINUOUS
 10
185.273430
 20
176.266182
 40
2.000000
 41
0.900000
  1
OF LETTER
  7
KANJI
 50
90.000000
 51
0.000000
  0
TEXT
  8
1
 62
7
  6
CONTINUOUS
 10
192.295998
 20
177.575558
 40
4.000000
 41
0.900000
  1
òÂÄÜé╠î³é½
  7
KANJI
 50
90.000000
 51
0.000000
  0
ENDSEC
  0
EOF
