  0
SECTION
  2
HEADER
  9
$ACADVER
  1
AC1003
  9
$INSBASE
 10
0.000000
 20
0.000000
  9
$EXTMIN
 10
0.000000
 20
0.000000
  9
$EXTMAX
 10
420.000000
 20
297.000000
  9
$LIMMIN
 10
0.000000
 20
0.000000
  9
$LIMMAX
 10
420.000000
 20
297.000000
  9
$VIEWCTR
 10
210.000000
 20
148.500000
  9
$VIEWSIZE
 40
297.000000
  9
$PEXTMIN
 10
0.000000
 20
0.000000
 30
0.000000
  9
$PEXTMAX
 10
420.000000
 20
297.000000
 30
0.000000
  9
$SNAPMODE
 70
     0
  9
$SNAPUNIT
 10
1.000000
 20
1.000000
  9
$SNAPBASE
 10
0.000000
 20
0.000000
  9
$SNAPANG
 50
0.000000
  9
$SNAPISOPAIR
 70
     0
  9
$SNAPSTYLE
 70
     0
  9
$GRIDMODE
 70
     0
  9
$GRIDUNIT
 10
0.000000
 20
0.000000
  9
$ORTHOMODE
 70
     0
  9
$REGENMODE
 70
     1
  9
$FILLMODE
 70
     1
  9
$QTEXTMODE
 70
     0
  9
$DRAGMODE
 70
     2
  9
$LTSCALE
 40
0.250000
  9
$OSMODE
 70
     0
  9
$ATTMODE
 70
     1
  9
$TEXTSIZE
 40
0.200000
  9
$TRACEWID
 40
0.050000
  9
$TEXTSTYLE
  7
STANDARD
  9
$CLAYER
  8
0
  9
$CELTYPE
  6
BYLAYER
  9
$CECOLOR
 62
   256
  9
$DIMSCALE
 40
1.000000
  9
$DIMASZ
 40
1.000000
  9
$DIMEXO
 40
0.000000
  9
$DIMDLI
 40
0.500000
  9
$DIMRND
 40
0.000000
  9
$DIMDLE
 40
0.000000
  9
$DIMEXE
 40
0.000000
  9
$DIMTP
 40
0.000000
  9
$DIMTM
 40
0.000000
  9
$DIMTXT
 40
0.180000
  9
$DIMCEN
 40
0.000000
  9
$DIMTSZ
 40
0.000000
  9
$DIMTOL
 70
     0
  9
$DIMLIM
 70
     0
  9
$DIMTIH
 70
     1
  9
$DIMTOH
 70
     1
  9
$DIMSE1
 70
     0
  9
$DIMSE2
 70
     0
  9
$DIMTAD
 70
     0
  9
$DIMZIN
 70
     0
  9
$DIMBLK
  1

  9
$DIMASO
 70
     0
  9
$DIMSHO
 70
     0
  9
$DIMPOST
  1

  9
$DIMAPOST
  1

  9
$DIMALT
 70
     0
  9
$DIMALTD
 70
     0
  9
$DIMALTF
 40
25.400000
  9
$DIMLFAC
 40
1.000000
  9
$DIMTOFL
 70
     0
  9
$DIMTVP
 40
0.000000
  9
$DIMTIX
 70
     0
  9
$DIMSOXD
 70
     0
  9
$DIMSAH
 70
     0
  9
$DIMBLKL
  1

  9
$DIMBLKR
  1

  9
$LUNITS
 70
     2
  9
$LUPREC
 70
     2
  9
$AXISMODE
 70
     0
  9
$AXISUNIT
 10
1.000000
 20
1.000000
  9
$SKETCHINC
 40
0.000000
  9
$FILLETRAD
 40
0.000000
  9
$AUNITS
 70
     1
  9
$AUPREC
 70
     2
  9
$MENU
  1
ACAD
  9
$ELEVATION
 40
0.000000
  9
$THICKNESS
 40
0.000000
  9
$VIEWDIR
 10
0.000000
 20
0.000000
 30
1.000000
  9
$LIMCHECK
 70
     1
  9
$BLIPMODE
 70
     1
  9
$CHAMFERA
 40
0.000000
  9
$CHAMFERB
 40
0.000000
  9
$FASTZOOM
 70
     1
  9
$SKPOLY
 70
     0
  9
$TDCREATE
 40
0.000000
  9
$TDUPDATE
 40
0.000000
  9
$TDINDWG
 40
0.000000
  9
$TDUSRTIMER
 40
0.000000
  9
$USRTIMER
 70
     1
  9
$ANGBASE
 50
0.000000
  9
$ANGDIR
 70
     0
  9
$PDMODE
 70
     0
  9
$PDSIZE
 40
0.000000
  9
$PLINEWID
 40
0.000000
  9
$COORDS
 70
     2
  9
$USERI1
 70
     0
  9
$USERI2
 70
     0
  9
$USERI3
 70
     0
  9
$USERI4
 70
     0
  9
$USERI5
 70
     0
  9
$USERR1
 40
0.000000
  9
$USERR2
 40
0.000000
  9
$USERR3
 40
0.000000
  9
$USERR4
 40
0.000000
  9
$USERR5
 40
0.000000
  0
ENDSEC
  0
SECTION
  2
TABLES
  0
TABLE
  2
LTYPE
 70
     5
  0
LTYPE
  2
CONTINUOUS
 70
    64
  3
Solid line
 72
    65
 73
     0
 40
0.0
  0
LTYPE
  2
HIDDEN
 70
    64
  3
------------------------
 72
    65
 73
     2
 40
12.6
 49
8.4
 49
-4.2
  0
LTYPE
  2
DOT
 70
    64
  3
ÑÑÑÑÑÑÑÑÑÑÑÑÑÑÑÑÑÑÑÑÑÑÑÑ
 72
    65
 73
     2
 40
8.0
 49
6.0
 49
-2.0
  0
LTYPE
  2
DASHDOT
 70
    64
  3
--Ñ--Ñ--Ñ--Ñ--Ñ--Ñ--Ñ--
 72
    65
 73
     4
 40
50.5
 49
30.0
 49
-9.0
 49
2.5
 49
-9.0
  0
LTYPE
  2
DIVIDE
 70
    64
  3
--ÑÑ--ÑÑ--ÑÑ--ÑÑ--ÑÑ--
 72
    65
 73
     6
 40
58.0
 49
30.0
 49
-9.0
 49
2.5
 49
-5.0
 49
2.5
 49
-9.0
  0
ENDTAB
  0
TABLE
  2
LAYER
 70
4
  0
LAYER
  2
1
 70
64
 62
7
  6
CONTINUOUS
  0
LAYER
  2
2
 70
64
 62
134
  6
CONTINUOUS
  0
LAYER
  2
4
 70
64
 62
54
  6
CONTINUOUS
  0
LAYER
  2
128
 70
64
 62
7
  6
CONTINUOUS
  0
ENDTAB
  0
TABLE
  2
STYLE
 70
     2
  0
STYLE
  2
STANDARD
 70
    64
 40
0.0
 41
1.0
 50
0.0
 71
     0
 42
0.2
  3
TXT
  4

  0
STYLE
  2
KANJI
 70
    64
 40
0.0
 41
1.0
 50
0.0
 71
     0
 42
0.2
  3
TXT
  4
BIGFONT
  0
ENDTAB
  0
TABLE
  2
VIEW
 70
     0
  0
ENDTAB
  0
ENDSEC
  0
SECTION
  2
BLOCKS
  0
ENDSEC
  0
SECTION
  2
ENTITIES
  0
LINE
  8
1
 62
7
  6
CONTINUOUS
 10
96.830462
 20
68.225677
 11
157.752471
 21
68.225677
  0
LINE
  8
1
 62
7
  6
CONTINUOUS
 10
48.945651
 20
115.918210
 11
80.945660
 21
115.918201
  0
LINE
  8
1
 62
7
  6
CONTINUOUS
 10
164.945764
 20
156.918199
 11
164.945764
 21
116.918200
  0
LINE
  8
1
 62
7
  6
CONTINUOUS
 10
174.845764
 20
121.918299
 11
174.845764
 21
151.918199
  0
LINE
  8
1
 62
7
  6
CONTINUOUS
 10
190.845764
 20
151.918199
 11
190.845764
 21
121.918199
  0
LINE
  8
1
 62
7
  6
CONTINUOUS
 10
140.945753
 20
134.418199
 11
162.945703
 21
134.418199
  0
LINE
  8
1
 62
7
  6
CONTINUOUS
 10
140.945776
 20
139.418199
 11
162.945726
 21
139.418199
  0
LINE
  8
1
 62
7
  6
CONTINUOUS
 10
43.945653
 20
120.918211
 11
43.945660
 21
152.918201
  0
LINE
  8
1
 62
7
  6
CONTINUOUS
 10
51.952105
 20
113.918199
 11
51.995661
 21
113.918199
  0
LINE
  8
1
 62
7
  6
CONTINUOUS
 10
165.945765
 20
115.918200
 11
190.845764
 21
115.918210
  0
LINE
  8
1
 62
7
  6
CONTINUOUS
 10
165.945764
 20
157.918199
 11
202.845764
 21
157.918199
  0
LINE
  8
4
 62
54
  6
CONTINUOUS
 10
190.445764
 20
148.227399
 11
190.445764
 21
157.918199
  0
LINE
  8
4
 62
54
  6
CONTINUOUS
 10
189.645764
 20
149.497199
 11
189.645764
 21
157.918199
  0
LINE
  8
4
 62
54
  6
CONTINUOUS
 10
188.845764
 20
150.766999
 11
188.845764
 21
157.918199
  0
LINE
  8
4
 62
54
  6
CONTINUOUS
 10
188.045764
 20
152.036799
 11
188.045764
 21
157.918199
  0
LINE
  8
4
 62
54
  6
CONTINUOUS
 10
187.245764
 20
153.306599
 11
187.245764
 21
157.918199
  0
LINE
  8
4
 62
54
  6
CONTINUOUS
 10
186.445764
 20
154.576299
 11
186.445764
 21
157.918199
  0
LINE
  8
4
 62
54
  6
CONTINUOUS
 10
175.245664
 20
125.608899
 11
175.245664
 21
115.918099
  0
LINE
  8
4
 62
54
  6
CONTINUOUS
 10
176.045664
 20
124.339099
 11
176.045664
 21
115.918099
  0
LINE
  8
4
 62
54
  6
CONTINUOUS
 10
176.845664
 20
123.069299
 11
176.845664
 21
115.918099
  0
LINE
  8
4
 62
54
  6
CONTINUOUS
 10
177.645664
 20
121.799499
 11
177.645664
 21
115.918099
  0
LINE
  8
4
 62
54
  6
CONTINUOUS
 10
178.445664
 20
120.529799
 11
178.445664
 21
115.918099
  0
LINE
  8
4
 62
54
  6
CONTINUOUS
 10
179.245664
 20
119.259999
 11
179.245664
 21
115.918099
  0
LINE
  8
2
 62
134
  6
CONTINUOUS
 10
64.945661
 20
110.581172
 11
64.945661
 21
161.918199
  0
LINE
  8
2
 62
134
  6
CONTINUOUS
 10
38.024181
 20
136.918199
 11
91.445161
 21
136.918199
  0
LINE
  8
2
 62
134
  6
CONTINUOUS
 10
77.945661
 20
152.418199
 11
82.945661
 21
152.418199
  0
LINE
  8
2
 62
134
  6
CONTINUOUS
 10
80.445661
 20
149.918199
 11
80.445661
 21
154.918199
  0
LINE
  8
2
 62
134
  6
CONTINUOUS
 10
49.445671
 20
149.918199
 11
49.445671
 21
154.918199
  0
LINE
  8
2
 62
134
  6
CONTINUOUS
 10
51.945661
 20
152.418199
 11
46.945661
 21
152.418199
  0
LINE
  8
2
 62
134
  6
CONTINUOUS
 10
51.945661
 20
121.418199
 11
46.945661
 21
121.418199
  0
LINE
  8
2
 62
134
  6
CONTINUOUS
 10
49.445651
 20
123.918199
 11
49.445651
 21
118.918199
  0
LINE
  8
2
 62
134
  6
CONTINUOUS
 10
80.445661
 20
123.918199
 11
80.445661
 21
118.918199
  0
LINE
  8
2
 62
134
  6
CONTINUOUS
 10
77.945661
 20
121.418199
 11
82.945661
 21
121.418199
  0
LINE
  8
1
 62
7
  6
CONTINUOUS
 10
174.845764
 20
121.918299
 11
190.845764
 21
121.918199
  0
LINE
  8
1
 62
7
  6
CONTINUOUS
 10
174.845764
 20
151.918199
 11
190.845764
 21
151.918199
  0
LINE
  8
1
 62
7
  6
CONTINUOUS
 10
164.945764
 20
156.918199
 11
164.945764
 21
156.549191
  0
LINE
  8
1
 62
7
  6
CONTINUOUS
 10
190.845764
 20
159.099407
 11
202.254664
 21
159.099407
  0
LINE
  8
1
 62
7
  6
CONTINUOUS
 10
80.945661
 20
157.918199
 11
48.945660
 21
157.918199
  0
LINE
  8
1
 62
7
  6
CONTINUOUS
 10
85.945661
 20
120.918201
 11
85.945661
 21
152.918199
  0
LINE
  8
1
 62
7
  6
CONTINUOUS
 10
52.945661
 20
158.918199
 11
76.945661
 21
158.918199
  0
LINE
  8
1
 62
7
  6
CONTINUOUS
 10
162.945764
 20
147.918199
 11
164.945764
 21
147.918199
  0
LINE
  8
1
 62
7
  6
CONTINUOUS
 10
162.945664
 20
125.918199
 11
164.945764
 21
125.918199
  0
LINE
  8
1
 62
7
  6
CONTINUOUS
 10
162.945664
 20
125.918199
 11
162.945764
 21
147.918199
  0
LINE
  8
1
 62
7
  6
CONTINUOUS
 10
174.845764
 20
151.918199
 11
174.845764
 21
157.918199
  0
LINE
  8
1
 62
7
  6
CONTINUOUS
 10
190.845764
 20
151.918199
 11
190.845764
 21
157.918199
  0
LINE
  8
1
 62
7
  6
CONTINUOUS
 10
174.845764
 20
121.918299
 11
174.845664
 21
115.918199
  0
LINE
  8
1
 62
7
  6
CONTINUOUS
 10
203.845764
 20
156.918199
 11
203.845749
 21
116.918199
  0
LINE
  8
1
 62
7
  6
CONTINUOUS
 10
140.945776
 20
139.418199
 11
140.945753
 21
134.418199
  0
LINE
  8
1
 62
7
  6
CONTINUOUS
 10
138.445764
 20
136.918199
 11
205.845664
 21
136.918199
  0
LINE
  8
1
 62
7
  6
CONTINUOUS
 10
190.845764
 20
113.918199
 11
190.845764
 21
121.918199
  0
LINE
  8
1
 62
7
  6
CONTINUOUS
 10
190.845764
 20
113.918199
 11
202.845753
 21
113.918199
  0
LINE
  8
1
 62
7
  6
CONTINUOUS
 10
203.845753
 20
114.918201
 11
203.845749
 21
116.918199
  0
LINE
  8
1
 62
7
  6
CONTINUOUS
 10
190.845764
 20
113.918199
 11
190.845764
 21
112.368199
  0
LINE
  8
1
 62
7
  6
CONTINUOUS
 10
190.845764
 20
112.368199
 11
196.245764
 21
112.368199
  0
LINE
  8
1
 62
7
  6
CONTINUOUS
 10
196.245764
 20
112.368199
 11
196.245764
 21
113.918199
  0
LINE
  8
1
 62
7
  6
CONTINUOUS
 10
195.645764
 20
112.368199
 11
195.645764
 21
111.368199
  0
LINE
  8
1
 62
7
  6
CONTINUOUS
 10
195.645764
 20
111.368199
 11
190.845764
 21
111.368199
  0
LINE
  8
1
 62
7
  6
CONTINUOUS
 10
190.845764
 20
111.368199
 11
190.845764
 21
112.368199
  0
LINE
  8
1
 62
7
  6
CONTINUOUS
 10
52.295661
 20
114.218199
 11
52.295661
 21
115.918199
  0
LINE
  8
1
 62
7
  6
CONTINUOUS
 10
77.595661
 20
115.918199
 11
77.595661
 21
114.218199
  0
LINE
  8
1
 62
7
  6
CONTINUOUS
 10
77.895661
 20
113.918199
 11
77.939216
 21
113.918199
  0
LINE
  8
1
 62
7
  6
CONTINUOUS
 10
52.445661
 20
112.368199
 11
52.445661
 21
115.918199
  0
LINE
  8
1
 62
7
  6
CONTINUOUS
 10
77.445661
 20
112.368199
 11
77.445661
 21
115.918199
  0
LINE
  8
1
 62
7
  6
CONTINUOUS
 10
52.445661
 20
112.368199
 11
52.945661
 21
112.368199
  0
LINE
  8
1
 62
7
  6
CONTINUOUS
 10
52.945661
 20
112.368199
 11
52.945661
 21
115.918199
  0
LINE
  8
1
 62
7
  6
CONTINUOUS
 10
76.945661
 20
115.918199
 11
76.945661
 21
112.368199
  0
LINE
  8
1
 62
7
  6
CONTINUOUS
 10
76.945661
 20
112.368199
 11
77.445661
 21
112.368199
  0
LINE
  8
1
 62
7
  6
CONTINUOUS
 10
52.995661
 20
111.368199
 11
52.995661
 21
115.918199
  0
LINE
  8
1
 62
7
  6
CONTINUOUS
 10
76.895661
 20
111.368199
 11
76.895661
 21
115.918199
  0
LINE
  8
1
 62
7
  6
CONTINUOUS
 10
52.995661
 20
111.368199
 11
76.895661
 21
111.368199
  0
LINE
  8
1
 62
7
  6
CONTINUOUS
 10
55.995661
 20
115.918199
 11
55.995661
 21
111.368199
  0
LINE
  8
1
 62
7
  6
CONTINUOUS
 10
73.895661
 20
115.918199
 11
73.895661
 21
111.368199
  0
LINE
  8
1
 62
7
  6
CONTINUOUS
 10
53.545661
 20
115.918199
 11
53.545661
 21
113.268199
  0
LINE
  8
1
 62
7
  6
CONTINUOUS
 10
53.545661
 20
113.268199
 11
54.545661
 21
113.268199
  0
LINE
  8
1
 62
7
  6
CONTINUOUS
 10
54.545661
 20
113.268199
 11
54.545661
 21
115.918199
  0
LINE
  8
1
 62
7
  6
CONTINUOUS
 10
76.345661
 20
115.918199
 11
76.345661
 21
113.268199
  0
LINE
  8
1
 62
7
  6
CONTINUOUS
 10
76.345661
 20
113.268199
 11
75.345661
 21
113.268199
  0
LINE
  8
1
 62
7
  6
CONTINUOUS
 10
75.345661
 20
113.268199
 11
75.345661
 21
115.918199
  0
LINE
  8
1
 62
7
  6
HIDDEN
 10
74.245661
 20
109.418199
 11
74.245661
 21
96.902841
  0
LINE
  8
1
 62
7
  6
HIDDEN
 10
63.545661
 20
96.902841
 11
63.545661
 21
109.418199
  0
LINE
  8
1
 62
7
  6
HIDDEN
 10
59.545661
 20
96.902841
 11
59.545661
 21
109.418199
  0
LINE
  8
1
 62
7
  6
HIDDEN
 10
55.545661
 20
96.902841
 11
55.545661
 21
109.418199
  0
LINE
  8
1
 62
7
  6
HIDDEN
 10
52.995661
 20
109.418199
 11
52.995661
 21
110.018199
  0
LINE
  8
1
 62
7
  6
HIDDEN
 10
76.795661
 20
109.418199
 11
76.795661
 21
110.018199
  0
LINE
  8
1
 62
7
  6
HIDDEN
 10
76.145661
 20
111.368199
 11
76.795661
 21
110.018199
  0
LINE
  8
1
 62
7
  6
HIDDEN
 10
53.745661
 20
111.368199
 11
52.995661
 21
110.018199
  0
LINE
  8
1
 62
7
  6
HIDDEN
 10
54.245661
 20
109.418199
 11
54.245661
 21
96.902841
  0
LINE
  8
1
 62
7
  6
HIDDEN
 10
66.245661
 20
109.418199
 11
66.245661
 21
96.902841
  0
LINE
  8
1
 62
7
  6
HIDDEN
 10
67.545661
 20
109.418199
 11
67.545661
 21
96.902841
  0
LINE
  8
1
 62
7
  6
HIDDEN
 10
71.545661
 20
109.418199
 11
71.545661
 21
96.902841
  0
LINE
  8
1
 62
7
  6
HIDDEN
 10
75.545661
 20
109.418199
 11
75.545661
 21
96.902841
  0
LINE
  8
1
 62
7
  6
HIDDEN
 10
58.245661
 20
109.418199
 11
58.245661
 21
96.902841
  0
LINE
  8
1
 62
7
  6
HIDDEN
 10
62.245661
 20
109.418199
 11
62.245661
 21
96.902841
  0
LINE
  8
1
 62
7
  6
HIDDEN
 10
70.245661
 20
109.418199
 11
70.245661
 21
96.902841
  0
LINE
  8
1
 62
7
  6
HIDDEN
 10
76.795661
 20
109.418199
 11
52.995661
 21
109.418199
  0
LINE
  8
1
 62
7
  6
CONTINUOUS
 10
77.939216
 20
113.918199
 11
77.445661
 21
113.918199
  0
LINE
  8
1
 62
7
  6
CONTINUOUS
 10
52.445661
 20
113.918199
 11
51.952105
 21
113.918199
  0
LINE
  8
1
 62
7
  6
CONTINUOUS
 10
165.445143
 20
20.138592
 11
213.166287
 21
20.138592
  0
LINE
  8
1
 62
7
  6
CONTINUOUS
 10
218.656274
 20
34.738408
 11
218.656274
 21
35.978408
  0
LINE
  8
1
 62
7
  6
CONTINUOUS
 10
160.538209
 20
34.158408
 11
155.388209
 21
34.158408
  0
LINE
  8
1
 62
7
  6
CONTINUOUS
 10
155.388209
 20
34.158408
 11
155.388209
 21
56.558408
  0
LINE
  8
1
 62
7
  6
CONTINUOUS
 10
155.388209
 20
56.558408
 11
160.538209
 21
56.558408
  0
LINE
  8
1
 62
7
  6
CONTINUOUS
 10
160.538209
 20
56.558408
 11
161.738209
 21
57.308408
  0
LINE
  8
1
 62
7
  6
CONTINUOUS
 10
160.538209
 20
34.158408
 11
161.738209
 21
33.408408
  0
LINE
  8
1
 62
7
  6
CONTINUOUS
 10
161.738209
 20
33.408408
 11
161.738209
 21
57.308408
  0
LINE
  8
1
 62
7
  6
CONTINUOUS
 10
161.738209
 20
53.958408
 11
162.238209
 21
53.958408
  0
LINE
  8
1
 62
7
  6
CONTINUOUS
 10
162.238209
 20
53.958408
 11
162.238209
 21
54.758408
  0
LINE
  8
1
 62
7
  6
CONTINUOUS
 10
162.238209
 20
54.758408
 11
161.738209
 21
54.758408
  0
LINE
  8
1
 62
7
  6
CONTINUOUS
 10
161.738209
 20
51.958408
 11
162.238209
 21
51.958408
  0
LINE
  8
1
 62
7
  6
CONTINUOUS
 10
162.238209
 20
51.958408
 11
162.238209
 21
52.758408
  0
LINE
  8
1
 62
7
  6
CONTINUOUS
 10
162.238209
 20
52.758408
 11
161.738209
 21
52.758408
  0
LINE
  8
1
 62
7
  6
CONTINUOUS
 10
161.738209
 20
49.958408
 11
162.238209
 21
49.958408
  0
LINE
  8
1
 62
7
  6
CONTINUOUS
 10
162.238209
 20
49.958408
 11
162.238209
 21
50.758408
  0
LINE
  8
1
 62
7
  6
CONTINUOUS
 10
162.238209
 20
50.758408
 11
161.738209
 21
50.758408
  0
LINE
  8
1
 62
7
  6
CONTINUOUS
 10
161.738209
 20
47.958408
 11
162.238209
 21
47.958408
  0
LINE
  8
1
 62
7
  6
CONTINUOUS
 10
162.238209
 20
47.958408
 11
162.238209
 21
48.758408
  0
LINE
  8
1
 62
7
  6
CONTINUOUS
 10
162.238209
 20
48.758408
 11
161.738209
 21
48.758408
  0
LINE
  8
1
 62
7
  6
CONTINUOUS
 10
161.738209
 20
45.958408
 11
162.238209
 21
45.958408
  0
LINE
  8
1
 62
7
  6
CONTINUOUS
 10
162.238209
 20
45.958408
 11
162.238209
 21
46.758408
  0
LINE
  8
1
 62
7
  6
CONTINUOUS
 10
162.238209
 20
46.758408
 11
161.738209
 21
46.758408
  0
LINE
  8
1
 62
7
  6
CONTINUOUS
 10
161.738209
 20
43.958408
 11
162.238209
 21
43.958408
  0
LINE
  8
1
 62
7
  6
CONTINUOUS
 10
162.238209
 20
43.958408
 11
162.238209
 21
44.758408
  0
LINE
  8
1
 62
7
  6
CONTINUOUS
 10
162.238209
 20
44.758408
 11
161.738209
 21
44.758408
  0
LINE
  8
1
 62
7
  6
CONTINUOUS
 10
161.738209
 20
41.958408
 11
162.238209
 21
41.958408
  0
LINE
  8
1
 62
7
  6
CONTINUOUS
 10
162.238209
 20
41.958408
 11
162.238209
 21
42.758408
  0
LINE
  8
1
 62
7
  6
CONTINUOUS
 10
162.238209
 20
42.758408
 11
161.738209
 21
42.758408
  0
LINE
  8
1
 62
7
  6
CONTINUOUS
 10
161.738209
 20
39.958408
 11
162.238209
 21
39.958408
  0
LINE
  8
1
 62
7
  6
CONTINUOUS
 10
162.238209
 20
39.958408
 11
162.238209
 21
40.758408
  0
LINE
  8
1
 62
7
  6
CONTINUOUS
 10
162.238209
 20
40.758408
 11
161.738209
 21
40.758408
  0
LINE
  8
1
 62
7
  6
CONTINUOUS
 10
161.738209
 20
37.958408
 11
162.238209
 21
37.958408
  0
LINE
  8
1
 62
7
  6
CONTINUOUS
 10
162.238209
 20
37.958408
 11
162.238209
 21
38.758408
  0
LINE
  8
1
 62
7
  6
CONTINUOUS
 10
162.238209
 20
38.758408
 11
161.738209
 21
38.758408
  0
LINE
  8
1
 62
7
  6
CONTINUOUS
 10
161.738209
 20
35.958408
 11
162.238209
 21
35.958408
  0
LINE
  8
1
 62
7
  6
CONTINUOUS
 10
162.238209
 20
35.958408
 11
162.238209
 21
36.758408
  0
LINE
  8
1
 62
7
  6
CONTINUOUS
 10
162.238209
 20
36.758408
 11
161.738209
 21
36.758408
  0
LINE
  8
1
 62
7
  6
CONTINUOUS
 10
162.238209
 20
34.758408
 11
162.238209
 21
33.408408
  0
LINE
  8
1
 62
7
  6
CONTINUOUS
 10
162.238209
 20
33.408408
 11
161.738209
 21
33.408408
  0
LINE
  8
1
 62
7
  6
CONTINUOUS
 10
161.738209
 20
57.308408
 11
162.238209
 21
57.308408
  0
LINE
  8
1
 62
7
  6
CONTINUOUS
 10
162.238209
 20
57.308408
 11
162.238209
 21
55.958408
  0
LINE
  8
1
 62
7
  6
CONTINUOUS
 10
161.738209
 20
36.758408
 11
155.388209
 21
36.758408
  0
LINE
  8
1
 62
7
  6
CONTINUOUS
 10
155.388209
 20
37.758408
 11
161.038209
 21
37.758408
  0
LINE
  8
1
 62
7
  6
CONTINUOUS
 10
161.038209
 20
37.758408
 11
161.038209
 21
52.958408
  0
LINE
  8
1
 62
7
  6
CONTINUOUS
 10
161.038209
 20
52.958408
 11
155.388209
 21
52.958408
  0
LINE
  8
1
 62
7
  6
CONTINUOUS
 10
161.738209
 20
53.958408
 11
155.388209
 21
53.958408
  0
LINE
  8
1
 62
7
  6
CONTINUOUS
 10
159.538209
 20
37.758408
 11
159.538209
 21
52.958408
  0
LINE
  8
1
 62
7
  6
CONTINUOUS
 10
162.238209
 20
34.758408
 11
161.738209
 21
34.758408
  0
LINE
  8
1
 62
7
  6
CONTINUOUS
 10
162.238209
 20
55.958408
 11
161.738209
 21
55.958408
  0
LINE
  8
1
 62
7
  6
CONTINUOUS
 10
165.614700
 20
34.738408
 11
162.238209
 21
34.738408
  0
LINE
  8
1
 62
7
  6
CONTINUOUS
 10
165.614700
 20
35.978408
 11
162.238209
 21
35.978408
  0
LINE
  8
1
 62
7
  6
CONTINUOUS
 10
165.614700
 20
38.738408
 11
162.238209
 21
38.738408
  0
LINE
  8
1
 62
7
  6
CONTINUOUS
 10
165.614700
 20
39.978408
 11
162.238209
 21
39.978408
  0
LINE
  8
1
 62
7
  6
CONTINUOUS
 10
165.614700
 20
42.738408
 11
162.238209
 21
42.738408
  0
LINE
  8
1
 62
7
  6
CONTINUOUS
 10
165.614700
 20
43.978408
 11
162.238209
 21
43.978408
  0
LINE
  8
1
 62
7
  6
CONTINUOUS
 10
165.614700
 20
46.738408
 11
162.238209
 21
46.738408
  0
LINE
  8
1
 62
7
  6
CONTINUOUS
 10
165.614700
 20
47.978408
 11
162.238209
 21
47.978408
  0
LINE
  8
1
 62
7
  6
CONTINUOUS
 10
165.614700
 20
50.738408
 11
162.238209
 21
50.738408
  0
LINE
  8
1
 62
7
  6
CONTINUOUS
 10
165.614700
 20
51.978408
 11
162.238209
 21
51.978408
  0
LINE
  8
1
 62
7
  6
CONTINUOUS
 10
165.614700
 20
54.738408
 11
162.238209
 21
54.738408
  0
LINE
  8
1
 62
7
  6
CONTINUOUS
 10
165.614700
 20
55.978408
 11
162.238209
 21
55.978408
  0
LINE
  8
1
 62
7
  6
CONTINUOUS
 10
193.515209
 20
32.738408
 11
193.515209
 21
57.978408
  0
LINE
  8
1
 62
7
  6
CONTINUOUS
 10
192.515209
 20
32.738408
 11
192.515209
 21
57.978408
  0
LINE
  8
1
 62
7
  6
CONTINUOUS
 10
193.515209
 20
55.978408
 11
218.656274
 21
55.978408
  0
LINE
  8
1
 62
7
  6
CONTINUOUS
 10
193.515209
 20
54.738408
 11
218.656274
 21
54.738408
  0
LINE
  8
1
 62
7
  6
CONTINUOUS
 10
193.515209
 20
51.978408
 11
218.656274
 21
51.978408
  0
LINE
  8
1
 62
7
  6
CONTINUOUS
 10
193.515209
 20
50.738408
 11
218.656274
 21
50.738408
  0
LINE
  8
1
 62
7
  6
CONTINUOUS
 10
193.515209
 20
47.978408
 11
218.656274
 21
47.978408
  0
LINE
  8
1
 62
7
  6
CONTINUOUS
 10
193.515209
 20
46.738408
 11
218.656274
 21
46.738408
  0
LINE
  8
1
 62
7
  6
CONTINUOUS
 10
193.515209
 20
43.978408
 11
218.656274
 21
43.978408
  0
LINE
  8
1
 62
7
  6
CONTINUOUS
 10
193.515209
 20
42.738408
 11
218.656274
 21
42.738408
  0
LINE
  8
1
 62
7
  6
CONTINUOUS
 10
193.515209
 20
39.978408
 11
218.656274
 21
39.978408
  0
LINE
  8
1
 62
7
  6
CONTINUOUS
 10
193.515209
 20
38.738408
 11
218.656274
 21
38.738408
  0
LINE
  8
1
 62
7
  6
CONTINUOUS
 10
193.515209
 20
35.978408
 11
218.656274
 21
35.978408
  0
LINE
  8
1
 62
7
  6
CONTINUOUS
 10
193.515209
 20
34.738408
 11
218.656274
 21
34.738408
  0
LINE
  8
1
 62
7
  6
CONTINUOUS
 10
165.614700
 20
34.738408
 11
173.488463
 21
34.738408
  0
LINE
  8
1
 62
7
  6
CONTINUOUS
 10
173.488463
 20
35.978408
 11
165.614700
 21
35.978408
  0
LINE
  8
1
 62
7
  6
CONTINUOUS
 10
173.488463
 20
38.738408
 11
165.614700
 21
38.738408
  0
LINE
  8
1
 62
7
  6
CONTINUOUS
 10
173.488463
 20
39.978408
 11
165.614700
 21
39.978408
  0
LINE
  8
1
 62
7
  6
CONTINUOUS
 10
173.488463
 20
42.738408
 11
165.614700
 21
42.738408
  0
LINE
  8
1
 62
7
  6
CONTINUOUS
 10
173.488463
 20
43.978408
 11
165.614700
 21
43.978408
  0
LINE
  8
1
 62
7
  6
CONTINUOUS
 10
173.488463
 20
46.738408
 11
165.614700
 21
46.738408
  0
LINE
  8
1
 62
7
  6
CONTINUOUS
 10
173.488463
 20
47.978408
 11
165.614700
 21
47.978408
  0
LINE
  8
1
 62
7
  6
CONTINUOUS
 10
173.488463
 20
50.738408
 11
165.614700
 21
50.738408
  0
LINE
  8
1
 62
7
  6
CONTINUOUS
 10
173.488463
 20
51.978408
 11
165.614700
 21
51.978408
  0
LINE
  8
1
 62
7
  6
CONTINUOUS
 10
173.488463
 20
54.738408
 11
165.614700
 21
54.738408
  0
LINE
  8
1
 62
7
  6
CONTINUOUS
 10
173.488463
 20
55.978408
 11
165.614700
 21
55.978408
  0
LINE
  8
1
 62
7
  6
CONTINUOUS
 10
192.515209
 20
34.738408
 11
173.488463
 21
34.738408
  0
LINE
  8
1
 62
7
  6
CONTINUOUS
 10
192.515209
 20
35.978408
 11
173.488463
 21
35.978408
  0
LINE
  8
1
 62
7
  6
CONTINUOUS
 10
192.515209
 20
38.738408
 11
173.488463
 21
38.738408
  0
LINE
  8
1
 62
7
  6
CONTINUOUS
 10
192.515209
 20
39.978408
 11
173.488463
 21
39.978408
  0
LINE
  8
1
 62
7
  6
CONTINUOUS
 10
192.515209
 20
42.738408
 11
173.488463
 21
42.738408
  0
LINE
  8
1
 62
7
  6
CONTINUOUS
 10
192.515209
 20
43.978408
 11
173.488463
 21
43.978408
  0
LINE
  8
1
 62
7
  6
CONTINUOUS
 10
192.515209
 20
46.738408
 11
173.488463
 21
46.738408
  0
LINE
  8
1
 62
7
  6
CONTINUOUS
 10
192.515209
 20
47.978408
 11
173.488463
 21
47.978408
  0
LINE
  8
1
 62
7
  6
CONTINUOUS
 10
192.515209
 20
50.738408
 11
173.488463
 21
50.738408
  0
LINE
  8
1
 62
7
  6
CONTINUOUS
 10
192.515209
 20
51.978408
 11
173.488463
 21
51.978408
  0
LINE
  8
1
 62
7
  6
CONTINUOUS
 10
192.515209
 20
54.738408
 11
173.488463
 21
54.738408
  0
LINE
  8
1
 62
7
  6
CONTINUOUS
 10
192.515209
 20
55.978408
 11
173.488463
 21
55.978408
  0
LINE
  8
1
 62
7
  6
CONTINUOUS
 10
218.656274
 20
54.738408
 11
218.656274
 21
55.978408
  0
LINE
  8
1
 62
7
  6
CONTINUOUS
 10
218.656274
 20
50.738408
 11
218.656274
 21
51.978408
  0
LINE
  8
1
 62
7
  6
CONTINUOUS
 10
218.656274
 20
46.738408
 11
218.656274
 21
47.978408
  0
LINE
  8
1
 62
7
  6
CONTINUOUS
 10
218.656274
 20
42.738408
 11
218.656274
 21
43.978408
  0
LINE
  8
1
 62
7
  6
CONTINUOUS
 10
218.656274
 20
38.738408
 11
218.656274
 21
39.978408
  0
LINE
  8
1
 62
7
  6
CONTINUOUS
 10
218.656274
 20
55.658408
 11
222.156274
 21
55.658408
  0
LINE
  8
1
 62
7
  6
CONTINUOUS
 10
218.656274
 20
51.658408
 11
222.156274
 21
51.658408
  0
LINE
  8
1
 62
7
  6
CONTINUOUS
 10
218.656274
 20
47.658408
 11
222.156274
 21
47.658408
  0
LINE
  8
1
 62
7
  6
CONTINUOUS
 10
218.656274
 20
43.658408
 11
222.156274
 21
43.658408
  0
LINE
  8
1
 62
7
  6
CONTINUOUS
 10
218.656274
 20
39.658408
 11
222.156274
 21
39.658408
  0
LINE
  8
1
 62
7
  6
CONTINUOUS
 10
218.656274
 20
35.658408
 11
222.156274
 21
35.658408
  0
LINE
  8
1
 62
7
  6
CONTINUOUS
 10
218.656274
 20
55.358408
 11
222.156274
 21
55.358408
  0
LINE
  8
1
 62
7
  6
CONTINUOUS
 10
218.656274
 20
55.058408
 11
222.156274
 21
55.058408
  0
LINE
  8
1
 62
7
  6
CONTINUOUS
 10
218.656274
 20
51.358408
 11
222.156274
 21
51.358408
  0
LINE
  8
1
 62
7
  6
CONTINUOUS
 10
218.656274
 20
51.058408
 11
222.156274
 21
51.058408
  0
LINE
  8
1
 62
7
  6
CONTINUOUS
 10
218.656274
 20
47.358408
 11
222.156274
 21
47.358408
  0
LINE
  8
1
 62
7
  6
CONTINUOUS
 10
218.656274
 20
47.058408
 11
222.156274
 21
47.058408
  0
LINE
  8
1
 62
7
  6
CONTINUOUS
 10
218.656274
 20
43.358408
 11
222.156274
 21
43.358408
  0
LINE
  8
1
 62
7
  6
CONTINUOUS
 10
218.656274
 20
43.058408
 11
222.156274
 21
43.058408
  0
LINE
  8
1
 62
7
  6
CONTINUOUS
 10
218.656274
 20
39.358408
 11
222.156274
 21
39.358408
  0
LINE
  8
1
 62
7
  6
CONTINUOUS
 10
218.656274
 20
39.058408
 11
222.156274
 21
39.058408
  0
LINE
  8
1
 62
7
  6
CONTINUOUS
 10
218.656274
 20
35.358408
 11
222.156274
 21
35.358408
  0
LINE
  8
1
 62
7
  6
CONTINUOUS
 10
218.656274
 20
35.058408
 11
222.156274
 21
35.058408
  0
ARC
  8
1
 62
7
  6
CONTINUOUS
 10
202.845764
 20
156.918199
 40
1.000000
 50
0.000000
 51
90.000000
  0
ARC
  8
1
 62
7
  6
CONTINUOUS
 10
48.571562
 20
113.079964
 40
2.851440
 50
27.104547
 51
84.483857
  0
ARC
  8
1
 62
7
  6
CONTINUOUS
 10
81.319759
 20
113.079964
 40
2.851440
 50
95.516143
 51
152.895453
  0
CIRCLE
  8
1
 62
7
  6
CONTINUOUS
 10
64.945661
 20
136.918199
 40
12.750000
  0
CIRCLE
  8
1
 62
7
  6
CONTINUOUS
 10
64.945661
 20
136.918199
 40
15.000000
  0
CIRCLE
  8
1
 62
7
  6
CONTINUOUS
 10
64.945661
 20
136.918199
 40
11.000000
  0
CIRCLE
  8
1
 62
7
  6
CONTINUOUS
 10
64.945661
 20
136.918199
 40
7.500000
  0
CIRCLE
  8
1
 62
7
  6
CONTINUOUS
 10
64.945661
 20
136.918199
 40
2.500000
  0
CIRCLE
  8
1
 62
7
  6
CONTINUOUS
 10
64.945661
 20
136.918199
 40
4.500000
  0
CIRCLE
  8
4
 62
54
  6
CONTINUOUS
 10
49.445661
 20
152.418199
 40
1.000010
  0
CIRCLE
  8
4
 62
54
  6
CONTINUOUS
 10
80.445661
 20
152.418199
 40
1.000000
  0
CIRCLE
  8
4
 62
54
  6
CONTINUOUS
 10
49.445651
 20
121.418199
 40
1.000010
  0
CIRCLE
  8
4
 62
54
  6
CONTINUOUS
 10
80.445661
 20
121.418199
 40
1.000000
  0
CIRCLE
  8
1
 62
7
  6
CONTINUOUS
 10
80.445661
 20
152.418199
 40
1.500000
  0
CIRCLE
  8
1
 62
7
  6
CONTINUOUS
 10
49.445661
 20
152.418199
 40
1.500000
  0
CIRCLE
  8
1
 62
7
  6
CONTINUOUS
 10
49.445651
 20
121.418199
 40
1.500000
  0
CIRCLE
  8
1
 62
7
  6
CONTINUOUS
 10
80.445661
 20
121.418199
 40
1.500000
  0
ARC
  8
1
 62
7
  6
CONTINUOUS
 10
80.945661
 20
152.918199
 40
5.000000
 50
0.000000
 51
90.000000
  0
ARC
  8
1
 62
7
  6
CONTINUOUS
 10
48.945660
 20
152.918199
 40
5.000000
 50
90.000000
 51
179.999986
  0
ARC
  8
1
 62
7
  6
CONTINUOUS
 10
48.945653
 20
120.918210
 40
5.000000
 50
179.999986
 51
-90.000017
  0
ARC
  8
1
 62
7
  6
CONTINUOUS
 10
80.945661
 20
120.918201
 40
5.000000
 50
-90.000017
 51
-0.000000
  0
ARC
  8
1
 62
7
  6
CONTINUOUS
 10
165.945764
 20
116.918200
 40
1.000000
 50
180.000000
 51
-89.999977
  0
ARC
  8
1
 62
7
  6
CONTINUOUS
 10
165.945764
 20
156.918199
 40
1.000000
 50
90.000000
 51
180.000000
  0
ARC
  8
1
 62
7
  6
CONTINUOUS
 10
202.845753
 20
114.918199
 40
1.000000
 50
-90.000000
 51
0.000100
  0
ARC
  8
1
 62
7
  6
CONTINUOUS
 10
51.995661
 20
114.218199
 40
0.300000
 50
-90.000000
 51
0.000000
  0
ARC
  8
1
 62
7
  6
CONTINUOUS
 10
77.895661
 20
114.218199
 40
0.300000
 50
180.000000
 51
-90.000000
  0
ARC
  8
1
 62
7
  6
CONTINUOUS
 10
51.952105
 20
114.918199
 40
1.000000
 50
-147.379310
 51
-90.000000
  0
ARC
  8
1
 62
7
  6
CONTINUOUS
 10
77.939216
 20
114.918199
 40
1.000000
 50
-90.000000
 51
-32.620690
  0
LINE
  8
1
 62
7
  6
CONTINUOUS
 10
102.405881
 20
16.542742
 11
145.569745
 21
16.542742
  0
LINE
  8
1
 62
7
  6
CONTINUOUS
 10
145.569745
 20
16.542742
 11
157.260535
 21
34.158408
  0
LINE
  8
1
 62
7
  6
CONTINUOUS
 10
155.842070
 20
31.259194
 11
155.140031
 21
31.725108
  0
LINE
  8
1
 62
7
  6
CONTINUOUS
 10
155.140031
 20
31.725108
 11
157.260535
 21
34.158408
  0
LINE
  8
1
 62
7
  6
CONTINUOUS
 10
157.260535
 20
34.158408
 11
155.842070
 21
31.259194
  0
LINE
  8
1
 62
7
  6
CONTINUOUS
 10
157.752471
 20
68.225677
 11
178.930399
 21
55.978408
  0
LINE
  8
1
 62
7
  6
CONTINUOUS
 10
175.949357
 20
57.215692
 11
176.371167
 21
57.945083
  0
LINE
  8
1
 62
7
  6
CONTINUOUS
 10
176.371167
 20
57.945083
 11
178.930399
 21
55.978408
  0
LINE
  8
1
 62
7
  6
CONTINUOUS
 10
178.930399
 20
55.978408
 11
175.949357
 21
57.215692
  0
LINE
  8
1
 62
7
  6
CONTINUOUS
 10
126.833102
 20
89.456045
 11
89.676375
 21
89.456045
  0
LINE
  8
1
 62
7
  6
CONTINUOUS
 10
89.676375
 20
89.456045
 11
81.440061
 21
120.295182
  0
LINE
  8
1
 62
7
  6
CONTINUOUS
 10
82.672778
 20
117.312248
 11
81.858734
 21
117.094838
  0
LINE
  8
1
 62
7
  6
CONTINUOUS
 10
81.858734
 20
117.094838
 11
81.440061
 21
120.295182
  0
LINE
  8
1
 62
7
  6
CONTINUOUS
 10
81.440061
 20
120.295182
 11
82.672778
 21
117.312248
  0
LINE
  8
1
 62
7
  6
CONTINUOUS
 10
234.284332
 20
187.918199
 11
207.630016
 21
187.918199
  0
LINE
  8
1
 62
7
  6
CONTINUOUS
 10
207.630016
 20
187.918199
 11
202.254664
 21
159.099407
  0
LINE
  8
1
 62
7
  6
CONTINUOUS
 10
202.427271
 20
162.322401
 11
203.255562
 21
162.167907
  0
LINE
  8
1
 62
7
  6
CONTINUOUS
 10
203.255562
 20
162.167907
 11
202.254664
 21
159.099407
  0
LINE
  8
1
 62
7
  6
CONTINUOUS
 10
202.254664
 20
159.099407
 11
202.427271
 21
162.322401
  0
LINE
  8
1
 62
7
  6
CONTINUOUS
 10
47.264962
 20
87.203168
 11
58.182393
 21
87.203168
  0
LINE
  8
1
 62
7
  6
CONTINUOUS
 10
54.982393
 20
86.781880
 11
54.982393
 21
87.624456
  0
LINE
  8
1
 62
7
  6
CONTINUOUS
 10
54.982393
 20
87.624456
 11
58.182393
 21
87.203168
  0
LINE
  8
1
 62
7
  6
CONTINUOUS
 10
58.182393
 20
87.203168
 11
54.982393
 21
86.781880
  0
TEXT
  8
1
 62
7
  6
CONTINUOUS
 10
127.353661
 20
17.447155
 40
1.600000
 41
0.900000
  1
(JST)
  7
KANJI
 50
0.000000
 51
0.000000
  0
TEXT
  8
1
 62
7
  6
CONTINUOUS
 10
99.616527
 20
69.130090
 40
1.600000
 41
0.720000
  1
LEAD WIRE
  7
KANJI
 50
0.000000
 51
0.000000
  0
TEXT
  8
1
 62
7
  6
CONTINUOUS
 10
98.816527
 20
71.530090
 40
2.400000
 41
1.215000
  1
âèü|âhÉ³Ädùl
  7
KANJI
 50
0.000000
 51
0.000000
  0
TEXT
  8
1
 62
7
  6
CONTINUOUS
 10
125.016527
 20
71.530090
 40
2.400000
 41
0.900000
  1
UL3266 AWG26
  7
KANJI
 50
0.000000
 51
0.000000
  0
TEXT
  8
1
 62
7
  6
CONTINUOUS
 10
104.073606
 20
19.847155
 40
2.400000
 41
1.215000
  1
ânâEâWâôâO
  7
KANJI
 50
0.000000
 51
0.000000
  0
TEXT
  8
1
 62
7
  6
CONTINUOUS
 10
104.873606
 20
17.447155
 40
1.600000
 41
0.720000
  1
HOUSING
  7
KANJI
 50
0.000000
 51
0.000000
  0
TEXT
  8
1
 62
7
  6
CONTINUOUS
 10
127.273606
 20
19.847155
 40
2.400000
 41
0.900000
  1
PHR-11
  7
KANJI
 50
0.000000
 51
0.000000
  0
TEXT
  8
1
 62
7
  6
CONTINUOUS
 10
28.812967
 20
79.922811
 40
3.200000
 41
0.675000
  1
PIN NO.
  7
KANJI
 50
0.000000
 51
0.000000
  0
TEXT
  8
1
 62
7
  6
CONTINUOUS
 10
92.081509
 20
84.614173
 40
3.500000
 41
0.540000
  1
É[é▀(DEPTH) 4.5MIN.
  7
KANJI
 50
0.000975
 51
0.000000
  0
TEXT
  8
1
 62
7
  6
CONTINUOUS
 10
94.198558
 20
91.381888
 40
3.500000
 41
0.810000
  1
4-M3ü~0.5
  7
KANJI
 50
0.000000
 51
0.000000
  0
TEXT
  8
1
 62
7
  6
CONTINUOUS
 10
206.321936
 20
188.918199
 40
5.000000
 41
0.720000
  1
âlü|âÇâvâîü|âg
  7
KANJI
 50
0.000000
 51
0.000000
  0
TEXT
  8
1
 62
7
  6
CONTINUOUS
 10
208.662482
 20
183.166518
 40
3.000000
 41
0.720000
  1
(NAME PLATE)
  7
KANJI
 50
0.000000
 51
0.000000
  0
TEXT
  8
1
 62
7
  6
CONTINUOUS
 10
165.868704
 20
21.138592
 40
4.000000
 41
0.900000
  1
òtæ«òiüFâRâlâNâ^ü[âèü[âh
  7
KANJI
 50
0.000000
 51
0.000000
  0
TEXT
  8
1
 62
7
  6
CONTINUOUS
 10
165.868704
 20
15.094130
 40
3.000000
 41
0.540000
  1
ATTACHMENT:CONNECTOR LEAD
  7
KANJI
 50
0.000000
 51
0.000000
  0
TEXT
  8
1
 62
7
  6
CONTINUOUS
 10
42.039751
 20
90.997293
 40
2.600000
 41
0.828000
  1
ü@ü@ü@ü@ü@1 3 5 7 9 11
  7
KANJI
 50
0.000000
 51
0.000000
  0
TEXT
  8
1
 62
7
  6
CONTINUOUS
 10
28.812967
 20
84.896668
 40
4.000000
 41
0.900000
  1
âsâôöÈìå
  7
KANJI
 50
0.000000
 51
0.000000
  0
LINE
  8
1
 62
7
  6
CONTINUOUS
 10
100.945661
 20
121.418199
 11
100.945661
 21
152.418199
  0
LINE
  8
1
 62
7
  6
CONTINUOUS
 10
83.945661
 20
152.418199
 11
101.945661
 21
152.418199
  0
LINE
  8
1
 62
7
  6
CONTINUOUS
 10
83.945661
 20
121.418199
 11
101.945661
 21
121.418199
  0
LINE
  8
1
 62
7
  6
CONTINUOUS
 10
100.945661
 20
152.418199
 11
101.361661
 21
149.218199
  0
LINE
  8
1
 62
7
  6
CONTINUOUS
 10
101.361661
 20
149.218199
 11
100.529661
 21
149.218199
  0
LINE
  8
1
 62
7
  6
CONTINUOUS
 10
100.529661
 20
149.218199
 11
100.945661
 21
152.418199
  0
LINE
  8
1
 62
7
  6
CONTINUOUS
 10
100.945661
 20
121.418199
 11
100.529661
 21
124.618199
  0
LINE
  8
1
 62
7
  6
CONTINUOUS
 10
100.529661
 20
124.618199
 11
101.361661
 21
124.618199
  0
LINE
  8
1
 62
7
  6
CONTINUOUS
 10
101.361661
 20
124.618199
 11
100.945661
 21
121.418199
  0
TEXT
  8
1
 62
7
  6
CONTINUOUS
 10
98.945661
 20
131.170476
 40
3.200000
 41
0.900000
  1
31
  7
KANJI
 50
90.000000
 51
0.000000
  0
TEXT
  8
1
 62
7
  6
CONTINUOUS
 10
98.305661
 20
136.610476
 40
1.920000
 41
0.900000
  1
ü}0.2
  7
KANJI
 50
90.000000
 51
0.000000
  0
LINE
  8
1
 62
7
  6
CONTINUOUS
 10
130.945868
 20
139.418199
 11
130.945868
 21
166.918584
  0
LINE
  8
1
 62
7
  6
CONTINUOUS
 10
130.945868
 20
134.418199
 11
130.945868
 21
139.418199
  0
LINE
  8
1
 62
7
  6
CONTINUOUS
 10
130.945868
 20
128.018199
 11
130.945868
 21
134.418199
  0
LINE
  8
1
 62
7
  6
CONTINUOUS
 10
139.945776
 20
139.418199
 11
129.945868
 21
139.418199
  0
LINE
  8
1
 62
7
  6
CONTINUOUS
 10
139.945753
 20
134.418199
 11
129.945868
 21
134.418199
  0
LINE
  8
1
 62
7
  6
CONTINUOUS
 10
130.945868
 20
139.418199
 11
130.529868
 21
142.618199
  0
LINE
  8
1
 62
7
  6
CONTINUOUS
 10
130.529868
 20
142.618199
 11
131.361868
 21
142.618199
  0
LINE
  8
1
 62
7
  6
CONTINUOUS
 10
131.361868
 20
142.618199
 11
130.945868
 21
139.418199
  0
LINE
  8
1
 62
7
  6
CONTINUOUS
 10
130.945868
 20
134.418199
 11
131.361868
 21
131.218199
  0
LINE
  8
1
 62
7
  6
CONTINUOUS
 10
131.361868
 20
131.218199
 11
130.529868
 21
131.218199
  0
LINE
  8
1
 62
7
  6
CONTINUOUS
 10
130.529868
 20
131.218199
 11
130.945868
 21
134.418199
  0
TEXT
  8
1
 62
7
  6
CONTINUOUS
 10
128.145868
 20
156.054584
 40
3.200000
 41
0.900000
  1
5
  7
KANJI
 50
90.000000
 51
0.000000
  0
TEXT
  8
1
 62
7
  6
CONTINUOUS
 10
126.065868
 20
159.574584
 40
1.920000
 41
0.900000
  1
 0
  7
KANJI
 50
90.000000
 51
0.000000
  0
TEXT
  8
1
 62
7
  6
CONTINUOUS
 10
128.945868
 20
159.574584
 40
1.920000
 41
0.900000
  1
-0.011
  7
KANJI
 50
90.000000
 51
0.000000
  0
TEXT
  8
1
 62
7
  6
CONTINUOUS
 10
128.145868
 20
152.410140
 40
3.200000
 41
0.900000
  1
âË
  7
KANJI
 50
90.000000
 51
0.000000
  0
LINE
  8
128
 62
7
  6
CONTINUOUS
 10
49.445671
 20
172.918199
 11
80.445661
 21
172.918199
  0
LINE
  8
128
 62
7
  6
CONTINUOUS
 10
80.445661
 20
154.918199
 11
80.445661
 21
173.918199
  0
LINE
  8
128
 62
7
  6
CONTINUOUS
 10
49.445671
 20
154.918199
 11
49.445671
 21
173.918199
  0
LINE
  8
128
 62
7
  6
CONTINUOUS
 10
49.445671
 20
172.918199
 11
52.645671
 21
173.334199
  0
LINE
  8
128
 62
7
  6
CONTINUOUS
 10
52.645671
 20
173.334199
 11
52.645671
 21
172.502199
  0
LINE
  8
128
 62
7
  6
CONTINUOUS
 10
52.645671
 20
172.502199
 11
49.445671
 21
172.918199
  0
LINE
  8
128
 62
7
  6
CONTINUOUS
 10
80.445661
 20
172.918199
 11
77.245661
 21
172.502199
  0
LINE
  8
128
 62
7
  6
CONTINUOUS
 10
77.245661
 20
172.502199
 11
77.245661
 21
173.334199
  0
LINE
  8
128
 62
7
  6
CONTINUOUS
 10
77.245661
 20
173.334199
 11
80.445661
 21
172.918199
  0
TEXT
  8
128
 62
7
  6
CONTINUOUS
 10
59.321661
 20
174.518199
 40
3.200000
 41
0.900000
  1
31
  7
KANJI
 50
0.000000
 51
0.000000
  0
TEXT
  8
128
 62
7
  6
CONTINUOUS
 10
64.761661
 20
175.158199
 40
1.920000
 41
0.900000
  1
ü}0.2
  7
KANJI
 50
0.000000
 51
0.000000
  0
LINE
  8
128
 62
7
  6
CONTINUOUS
 10
43.945660
 20
182.918199
 11
85.945661
 21
182.918199
  0
LINE
  8
128
 62
7
  6
CONTINUOUS
 10
43.945660
 20
153.918201
 11
43.945660
 21
183.918199
  0
LINE
  8
128
 62
7
  6
CONTINUOUS
 10
85.945661
 20
153.918199
 11
85.945661
 21
183.918199
  0
LINE
  8
128
 62
7
  6
CONTINUOUS
 10
43.945660
 20
182.918199
 11
47.145660
 21
183.334199
  0
LINE
  8
128
 62
7
  6
CONTINUOUS
 10
47.145660
 20
183.334199
 11
47.145660
 21
182.502199
  0
LINE
  8
128
 62
7
  6
CONTINUOUS
 10
47.145660
 20
182.502199
 11
43.945660
 21
182.918199
  0
LINE
  8
128
 62
7
  6
CONTINUOUS
 10
85.945661
 20
182.918199
 11
82.745661
 21
182.502199
  0
LINE
  8
128
 62
7
  6
CONTINUOUS
 10
82.745661
 20
182.502199
 11
82.745661
 21
183.334199
  0
LINE
  8
128
 62
7
  6
CONTINUOUS
 10
82.745661
 20
183.334199
 11
85.945661
 21
182.918199
  0
TEXT
  8
128
 62
7
  6
CONTINUOUS
 10
62.545661
 20
184.518199
 40
3.200000
 41
0.900000
  1
42
  7
KANJI
 50
0.000000
 51
0.000000
  0
TEXT
  8
128
 62
7
  6
CONTINUOUS
 10
60.465661
 20
184.518199
 40
3.200000
 41
0.900000
  1
(
  7
KANJI
 50
0.000000
 51
0.000000
  0
TEXT
  8
128
 62
7
  6
CONTINUOUS
 10
68.945661
 20
184.518199
 40
3.200000
 41
0.900000
  1
)
  7
KANJI
 50
0.000000
 51
0.000000
  0
LINE
  8
128
 62
7
  6
CONTINUOUS
 10
120.945766
 20
125.918199
 11
120.945766
 21
147.918199
  0
LINE
  8
128
 62
7
  6
CONTINUOUS
 10
161.945764
 20
147.918199
 11
119.945766
 21
147.918199
  0
LINE
  8
128
 62
7
  6
CONTINUOUS
 10
161.945664
 20
125.918199
 11
119.945766
 21
125.918199
  0
LINE
  8
128
 62
7
  6
CONTINUOUS
 10
120.945766
 20
147.918199
 11
121.361766
 21
144.718199
  0
LINE
  8
128
 62
7
  6
CONTINUOUS
 10
121.361766
 20
144.718199
 11
120.529766
 21
144.718199
  0
LINE
  8
128
 62
7
  6
CONTINUOUS
 10
120.529766
 20
144.718199
 11
120.945766
 21
147.918199
  0
LINE
  8
128
 62
7
  6
CONTINUOUS
 10
120.945766
 20
125.918199
 11
120.529766
 21
129.118199
  0
LINE
  8
128
 62
7
  6
CONTINUOUS
 10
120.529766
 20
129.118199
 11
121.361766
 21
129.118199
  0
LINE
  8
128
 62
7
  6
CONTINUOUS
 10
121.361766
 20
129.118199
 11
120.945766
 21
125.918199
  0
TEXT
  8
128
 62
7
  6
CONTINUOUS
 10
118.545766
 20
132.585243
 40
3.200000
 41
0.900000
  1
22
  7
KANJI
 50
90.000000
 51
0.000000
  0
TEXT
  8
128
 62
7
  6
CONTINUOUS
 10
116.465766
 20
140.521243
 40
1.920000
 41
0.900000
  1
0
  7
KANJI
 50
90.000000
 51
0.000000
  0
TEXT
  8
128
 62
7
  6
CONTINUOUS
 10
119.345766
 20
138.985243
 40
1.920000
 41
0.900000
  1
-0.05
  7
KANJI
 50
90.000000
 51
0.000000
  0
TEXT
  8
128
 62
7
  6
CONTINUOUS
 10
118.545766
 20
128.745243
 40
3.200000
 41
0.900000
  1
âË
  7
KANJI
 50
90.000000
 51
0.000000
  0
LINE
  8
128
 62
7
  6
CONTINUOUS
 10
171.345764
 20
177.918199
 11
164.945764
 21
177.918199
  0
LINE
  8
128
 62
7
  6
CONTINUOUS
 10
162.945764
 20
177.918199
 11
164.945764
 21
177.918199
  0
LINE
  8
128
 62
7
  6
CONTINUOUS
 10
162.945764
 20
177.918199
 11
153.114965
 21
177.918199
  0
LINE
  8
128
 62
7
  6
CONTINUOUS
 10
162.945764
 20
148.918199
 11
162.945764
 21
178.918199
  0
LINE
  8
128
 62
7
  6
CONTINUOUS
 10
164.945764
 20
157.549191
 11
164.945764
 21
178.918199
  0
LINE
  8
128
 62
7
  6
CONTINUOUS
 10
162.945764
 20
177.918199
 11
159.745764
 21
177.502199
  0
LINE
  8
128
 62
7
  6
CONTINUOUS
 10
159.745764
 20
177.502199
 11
159.745764
 21
178.334199
  0
LINE
  8
128
 62
7
  6
CONTINUOUS
 10
159.745764
 20
178.334199
 11
162.945764
 21
177.918199
  0
LINE
  8
128
 62
7
  6
CONTINUOUS
 10
164.945764
 20
177.918199
 11
168.145764
 21
178.334199
  0
LINE
  8
128
 62
7
  6
CONTINUOUS
 10
168.145764
 20
178.334199
 11
168.145764
 21
177.502199
  0
LINE
  8
128
 62
7
  6
CONTINUOUS
 10
168.145764
 20
177.502199
 11
164.945764
 21
177.918199
  0
TEXT
  8
128
 62
7
  6
CONTINUOUS
 10
153.114965
 20
179.518199
 40
3.200000
 41
0.900000
  1
2
  7
KANJI
 50
0.000000
 51
0.000000
  0
TEXT
  8
128
 62
7
  6
CONTINUOUS
 10
156.634965
 20
180.158199
 40
1.920000
 41
0.900000
  1
ü}0.2
  7
KANJI
 50
0.000000
 51
0.000000
  0
LINE
  8
128
 62
7
  6
CONTINUOUS
 10
164.945764
 20
187.918199
 11
203.845764
 21
187.918199
  0
LINE
  8
128
 62
7
  6
CONTINUOUS
 10
203.845764
 20
157.918199
 11
203.845764
 21
188.918199
  0
LINE
  8
128
 62
7
  6
CONTINUOUS
 10
164.945764
 20
157.549191
 11
164.945764
 21
188.918199
  0
LINE
  8
128
 62
7
  6
CONTINUOUS
 10
164.945764
 20
187.918199
 11
168.145764
 21
188.334199
  0
LINE
  8
128
 62
7
  6
CONTINUOUS
 10
168.145764
 20
188.334199
 11
168.145764
 21
187.502199
  0
LINE
  8
128
 62
7
  6
CONTINUOUS
 10
168.145764
 20
187.502199
 11
164.945764
 21
187.918199
  0
LINE
  8
128
 62
7
  6
CONTINUOUS
 10
203.845764
 20
187.918199
 11
200.645764
 21
187.502199
  0
LINE
  8
128
 62
7
  6
CONTINUOUS
 10
200.645764
 20
187.502199
 11
200.645764
 21
188.334199
  0
LINE
  8
128
 62
7
  6
CONTINUOUS
 10
200.645764
 20
188.334199
 11
203.845764
 21
187.918199
  0
TEXT
  8
128
 62
7
  6
CONTINUOUS
 10
175.441493
 20
189.518199
 40
3.200000
 41
0.900000
  1
40
  7
KANJI
 50
0.000000
 51
0.000000
  0
TEXT
  8
128
 62
7
  6
CONTINUOUS
 10
181.841493
 20
189.518199
 40
3.200000
 41
0.900000
  1
MAX.
  7
KANJI
 50
0.000000
 51
0.000000
  0
LINE
  8
1
 62
7
  6
CONTINUOUS
 10
140.945776
 20
187.918199
 11
164.945764
 21
187.918199
  0
LINE
  8
1
 62
7
  6
CONTINUOUS
 10
164.945764
 20
157.918199
 11
164.945764
 21
188.918199
  0
LINE
  8
1
 62
7
  6
CONTINUOUS
 10
140.945776
 20
140.418199
 11
140.945776
 21
188.918199
  0
LINE
  8
1
 62
7
  6
CONTINUOUS
 10
140.945776
 20
187.918199
 11
144.145776
 21
188.334199
  0
LINE
  8
1
 62
7
  6
CONTINUOUS
 10
144.145776
 20
188.334199
 11
144.145776
 21
187.502199
  0
LINE
  8
1
 62
7
  6
CONTINUOUS
 10
144.145776
 20
187.502199
 11
140.945776
 21
187.918199
  0
LINE
  8
1
 62
7
  6
CONTINUOUS
 10
164.945764
 20
187.918199
 11
161.745764
 21
187.502199
  0
LINE
  8
1
 62
7
  6
CONTINUOUS
 10
161.745764
 20
187.502199
 11
161.745764
 21
188.334199
  0
LINE
  8
1
 62
7
  6
CONTINUOUS
 10
161.745764
 20
188.334199
 11
164.945764
 21
187.918199
  0
TEXT
  8
1
 62
7
  6
CONTINUOUS
 10
148.572270
 20
189.918199
 40
3.200000
 41
0.900000
  1
24
  7
KANJI
 50
0.000000
 51
0.000000
  0
TEXT
  8
1
 62
7
  6
CONTINUOUS
 10
154.972270
 20
190.558199
 40
1.920000
 41
0.900000
  1
ü}0.5
  7
KANJI
 50
0.000000
 51
0.000000
  0
LINE
  8
1
 62
7
  6
CONTINUOUS
 10
110.945661
 20
115.918201
 11
110.945661
 21
157.918199
  0
LINE
  8
1
 62
7
  6
CONTINUOUS
 10
81.945661
 20
157.918199
 11
112.445661
 21
157.918199
  0
LINE
  8
1
 62
7
  6
CONTINUOUS
 10
81.945660
 20
115.918201
 11
112.445661
 21
115.918201
  0
LINE
  8
1
 62
7
  6
CONTINUOUS
 10
110.945661
 20
157.918199
 11
111.361661
 21
154.718199
  0
LINE
  8
1
 62
7
  6
CONTINUOUS
 10
111.361661
 20
154.718199
 11
110.529661
 21
154.718199
  0
LINE
  8
1
 62
7
  6
CONTINUOUS
 10
110.529661
 20
154.718199
 11
110.945661
 21
157.918199
  0
LINE
  8
1
 62
7
  6
CONTINUOUS
 10
110.945661
 20
115.918201
 11
110.529661
 21
119.118201
  0
LINE
  8
1
 62
7
  6
CONTINUOUS
 10
110.529661
 20
119.118201
 11
111.361661
 21
119.118201
  0
LINE
  8
1
 62
7
  6
CONTINUOUS
 10
111.361661
 20
119.118201
 11
110.945661
 21
115.918201
  0
TEXT
  8
1
 62
7
  6
CONTINUOUS
 10
108.945661
 20
135.352042
 40
3.200000
 41
0.900000
  1
42
  7
KANJI
 50
90.000000
 51
0.000000
  0
TEXT
  8
1
 62
7
  6
CONTINUOUS
 10
108.945661
 20
133.272042
 40
3.200000
 41
0.900000
  1
(
  7
KANJI
 50
90.000000
 51
0.000000
  0
TEXT
  8
1
 62
7
  6
CONTINUOUS
 10
108.945661
 20
141.752042
 40
3.200000
 41
0.900000
  1
)
  7
KANJI
 50
90.000000
 51
0.000000
  0
LINE
  8
1
 62
7
  6
CONTINUOUS
 10
40.713605
 20
122.318210
 11
40.713605
 21
115.918210
  0
LINE
  8
1
 62
7
  6
CONTINUOUS
 10
40.713605
 20
109.418199
 11
40.713605
 21
115.918210
  0
LINE
  8
1
 62
7
  6
CONTINUOUS
 10
40.713605
 20
109.418199
 11
40.713605
 21
93.499605
  0
LINE
  8
1
 62
7
  6
CONTINUOUS
 10
51.995661
 20
109.418199
 11
39.213605
 21
109.418199
  0
LINE
  8
1
 62
7
  6
CONTINUOUS
 10
47.945651
 20
115.918210
 11
39.213605
 21
115.918210
  0
LINE
  8
1
 62
7
  6
CONTINUOUS
 10
40.713605
 20
115.918210
 11
40.297605
 21
119.118210
  0
LINE
  8
1
 62
7
  6
CONTINUOUS
 10
40.297605
 20
119.118210
 11
41.129605
 21
119.118210
  0
LINE
  8
1
 62
7
  6
CONTINUOUS
 10
41.129605
 20
119.118210
 11
40.713605
 21
115.918210
  0
LINE
  8
1
 62
7
  6
CONTINUOUS
 10
40.713605
 20
109.418199
 11
41.129605
 21
106.218199
  0
LINE
  8
1
 62
7
  6
CONTINUOUS
 10
41.129605
 20
106.218199
 11
40.297605
 21
106.218199
  0
LINE
  8
1
 62
7
  6
CONTINUOUS
 10
40.297605
 20
106.218199
 11
40.713605
 21
109.418199
  0
TEXT
  8
1
 62
7
  6
CONTINUOUS
 10
38.713605
 20
98.779605
 40
3.200000
 41
0.900000
  1
6.5
  7
KANJI
 50
90.000000
 51
0.000000
  0
TEXT
  8
1
 62
7
  6
CONTINUOUS
 10
38.713605
 20
93.499605
 40
3.200000
 41
0.900000
  1
üª(
  7
KANJI
 50
90.000000
 51
0.000000
  0
TEXT
  8
1
 62
7
  6
CONTINUOUS
 10
38.713605
 20
106.219605
 40
3.200000
 41
0.900000
  1
)
  7
KANJI
 50
90.000000
 51
0.000000
  0
LINE
  8
1
 62
7
  6
CONTINUOUS
 10
110.945618
 20
111.368199
 11
110.945618
 21
99.715987
  0
LINE
  8
1
 62
7
  6
CONTINUOUS
 10
110.945618
 20
111.368199
 11
110.945618
 21
115.918201
  0
LINE
  8
1
 62
7
  6
CONTINUOUS
 10
110.945618
 20
122.318201
 11
110.945618
 21
115.918201
  0
LINE
  8
1
 62
7
  6
CONTINUOUS
 10
81.945660
 20
115.918201
 11
112.445618
 21
115.918201
  0
LINE
  8
1
 62
7
  6
CONTINUOUS
 10
77.895661
 20
111.368199
 11
112.445618
 21
111.368199
  0
LINE
  8
1
 62
7
  6
CONTINUOUS
 10
110.945618
 20
115.918201
 11
110.529618
 21
119.118201
  0
LINE
  8
1
 62
7
  6
CONTINUOUS
 10
110.529618
 20
119.118201
 11
111.361618
 21
119.118201
  0
LINE
  8
1
 62
7
  6
CONTINUOUS
 10
111.361618
 20
119.118201
 11
110.945618
 21
115.918201
  0
LINE
  8
1
 62
7
  6
CONTINUOUS
 10
110.945618
 20
111.368199
 11
111.361618
 21
108.168199
  0
LINE
  8
1
 62
7
  6
CONTINUOUS
 10
111.361618
 20
108.168199
 11
110.529618
 21
108.168199
  0
LINE
  8
1
 62
7
  6
CONTINUOUS
 10
110.529618
 20
108.168199
 11
110.945618
 21
111.368199
  0
TEXT
  8
1
 62
7
  6
CONTINUOUS
 10
108.945618
 20
101.795987
 40
3.200000
 41
0.900000
  1
4.6
  7
KANJI
 50
90.000000
 51
0.000000
  0
TEXT
  8
1
 62
7
  6
CONTINUOUS
 10
108.945618
 20
99.715987
 40
3.200000
 41
0.900000
  1
(
  7
KANJI
 50
90.000000
 51
0.000000
  0
TEXT
  8
1
 62
7
  6
CONTINUOUS
 10
108.945618
 20
109.235987
 40
3.200000
 41
0.900000
  1
)
  7
KANJI
 50
90.000000
 51
0.000000
  0
LINE
  8
1
 62
7
  6
CONTINUOUS
 10
162.238209
 20
73.327367
 11
222.156274
 21
73.327367
  0
LINE
  8
1
 62
7
  6
CONTINUOUS
 10
162.238209
 20
58.308408
 11
162.238209
 21
74.827367
  0
LINE
  8
1
 62
7
  6
CONTINUOUS
 10
222.156274
 20
56.658408
 11
222.156274
 21
74.827367
  0
LINE
  8
1
 62
7
  6
CONTINUOUS
 10
162.238209
 20
73.327367
 11
165.438209
 21
73.743367
  0
LINE
  8
1
 62
7
  6
CONTINUOUS
 10
165.438209
 20
73.743367
 11
165.438209
 21
72.911367
  0
LINE
  8
1
 62
7
  6
CONTINUOUS
 10
165.438209
 20
72.911367
 11
162.238209
 21
73.327367
  0
LINE
  8
1
 62
7
  6
CONTINUOUS
 10
222.156274
 20
73.327367
 11
218.956274
 21
72.911367
  0
LINE
  8
1
 62
7
  6
CONTINUOUS
 10
218.956274
 20
72.911367
 11
218.956274
 21
73.743367
  0
LINE
  8
1
 62
7
  6
CONTINUOUS
 10
218.956274
 20
73.743367
 11
222.156274
 21
73.327367
  0
TEXT
  8
1
 62
7
  6
CONTINUOUS
 10
184.852750
 20
76.127367
 40
3.200000
 41
0.900000
  1
300
  7
KANJI
 50
0.000000
 51
0.000000
  0
TEXT
  8
1
 62
7
  6
CONTINUOUS
 10
194.132750
 20
78.207367
 40
1.920000
 41
0.900000
  1
+40
  7
KANJI
 50
0.000000
 51
0.000000
  0
TEXT
  8
1
 62
7
  6
CONTINUOUS
 10
195.860750
 20
75.327367
 40
1.920000
 41
0.900000
  1
 0
  7
KANJI
 50
0.000000
 51
0.000000
  0
LINE
  8
1
 62
7
  6
CONTINUOUS
 10
228.556274
 20
64.653832
 11
222.156274
 21
64.653832
  0
LINE
  8
1
 62
7
  6
CONTINUOUS
 10
218.656274
 20
64.653832
 11
222.156274
 21
64.653832
  0
LINE
  8
1
 62
7
  6
CONTINUOUS
 10
218.656274
 20
64.653832
 11
203.218444
 21
64.653832
  0
LINE
  8
1
 62
7
  6
CONTINUOUS
 10
218.656274
 20
56.978408
 11
218.656274
 21
66.153832
  0
LINE
  8
1
 62
7
  6
CONTINUOUS
 10
222.156274
 20
56.658408
 11
222.156274
 21
66.153832
  0
LINE
  8
1
 62
7
  6
CONTINUOUS
 10
218.656274
 20
64.653832
 11
215.456274
 21
64.237832
  0
LINE
  8
1
 62
7
  6
CONTINUOUS
 10
215.456274
 20
64.237832
 11
215.456274
 21
65.069832
  0
LINE
  8
1
 62
7
  6
CONTINUOUS
 10
215.456274
 20
65.069832
 11
218.656274
 21
64.653832
  0
LINE
  8
1
 62
7
  6
CONTINUOUS
 10
222.156274
 20
64.653832
 11
225.356274
 21
65.069832
  0
LINE
  8
1
 62
7
  6
CONTINUOUS
 10
225.356274
 20
65.069832
 11
225.356274
 21
64.237832
  0
LINE
  8
1
 62
7
  6
CONTINUOUS
 10
225.356274
 20
64.237832
 11
222.156274
 21
64.653832
  0
TEXT
  8
1
 62
7
  6
CONTINUOUS
 10
205.298444
 20
66.653832
 40
3.200000
 41
0.900000
  1
3.5
  7
KANJI
 50
0.000000
 51
0.000000
  0
TEXT
  8
1
 62
7
  6
CONTINUOUS
 10
203.218444
 20
66.653832
 40
3.200000
 41
0.900000
  1
(
  7
KANJI
 50
0.000000
 51
0.000000
  0
TEXT
  8
1
 62
7
  6
CONTINUOUS
 10
212.738444
 20
66.653832
 40
3.200000
 41
0.900000
  1
)
  7
KANJI
 50
0.000000
 51
0.000000
  0
LINE
  8
1
 62
7
  6
CONTINUOUS
 10
199.718445
 20
186.528812
 11
199.718445
 21
160.528812
  0
LINE
  8
1
 62
7
  6
CONTINUOUS
 10
193.718445
 20
160.528812
 11
193.718445
 21
186.528812
  0
LINE
  8
1
 62
7
  6
CONTINUOUS
 10
193.718445
 20
186.528812
 11
199.718445
 21
186.528812
  0
LINE
  8
1
 62
7
  6
CONTINUOUS
 10
196.718445
 20
162.028812
 11
196.718445
 21
164.528812
  0
LINE
  8
1
 62
7
  6
CONTINUOUS
 10
199.218445
 20
163.528812
 11
194.218445
 21
163.528812
  0
LINE
  8
1
 62
7
  6
CONTINUOUS
 10
194.218445
 20
163.528812
 11
196.718445
 21
162.028812
  0
LINE
  8
1
 62
7
  6
CONTINUOUS
 10
193.718445
 20
166.528812
 11
199.718445
 21
166.528812
  0
LINE
  8
1
 62
7
  6
CONTINUOUS
 10
199.718445
 20
160.528812
 11
193.718445
 21
160.528812
  0
TEXT
  8
1
 62
7
  6
CONTINUOUS
 10
192.131810
 20
162.749101
 40
5.000000
 41
0.900000
  1
(   )
  7
KANJI
 50
90.000000
 51
0.000000
  0
TEXT
  8
1
 62
7
  6
CONTINUOUS
 10
189.212163
 20
166.266182
 40
2.000000
 41
0.900000
  1
DIRECTION
  7
KANJI
 50
90.000000
 51
0.000000
  0
TEXT
  8
1
 62
7
  6
CONTINUOUS
 10
192.212163
 20
166.266182
 40
2.000000
 41
0.900000
  1
OF LETTER
  7
KANJI
 50
90.000000
 51
0.000000
  0
TEXT
  8
1
 62
7
  6
CONTINUOUS
 10
198.718445
 20
167.575558
 40
4.000000
 41
0.900000
  1
òÂÄÜé╠î³é½
  7
KANJI
 50
90.000000
 51
0.000000
  0
ENDSEC
  0
EOF
