  0
SECTION
  2
HEADER
  9
$ACADVER
  1
AC1003
  9
$INSBASE
 10
0.000000
 20
0.000000
  9
$EXTMIN
 10
0.000000
 20
0.000000
  9
$EXTMAX
 10
420.000000
 20
297.000000
  9
$LIMMIN
 10
0.000000
 20
0.000000
  9
$LIMMAX
 10
420.000000
 20
297.000000
  9
$VIEWCTR
 10
210.000000
 20
148.500000
  9
$VIEWSIZE
 40
297.000000
  9
$PEXTMIN
 10
0.000000
 20
0.000000
 30
0.000000
  9
$PEXTMAX
 10
420.000000
 20
297.000000
 30
0.000000
  9
$SNAPMODE
 70
     0
  9
$SNAPUNIT
 10
1.000000
 20
1.000000
  9
$SNAPBASE
 10
0.000000
 20
0.000000
  9
$SNAPANG
 50
0.000000
  9
$SNAPISOPAIR
 70
     0
  9
$SNAPSTYLE
 70
     0
  9
$GRIDMODE
 70
     0
  9
$GRIDUNIT
 10
0.000000
 20
0.000000
  9
$ORTHOMODE
 70
     0
  9
$REGENMODE
 70
     1
  9
$FILLMODE
 70
     1
  9
$QTEXTMODE
 70
     0
  9
$DRAGMODE
 70
     2
  9
$LTSCALE
 40
0.250000
  9
$OSMODE
 70
     0
  9
$ATTMODE
 70
     1
  9
$TEXTSIZE
 40
0.200000
  9
$TRACEWID
 40
0.050000
  9
$TEXTSTYLE
  7
STANDARD
  9
$CLAYER
  8
0
  9
$CELTYPE
  6
BYLAYER
  9
$CECOLOR
 62
   256
  9
$DIMSCALE
 40
1.000000
  9
$DIMASZ
 40
1.000000
  9
$DIMEXO
 40
0.000000
  9
$DIMDLI
 40
0.500000
  9
$DIMRND
 40
0.000000
  9
$DIMDLE
 40
0.000000
  9
$DIMEXE
 40
0.000000
  9
$DIMTP
 40
0.000000
  9
$DIMTM
 40
0.000000
  9
$DIMTXT
 40
0.180000
  9
$DIMCEN
 40
0.000000
  9
$DIMTSZ
 40
0.000000
  9
$DIMTOL
 70
     0
  9
$DIMLIM
 70
     0
  9
$DIMTIH
 70
     1
  9
$DIMTOH
 70
     1
  9
$DIMSE1
 70
     0
  9
$DIMSE2
 70
     0
  9
$DIMTAD
 70
     0
  9
$DIMZIN
 70
     0
  9
$DIMBLK
  1

  9
$DIMASO
 70
     0
  9
$DIMSHO
 70
     0
  9
$DIMPOST
  1

  9
$DIMAPOST
  1

  9
$DIMALT
 70
     0
  9
$DIMALTD
 70
     0
  9
$DIMALTF
 40
25.400000
  9
$DIMLFAC
 40
1.000000
  9
$DIMTOFL
 70
     0
  9
$DIMTVP
 40
0.000000
  9
$DIMTIX
 70
     0
  9
$DIMSOXD
 70
     0
  9
$DIMSAH
 70
     0
  9
$DIMBLKL
  1

  9
$DIMBLKR
  1

  9
$LUNITS
 70
     2
  9
$LUPREC
 70
     2
  9
$AXISMODE
 70
     0
  9
$AXISUNIT
 10
1.000000
 20
1.000000
  9
$SKETCHINC
 40
0.000000
  9
$FILLETRAD
 40
0.000000
  9
$AUNITS
 70
     1
  9
$AUPREC
 70
     2
  9
$MENU
  1
ACAD
  9
$ELEVATION
 40
0.000000
  9
$THICKNESS
 40
0.000000
  9
$VIEWDIR
 10
0.000000
 20
0.000000
 30
1.000000
  9
$LIMCHECK
 70
     1
  9
$BLIPMODE
 70
     1
  9
$CHAMFERA
 40
0.000000
  9
$CHAMFERB
 40
0.000000
  9
$FASTZOOM
 70
     1
  9
$SKPOLY
 70
     0
  9
$TDCREATE
 40
0.000000
  9
$TDUPDATE
 40
0.000000
  9
$TDINDWG
 40
0.000000
  9
$TDUSRTIMER
 40
0.000000
  9
$USRTIMER
 70
     1
  9
$ANGBASE
 50
0.000000
  9
$ANGDIR
 70
     0
  9
$PDMODE
 70
     0
  9
$PDSIZE
 40
0.000000
  9
$PLINEWID
 40
0.000000
  9
$COORDS
 70
     2
  9
$USERI1
 70
     0
  9
$USERI2
 70
     0
  9
$USERI3
 70
     0
  9
$USERI4
 70
     0
  9
$USERI5
 70
     0
  9
$USERR1
 40
0.000000
  9
$USERR2
 40
0.000000
  9
$USERR3
 40
0.000000
  9
$USERR4
 40
0.000000
  9
$USERR5
 40
0.000000
  0
ENDSEC
  0
SECTION
  2
TABLES
  0
TABLE
  2
LTYPE
 70
     5
  0
LTYPE
  2
CONTINUOUS
 70
    64
  3
Solid line
 72
    65
 73
     0
 40
0.0
  0
LTYPE
  2
HIDDEN
 70
    64
  3
------------------------
 72
    65
 73
     2
 40
12.6
 49
8.4
 49
-4.2
  0
LTYPE
  2
DOT
 70
    64
  3
ÑÑÑÑÑÑÑÑÑÑÑÑÑÑÑÑÑÑÑÑÑÑÑÑ
 72
    65
 73
     2
 40
8.0
 49
6.0
 49
-2.0
  0
LTYPE
  2
DASHDOT
 70
    64
  3
--Ñ--Ñ--Ñ--Ñ--Ñ--Ñ--Ñ--
 72
    65
 73
     4
 40
50.5
 49
30.0
 49
-9.0
 49
2.5
 49
-9.0
  0
LTYPE
  2
DIVIDE
 70
    64
  3
--ÑÑ--ÑÑ--ÑÑ--ÑÑ--ÑÑ--
 72
    65
 73
     6
 40
58.0
 49
30.0
 49
-9.0
 49
2.5
 49
-5.0
 49
2.5
 49
-9.0
  0
ENDTAB
  0
TABLE
  2
LAYER
 70
4
  0
LAYER
  2
1
 70
64
 62
7
  6
CONTINUOUS
  0
LAYER
  2
2
 70
64
 62
134
  6
CONTINUOUS
  0
LAYER
  2
4
 70
64
 62
54
  6
CONTINUOUS
  0
LAYER
  2
128
 70
64
 62
7
  6
CONTINUOUS
  0
ENDTAB
  0
TABLE
  2
STYLE
 70
     2
  0
STYLE
  2
STANDARD
 70
    64
 40
0.0
 41
1.0
 50
0.0
 71
     0
 42
0.2
  3
TXT
  4

  0
STYLE
  2
KANJI
 70
    64
 40
0.0
 41
1.0
 50
0.0
 71
     0
 42
0.2
  3
TXT
  4
BIGFONT
  0
ENDTAB
  0
TABLE
  2
VIEW
 70
     0
  0
ENDTAB
  0
ENDSEC
  0
SECTION
  2
BLOCKS
  0
ENDSEC
  0
SECTION
  2
ENTITIES
  0
LINE
  8
1
 62
7
  6
CONTINUOUS
 10
78.286454
 20
88.225677
 11
139.208462
 21
88.225677
  0
LINE
  8
1
 62
7
  6
CONTINUOUS
 10
157.319364
 20
37.566288
 11
205.040508
 21
37.566288
  0
LINE
  8
1
 62
7
  6
CONTINUOUS
 10
152.412430
 20
51.586103
 11
147.262430
 21
51.586103
  0
LINE
  8
1
 62
7
  6
CONTINUOUS
 10
147.262430
 20
51.586103
 11
147.262430
 21
73.986103
  0
LINE
  8
1
 62
7
  6
CONTINUOUS
 10
147.262430
 20
73.986103
 11
152.412430
 21
73.986103
  0
LINE
  8
1
 62
7
  6
CONTINUOUS
 10
152.412430
 20
73.986103
 11
153.612430
 21
74.736103
  0
LINE
  8
1
 62
7
  6
CONTINUOUS
 10
152.412430
 20
51.586103
 11
153.612430
 21
50.836103
  0
LINE
  8
1
 62
7
  6
CONTINUOUS
 10
153.612430
 20
50.836103
 11
153.612430
 21
74.736103
  0
LINE
  8
1
 62
7
  6
CONTINUOUS
 10
153.612430
 20
71.386103
 11
154.112430
 21
71.386103
  0
LINE
  8
1
 62
7
  6
CONTINUOUS
 10
154.112430
 20
71.386103
 11
154.112430
 21
72.186103
  0
LINE
  8
1
 62
7
  6
CONTINUOUS
 10
154.112430
 20
72.186103
 11
153.612430
 21
72.186103
  0
LINE
  8
1
 62
7
  6
CONTINUOUS
 10
153.612430
 20
69.386103
 11
154.112430
 21
69.386103
  0
LINE
  8
1
 62
7
  6
CONTINUOUS
 10
154.112430
 20
69.386103
 11
154.112430
 21
70.186103
  0
LINE
  8
1
 62
7
  6
CONTINUOUS
 10
154.112430
 20
70.186103
 11
153.612430
 21
70.186103
  0
LINE
  8
1
 62
7
  6
CONTINUOUS
 10
153.612430
 20
67.386103
 11
154.112430
 21
67.386103
  0
LINE
  8
1
 62
7
  6
CONTINUOUS
 10
154.112430
 20
67.386103
 11
154.112430
 21
68.186103
  0
LINE
  8
1
 62
7
  6
CONTINUOUS
 10
154.112430
 20
68.186103
 11
153.612430
 21
68.186103
  0
LINE
  8
1
 62
7
  6
CONTINUOUS
 10
153.612430
 20
65.386103
 11
154.112430
 21
65.386103
  0
LINE
  8
1
 62
7
  6
CONTINUOUS
 10
154.112430
 20
65.386103
 11
154.112430
 21
66.186103
  0
LINE
  8
1
 62
7
  6
CONTINUOUS
 10
154.112430
 20
66.186103
 11
153.612430
 21
66.186103
  0
LINE
  8
1
 62
7
  6
CONTINUOUS
 10
153.612430
 20
63.386103
 11
154.112430
 21
63.386103
  0
LINE
  8
1
 62
7
  6
CONTINUOUS
 10
154.112430
 20
63.386103
 11
154.112430
 21
64.186103
  0
LINE
  8
1
 62
7
  6
CONTINUOUS
 10
154.112430
 20
64.186103
 11
153.612430
 21
64.186103
  0
LINE
  8
1
 62
7
  6
CONTINUOUS
 10
153.612430
 20
61.386103
 11
154.112430
 21
61.386103
  0
LINE
  8
1
 62
7
  6
CONTINUOUS
 10
154.112430
 20
61.386103
 11
154.112430
 21
62.186103
  0
LINE
  8
1
 62
7
  6
CONTINUOUS
 10
154.112430
 20
62.186103
 11
153.612430
 21
62.186103
  0
LINE
  8
1
 62
7
  6
CONTINUOUS
 10
153.612430
 20
59.386103
 11
154.112430
 21
59.386103
  0
LINE
  8
1
 62
7
  6
CONTINUOUS
 10
154.112430
 20
59.386103
 11
154.112430
 21
60.186103
  0
LINE
  8
1
 62
7
  6
CONTINUOUS
 10
154.112430
 20
60.186103
 11
153.612430
 21
60.186103
  0
LINE
  8
1
 62
7
  6
CONTINUOUS
 10
153.612430
 20
57.386103
 11
154.112430
 21
57.386103
  0
LINE
  8
1
 62
7
  6
CONTINUOUS
 10
154.112430
 20
57.386103
 11
154.112430
 21
58.186103
  0
LINE
  8
1
 62
7
  6
CONTINUOUS
 10
154.112430
 20
58.186103
 11
153.612430
 21
58.186103
  0
LINE
  8
1
 62
7
  6
CONTINUOUS
 10
153.612430
 20
55.386103
 11
154.112430
 21
55.386103
  0
LINE
  8
1
 62
7
  6
CONTINUOUS
 10
154.112430
 20
55.386103
 11
154.112430
 21
56.186103
  0
LINE
  8
1
 62
7
  6
CONTINUOUS
 10
154.112430
 20
56.186103
 11
153.612430
 21
56.186103
  0
LINE
  8
1
 62
7
  6
CONTINUOUS
 10
153.612430
 20
53.386103
 11
154.112430
 21
53.386103
  0
LINE
  8
1
 62
7
  6
CONTINUOUS
 10
154.112430
 20
53.386103
 11
154.112430
 21
54.186103
  0
LINE
  8
1
 62
7
  6
CONTINUOUS
 10
154.112430
 20
54.186103
 11
153.612430
 21
54.186103
  0
LINE
  8
1
 62
7
  6
CONTINUOUS
 10
154.112430
 20
52.186103
 11
154.112430
 21
50.836103
  0
LINE
  8
1
 62
7
  6
CONTINUOUS
 10
154.112430
 20
50.836103
 11
153.612430
 21
50.836103
  0
LINE
  8
1
 62
7
  6
CONTINUOUS
 10
153.612430
 20
74.736103
 11
154.112430
 21
74.736103
  0
LINE
  8
1
 62
7
  6
CONTINUOUS
 10
154.112430
 20
74.736103
 11
154.112430
 21
73.386103
  0
LINE
  8
1
 62
7
  6
CONTINUOUS
 10
153.612430
 20
54.186103
 11
147.262430
 21
54.186103
  0
LINE
  8
1
 62
7
  6
CONTINUOUS
 10
147.262430
 20
55.186103
 11
152.912430
 21
55.186103
  0
LINE
  8
1
 62
7
  6
CONTINUOUS
 10
152.912430
 20
55.186103
 11
152.912430
 21
70.386103
  0
LINE
  8
1
 62
7
  6
CONTINUOUS
 10
152.912430
 20
70.386103
 11
147.262430
 21
70.386103
  0
LINE
  8
1
 62
7
  6
CONTINUOUS
 10
153.612430
 20
71.386103
 11
147.262430
 21
71.386103
  0
LINE
  8
1
 62
7
  6
CONTINUOUS
 10
151.412430
 20
55.186103
 11
151.412430
 21
70.386103
  0
LINE
  8
1
 62
7
  6
CONTINUOUS
 10
154.112430
 20
52.186103
 11
153.612430
 21
52.186103
  0
LINE
  8
1
 62
7
  6
CONTINUOUS
 10
154.112430
 20
73.386103
 11
153.612430
 21
73.386103
  0
LINE
  8
1
 62
7
  6
CONTINUOUS
 10
157.488921
 20
56.166103
 11
154.112430
 21
56.166103
  0
LINE
  8
1
 62
7
  6
CONTINUOUS
 10
157.488921
 20
57.406103
 11
154.112430
 21
57.406103
  0
LINE
  8
1
 62
7
  6
CONTINUOUS
 10
157.488921
 20
60.166103
 11
154.112430
 21
60.166103
  0
LINE
  8
1
 62
7
  6
CONTINUOUS
 10
157.488921
 20
61.406103
 11
154.112430
 21
61.406103
  0
LINE
  8
1
 62
7
  6
CONTINUOUS
 10
157.488921
 20
64.166103
 11
154.112430
 21
64.166103
  0
LINE
  8
1
 62
7
  6
CONTINUOUS
 10
157.488921
 20
65.406103
 11
154.112430
 21
65.406103
  0
LINE
  8
1
 62
7
  6
CONTINUOUS
 10
157.488921
 20
68.166103
 11
154.112430
 21
68.166103
  0
LINE
  8
1
 62
7
  6
CONTINUOUS
 10
157.488921
 20
69.406103
 11
154.112430
 21
69.406103
  0
LINE
  8
1
 62
7
  6
CONTINUOUS
 10
185.389430
 20
50.166103
 11
185.389430
 21
75.406103
  0
LINE
  8
1
 62
7
  6
CONTINUOUS
 10
184.389430
 20
50.166103
 11
184.389430
 21
75.406103
  0
LINE
  8
1
 62
7
  6
CONTINUOUS
 10
185.389430
 20
69.406103
 11
210.530495
 21
69.406103
  0
LINE
  8
1
 62
7
  6
CONTINUOUS
 10
185.389430
 20
68.166103
 11
210.530495
 21
68.166103
  0
LINE
  8
1
 62
7
  6
CONTINUOUS
 10
185.389430
 20
65.406103
 11
210.530495
 21
65.406103
  0
LINE
  8
1
 62
7
  6
CONTINUOUS
 10
185.389430
 20
64.166103
 11
210.530495
 21
64.166103
  0
LINE
  8
1
 62
7
  6
CONTINUOUS
 10
185.389430
 20
61.406103
 11
210.530495
 21
61.406103
  0
LINE
  8
1
 62
7
  6
CONTINUOUS
 10
185.389430
 20
60.166103
 11
210.530495
 21
60.166103
  0
LINE
  8
1
 62
7
  6
CONTINUOUS
 10
185.389430
 20
57.406103
 11
210.530495
 21
57.406103
  0
LINE
  8
1
 62
7
  6
CONTINUOUS
 10
185.389430
 20
56.166103
 11
210.530495
 21
56.166103
  0
LINE
  8
1
 62
7
  6
CONTINUOUS
 10
165.362684
 20
56.166103
 11
157.488921
 21
56.166103
  0
LINE
  8
1
 62
7
  6
CONTINUOUS
 10
165.362684
 20
57.406103
 11
157.488921
 21
57.406103
  0
LINE
  8
1
 62
7
  6
CONTINUOUS
 10
165.362684
 20
60.166103
 11
157.488921
 21
60.166103
  0
LINE
  8
1
 62
7
  6
CONTINUOUS
 10
165.362684
 20
61.406103
 11
157.488921
 21
61.406103
  0
LINE
  8
1
 62
7
  6
CONTINUOUS
 10
165.362684
 20
64.166103
 11
157.488921
 21
64.166103
  0
LINE
  8
1
 62
7
  6
CONTINUOUS
 10
165.362684
 20
65.406103
 11
157.488921
 21
65.406103
  0
LINE
  8
1
 62
7
  6
CONTINUOUS
 10
165.362684
 20
68.166103
 11
157.488921
 21
68.166103
  0
LINE
  8
1
 62
7
  6
CONTINUOUS
 10
165.362684
 20
69.406103
 11
157.488921
 21
69.406103
  0
LINE
  8
1
 62
7
  6
CONTINUOUS
 10
184.389430
 20
56.166103
 11
165.362684
 21
56.166103
  0
LINE
  8
1
 62
7
  6
CONTINUOUS
 10
184.389430
 20
57.406103
 11
165.362684
 21
57.406103
  0
LINE
  8
1
 62
7
  6
CONTINUOUS
 10
184.389430
 20
60.166103
 11
165.362684
 21
60.166103
  0
LINE
  8
1
 62
7
  6
CONTINUOUS
 10
184.389430
 20
61.406103
 11
165.362684
 21
61.406103
  0
LINE
  8
1
 62
7
  6
CONTINUOUS
 10
184.389430
 20
64.166103
 11
165.362684
 21
64.166103
  0
LINE
  8
1
 62
7
  6
CONTINUOUS
 10
184.389430
 20
65.406103
 11
165.362684
 21
65.406103
  0
LINE
  8
1
 62
7
  6
CONTINUOUS
 10
184.389430
 20
68.166103
 11
165.362684
 21
68.166103
  0
LINE
  8
1
 62
7
  6
CONTINUOUS
 10
184.389430
 20
69.406103
 11
165.362684
 21
69.406103
  0
LINE
  8
1
 62
7
  6
CONTINUOUS
 10
210.530495
 20
68.166103
 11
210.530495
 21
69.406103
  0
LINE
  8
1
 62
7
  6
CONTINUOUS
 10
210.530495
 20
64.166103
 11
210.530495
 21
65.406103
  0
LINE
  8
1
 62
7
  6
CONTINUOUS
 10
210.530495
 20
60.166103
 11
210.530495
 21
61.406103
  0
LINE
  8
1
 62
7
  6
CONTINUOUS
 10
210.530495
 20
56.166103
 11
210.530495
 21
57.406103
  0
LINE
  8
1
 62
7
  6
CONTINUOUS
 10
210.530495
 20
69.086103
 11
214.030495
 21
69.086103
  0
LINE
  8
1
 62
7
  6
CONTINUOUS
 10
210.530495
 20
65.086103
 11
214.030495
 21
65.086103
  0
LINE
  8
1
 62
7
  6
CONTINUOUS
 10
210.530495
 20
61.086103
 11
214.030495
 21
61.086103
  0
LINE
  8
1
 62
7
  6
CONTINUOUS
 10
210.530495
 20
57.086103
 11
214.030495
 21
57.086103
  0
LINE
  8
1
 62
7
  6
CONTINUOUS
 10
210.530495
 20
68.786103
 11
214.030495
 21
68.786103
  0
LINE
  8
1
 62
7
  6
CONTINUOUS
 10
210.530495
 20
68.486103
 11
214.030495
 21
68.486103
  0
LINE
  8
1
 62
7
  6
CONTINUOUS
 10
210.530495
 20
64.786103
 11
214.030495
 21
64.786103
  0
LINE
  8
1
 62
7
  6
CONTINUOUS
 10
210.530495
 20
64.486103
 11
214.030495
 21
64.486103
  0
LINE
  8
1
 62
7
  6
CONTINUOUS
 10
210.530495
 20
60.786103
 11
214.030495
 21
60.786103
  0
LINE
  8
1
 62
7
  6
CONTINUOUS
 10
210.530495
 20
60.486103
 11
214.030495
 21
60.486103
  0
LINE
  8
1
 62
7
  6
CONTINUOUS
 10
210.530495
 20
56.786103
 11
214.030495
 21
56.786103
  0
LINE
  8
1
 62
7
  6
CONTINUOUS
 10
210.530495
 20
56.486103
 11
214.030495
 21
56.486103
  0
LINE
  8
1
 62
7
  6
CONTINUOUS
 10
180.845764
 20
179.099407
 11
192.254664
 21
179.099407
  0
LINE
  8
1
 62
7
  6
CONTINUOUS
 10
34.610389
 20
133.918199
 11
34.116833
 21
133.918199
  0
LINE
  8
1
 62
7
  6
CONTINUOUS
 10
60.103943
 20
133.918199
 11
59.610389
 21
133.918199
  0
LINE
  8
1
 62
7
  6
HIDDEN
 10
58.960389
 20
129.418199
 11
35.160389
 21
129.418199
  0
LINE
  8
1
 62
7
  6
HIDDEN
 10
52.410389
 20
129.418199
 11
52.410389
 21
116.902841
  0
LINE
  8
1
 62
7
  6
HIDDEN
 10
44.410389
 20
129.418199
 11
44.410389
 21
116.902841
  0
LINE
  8
1
 62
7
  6
HIDDEN
 10
40.410389
 20
129.418199
 11
40.410389
 21
116.902841
  0
LINE
  8
1
 62
7
  6
HIDDEN
 10
53.710389
 20
129.418199
 11
53.710389
 21
116.902841
  0
LINE
  8
1
 62
7
  6
HIDDEN
 10
49.710389
 20
129.418199
 11
49.710389
 21
116.902841
  0
LINE
  8
1
 62
7
  6
HIDDEN
 10
48.410389
 20
129.418199
 11
48.410389
 21
116.902841
  0
LINE
  8
1
 62
7
  6
HIDDEN
 10
35.910389
 20
131.368199
 11
35.160389
 21
130.018199
  0
LINE
  8
1
 62
7
  6
HIDDEN
 10
58.310389
 20
131.368199
 11
58.960389
 21
130.018199
  0
LINE
  8
1
 62
7
  6
HIDDEN
 10
58.960389
 20
129.418199
 11
58.960389
 21
130.018199
  0
LINE
  8
1
 62
7
  6
HIDDEN
 10
35.160389
 20
129.418199
 11
35.160389
 21
130.018199
  0
LINE
  8
1
 62
7
  6
HIDDEN
 10
41.710389
 20
116.902841
 11
41.710389
 21
129.418199
  0
LINE
  8
1
 62
7
  6
HIDDEN
 10
45.710389
 20
116.902841
 11
45.710389
 21
129.418199
  0
LINE
  8
1
 62
7
  6
CONTINUOUS
 10
57.510389
 20
133.268199
 11
57.510389
 21
135.918199
  0
LINE
  8
1
 62
7
  6
CONTINUOUS
 10
58.510389
 20
133.268199
 11
57.510389
 21
133.268199
  0
LINE
  8
1
 62
7
  6
CONTINUOUS
 10
58.510389
 20
135.918199
 11
58.510389
 21
133.268199
  0
LINE
  8
1
 62
7
  6
CONTINUOUS
 10
36.710389
 20
133.268199
 11
36.710389
 21
135.918199
  0
LINE
  8
1
 62
7
  6
CONTINUOUS
 10
35.710389
 20
133.268199
 11
36.710389
 21
133.268199
  0
LINE
  8
1
 62
7
  6
CONTINUOUS
 10
35.710389
 20
135.918199
 11
35.710389
 21
133.268199
  0
LINE
  8
1
 62
7
  6
CONTINUOUS
 10
56.060389
 20
135.918199
 11
56.060389
 21
131.368199
  0
LINE
  8
1
 62
7
  6
CONTINUOUS
 10
38.160389
 20
135.918199
 11
38.160389
 21
131.368199
  0
LINE
  8
1
 62
7
  6
CONTINUOUS
 10
35.160389
 20
131.368199
 11
59.060389
 21
131.368199
  0
LINE
  8
1
 62
7
  6
CONTINUOUS
 10
59.060389
 20
131.368199
 11
59.060389
 21
135.918199
  0
LINE
  8
1
 62
7
  6
CONTINUOUS
 10
35.160389
 20
131.368199
 11
35.160389
 21
135.918199
  0
LINE
  8
1
 62
7
  6
CONTINUOUS
 10
59.110389
 20
132.368199
 11
59.610389
 21
132.368199
  0
LINE
  8
1
 62
7
  6
CONTINUOUS
 10
59.110389
 20
135.918199
 11
59.110389
 21
132.368199
  0
LINE
  8
1
 62
7
  6
CONTINUOUS
 10
35.110389
 20
132.368199
 11
35.110389
 21
135.918199
  0
LINE
  8
1
 62
7
  6
CONTINUOUS
 10
34.610389
 20
132.368199
 11
35.110389
 21
132.368199
  0
LINE
  8
1
 62
7
  6
CONTINUOUS
 10
59.610389
 20
132.368199
 11
59.610389
 21
135.918199
  0
LINE
  8
1
 62
7
  6
CONTINUOUS
 10
34.610389
 20
132.368199
 11
34.610389
 21
135.918199
  0
LINE
  8
1
 62
7
  6
CONTINUOUS
 10
60.060389
 20
133.918199
 11
60.103943
 21
133.918199
  0
LINE
  8
1
 62
7
  6
CONTINUOUS
 10
59.760389
 20
135.918199
 11
59.760389
 21
134.218199
  0
LINE
  8
1
 62
7
  6
CONTINUOUS
 10
34.460389
 20
134.218199
 11
34.460389
 21
135.918199
  0
LINE
  8
1
 62
7
  6
CONTINUOUS
 10
35.110389
 20
178.918199
 11
59.110389
 21
178.918199
  0
LINE
  8
1
 62
7
  6
CONTINUOUS
 10
68.110389
 20
140.918201
 11
68.110389
 21
172.918199
  0
LINE
  8
1
 62
7
  6
CONTINUOUS
 10
63.110389
 20
177.918199
 11
31.110388
 21
177.918199
  0
LINE
  8
2
 62
134
  6
CONTINUOUS
 10
60.110389
 20
141.418199
 11
65.110389
 21
141.418199
  0
LINE
  8
2
 62
134
  6
CONTINUOUS
 10
62.610389
 20
143.918199
 11
62.610389
 21
138.918199
  0
LINE
  8
2
 62
134
  6
CONTINUOUS
 10
31.610379
 20
143.918199
 11
31.610379
 21
138.918199
  0
LINE
  8
2
 62
134
  6
CONTINUOUS
 10
34.110389
 20
141.418199
 11
29.110389
 21
141.418199
  0
LINE
  8
2
 62
134
  6
CONTINUOUS
 10
34.110389
 20
172.418199
 11
29.110389
 21
172.418199
  0
LINE
  8
2
 62
134
  6
CONTINUOUS
 10
31.610399
 20
169.918199
 11
31.610399
 21
174.918199
  0
LINE
  8
2
 62
134
  6
CONTINUOUS
 10
62.610389
 20
169.918199
 11
62.610389
 21
174.918199
  0
LINE
  8
2
 62
134
  6
CONTINUOUS
 10
60.110389
 20
172.418199
 11
65.110389
 21
172.418199
  0
LINE
  8
2
 62
134
  6
CONTINUOUS
 10
20.188909
 20
156.918199
 11
73.609889
 21
156.918199
  0
LINE
  8
2
 62
134
  6
CONTINUOUS
 10
47.110389
 20
134.918199
 11
47.110389
 21
181.918199
  0
LINE
  8
1
 62
7
  6
CONTINUOUS
 10
34.116833
 20
133.918199
 11
34.160389
 21
133.918199
  0
LINE
  8
1
 62
7
  6
CONTINUOUS
 10
26.110380
 20
140.918211
 11
26.110388
 21
172.918201
  0
LINE
  8
1
 62
7
  6
CONTINUOUS
 10
31.110379
 20
135.918210
 11
63.110387
 21
135.918201
  0
LINE
  8
1
 62
7
  6
CONTINUOUS
 10
180.845764
 20
131.368199
 11
180.845764
 21
132.368199
  0
LINE
  8
1
 62
7
  6
CONTINUOUS
 10
185.645764
 20
131.368199
 11
180.845764
 21
131.368199
  0
LINE
  8
1
 62
7
  6
CONTINUOUS
 10
185.645764
 20
132.368199
 11
185.645764
 21
131.368199
  0
LINE
  8
1
 62
7
  6
CONTINUOUS
 10
186.245764
 20
132.368199
 11
186.245764
 21
133.918199
  0
LINE
  8
1
 62
7
  6
CONTINUOUS
 10
180.845764
 20
132.368199
 11
186.245764
 21
132.368199
  0
LINE
  8
1
 62
7
  6
CONTINUOUS
 10
180.845764
 20
133.918199
 11
180.845764
 21
132.368199
  0
LINE
  8
1
 62
7
  6
CONTINUOUS
 10
193.845753
 20
134.918201
 11
193.845749
 21
136.918199
  0
LINE
  8
1
 62
7
  6
CONTINUOUS
 10
180.845764
 20
133.918199
 11
192.845753
 21
133.918199
  0
LINE
  8
1
 62
7
  6
CONTINUOUS
 10
180.845764
 20
133.918199
 11
180.845764
 21
141.918199
  0
LINE
  8
1
 62
7
  6
CONTINUOUS
 10
128.445764
 20
156.918199
 11
195.845664
 21
156.918199
  0
LINE
  8
1
 62
7
  6
CONTINUOUS
 10
130.945776
 20
159.418199
 11
130.945753
 21
154.418199
  0
LINE
  8
1
 62
7
  6
CONTINUOUS
 10
193.845764
 20
176.918199
 11
193.845749
 21
136.918199
  0
LINE
  8
1
 62
7
  6
CONTINUOUS
 10
164.845764
 20
141.918299
 11
164.845664
 21
135.918199
  0
LINE
  8
1
 62
7
  6
CONTINUOUS
 10
180.845764
 20
171.918199
 11
180.845764
 21
177.918199
  0
LINE
  8
1
 62
7
  6
CONTINUOUS
 10
164.845764
 20
171.918199
 11
164.845764
 21
177.918199
  0
LINE
  8
1
 62
7
  6
CONTINUOUS
 10
152.945664
 20
145.918199
 11
152.945764
 21
167.918199
  0
LINE
  8
1
 62
7
  6
CONTINUOUS
 10
152.945664
 20
145.918199
 11
154.945764
 21
145.918199
  0
LINE
  8
1
 62
7
  6
CONTINUOUS
 10
152.945764
 20
167.918199
 11
154.945764
 21
167.918199
  0
LINE
  8
1
 62
7
  6
CONTINUOUS
 10
154.945764
 20
176.918199
 11
154.945764
 21
176.549191
  0
LINE
  8
1
 62
7
  6
CONTINUOUS
 10
164.845764
 20
171.918199
 11
180.845764
 21
171.918199
  0
LINE
  8
1
 62
7
  6
CONTINUOUS
 10
164.845764
 20
141.918299
 11
180.845764
 21
141.918199
  0
LINE
  8
4
 62
54
  6
CONTINUOUS
 10
169.245664
 20
139.259999
 11
169.245664
 21
135.918099
  0
LINE
  8
4
 62
54
  6
CONTINUOUS
 10
168.445664
 20
140.529799
 11
168.445664
 21
135.918099
  0
LINE
  8
4
 62
54
  6
CONTINUOUS
 10
167.645664
 20
141.799499
 11
167.645664
 21
135.918099
  0
LINE
  8
4
 62
54
  6
CONTINUOUS
 10
166.845664
 20
143.069299
 11
166.845664
 21
135.918099
  0
LINE
  8
4
 62
54
  6
CONTINUOUS
 10
166.045664
 20
144.339099
 11
166.045664
 21
135.918099
  0
LINE
  8
4
 62
54
  6
CONTINUOUS
 10
165.245664
 20
145.608899
 11
165.245664
 21
135.918099
  0
LINE
  8
4
 62
54
  6
CONTINUOUS
 10
176.445764
 20
174.576299
 11
176.445764
 21
177.918199
  0
LINE
  8
4
 62
54
  6
CONTINUOUS
 10
177.245764
 20
173.306599
 11
177.245764
 21
177.918199
  0
LINE
  8
4
 62
54
  6
CONTINUOUS
 10
178.045764
 20
172.036799
 11
178.045764
 21
177.918199
  0
LINE
  8
4
 62
54
  6
CONTINUOUS
 10
178.845764
 20
170.766999
 11
178.845764
 21
177.918199
  0
LINE
  8
4
 62
54
  6
CONTINUOUS
 10
179.645764
 20
169.497199
 11
179.645764
 21
177.918199
  0
LINE
  8
4
 62
54
  6
CONTINUOUS
 10
180.445764
 20
168.227399
 11
180.445764
 21
177.918199
  0
LINE
  8
1
 62
7
  6
CONTINUOUS
 10
155.945764
 20
177.918199
 11
192.845764
 21
177.918199
  0
LINE
  8
1
 62
7
  6
CONTINUOUS
 10
155.945765
 20
135.918200
 11
180.845764
 21
135.918210
  0
LINE
  8
1
 62
7
  6
CONTINUOUS
 10
130.945776
 20
159.418199
 11
152.945726
 21
159.418199
  0
LINE
  8
1
 62
7
  6
CONTINUOUS
 10
130.945753
 20
154.418199
 11
152.945703
 21
154.418199
  0
LINE
  8
1
 62
7
  6
CONTINUOUS
 10
180.845764
 20
171.918199
 11
180.845764
 21
141.918199
  0
LINE
  8
1
 62
7
  6
CONTINUOUS
 10
164.845764
 20
141.918299
 11
164.845764
 21
171.918199
  0
LINE
  8
1
 62
7
  6
CONTINUOUS
 10
154.945764
 20
176.918199
 11
154.945764
 21
136.918200
  0
ARC
  8
1
 62
7
  6
CONTINUOUS
 10
63.484486
 20
133.079964
 40
2.851440
 50
95.516143
 51
152.895453
  0
ARC
  8
1
 62
7
  6
CONTINUOUS
 10
30.736290
 20
133.079964
 40
2.851440
 50
27.104547
 51
84.483857
  0
ARC
  8
1
 62
7
  6
CONTINUOUS
 10
192.845764
 20
176.918199
 40
1.000000
 50
0.000000
 51
90.000000
  0
CIRCLE
  8
1
 62
7
  6
CONTINUOUS
 10
47.110389
 20
156.918199
 40
4.500000
  0
CIRCLE
  8
1
 62
7
  6
CONTINUOUS
 10
47.110389
 20
156.918199
 40
7.500000
  0
CIRCLE
  8
1
 62
7
  6
CONTINUOUS
 10
62.610389
 20
141.418199
 40
1.500000
  0
CIRCLE
  8
1
 62
7
  6
CONTINUOUS
 10
31.610379
 20
141.418199
 40
1.500000
  0
CIRCLE
  8
1
 62
7
  6
CONTINUOUS
 10
31.610389
 20
172.418199
 40
1.500000
  0
CIRCLE
  8
1
 62
7
  6
CONTINUOUS
 10
62.610389
 20
172.418199
 40
1.500000
  0
CIRCLE
  8
4
 62
54
  6
CONTINUOUS
 10
62.610389
 20
141.418199
 40
1.000000
  0
CIRCLE
  8
4
 62
54
  6
CONTINUOUS
 10
31.610379
 20
141.418199
 40
1.000010
  0
CIRCLE
  8
4
 62
54
  6
CONTINUOUS
 10
62.610389
 20
172.418199
 40
1.000000
  0
CIRCLE
  8
4
 62
54
  6
CONTINUOUS
 10
31.610389
 20
172.418199
 40
1.000010
  0
CIRCLE
  8
1
 62
7
  6
CONTINUOUS
 10
47.110389
 20
156.918199
 40
2.500000
  0
CIRCLE
  8
1
 62
7
  6
CONTINUOUS
 10
47.110389
 20
156.918199
 40
11.000000
  0
CIRCLE
  8
1
 62
7
  6
CONTINUOUS
 10
47.110389
 20
156.918199
 40
15.000000
  0
CIRCLE
  8
1
 62
7
  6
CONTINUOUS
 10
47.110389
 20
156.918199
 40
12.750000
  0
ARC
  8
1
 62
7
  6
CONTINUOUS
 10
60.103943
 20
134.918199
 40
1.000000
 50
-90.000000
 51
-32.620690
  0
ARC
  8
1
 62
7
  6
CONTINUOUS
 10
34.116833
 20
134.918199
 40
1.000000
 50
-147.379310
 51
-90.000000
  0
ARC
  8
1
 62
7
  6
CONTINUOUS
 10
60.060389
 20
134.218199
 40
0.300000
 50
180.000000
 51
-90.000000
  0
ARC
  8
1
 62
7
  6
CONTINUOUS
 10
34.160389
 20
134.218199
 40
0.300000
 50
-90.000000
 51
0.000000
  0
ARC
  8
1
 62
7
  6
CONTINUOUS
 10
63.110389
 20
140.918201
 40
5.000000
 50
-90.000017
 51
-0.000000
  0
ARC
  8
1
 62
7
  6
CONTINUOUS
 10
31.110380
 20
140.918210
 40
5.000000
 50
179.999986
 51
-90.000017
  0
ARC
  8
1
 62
7
  6
CONTINUOUS
 10
31.110388
 20
172.918199
 40
5.000000
 50
90.000000
 51
179.999986
  0
ARC
  8
1
 62
7
  6
CONTINUOUS
 10
63.110389
 20
172.918199
 40
5.000000
 50
0.000000
 51
90.000000
  0
ARC
  8
1
 62
7
  6
CONTINUOUS
 10
192.845753
 20
134.918199
 40
1.000000
 50
-90.000000
 51
0.000100
  0
ARC
  8
1
 62
7
  6
CONTINUOUS
 10
155.945764
 20
176.918199
 40
1.000000
 50
90.000000
 51
180.000000
  0
ARC
  8
1
 62
7
  6
CONTINUOUS
 10
155.945764
 20
136.918200
 40
1.000000
 50
180.000000
 51
-89.999977
  0
LINE
  8
1
 62
7
  6
CONTINUOUS
 10
139.208462
 20
88.225677
 11
160.386391
 21
75.978408
  0
LINE
  8
1
 62
7
  6
CONTINUOUS
 10
157.405349
 20
77.215692
 11
157.827159
 21
77.945083
  0
LINE
  8
1
 62
7
  6
CONTINUOUS
 10
157.827159
 20
77.945083
 11
160.386391
 21
75.978408
  0
LINE
  8
1
 62
7
  6
CONTINUOUS
 10
160.386391
 20
75.978408
 11
157.405349
 21
77.215692
  0
LINE
  8
1
 62
7
  6
CONTINUOUS
 10
92.407776
 20
33.970437
 11
135.571640
 21
33.970437
  0
LINE
  8
1
 62
7
  6
CONTINUOUS
 10
135.571640
 20
33.970437
 11
147.262430
 21
51.586103
  0
LINE
  8
1
 62
7
  6
CONTINUOUS
 10
145.843965
 20
48.686889
 11
145.141926
 21
49.152804
  0
LINE
  8
1
 62
7
  6
CONTINUOUS
 10
145.141926
 20
49.152804
 11
147.262430
 21
51.586103
  0
LINE
  8
1
 62
7
  6
CONTINUOUS
 10
147.262430
 20
51.586103
 11
145.843965
 21
48.686889
  0
LINE
  8
1
 62
7
  6
CONTINUOUS
 10
152.022119
 20
216.703019
 11
211.622811
 21
216.703019
  0
LINE
  8
1
 62
7
  6
CONTINUOUS
 10
211.622811
 20
216.703019
 11
192.254664
 21
178.918199
  0
LINE
  8
1
 62
7
  6
CONTINUOUS
 10
193.339455
 20
181.958053
 11
194.089264
 21
181.573708
  0
LINE
  8
1
 62
7
  6
CONTINUOUS
 10
194.089264
 20
181.573708
 11
192.254664
 21
178.918199
  0
LINE
  8
1
 62
7
  6
CONTINUOUS
 10
192.254664
 20
178.918199
 11
193.339455
 21
181.958053
  0
LINE
  8
1
 62
7
  6
CONTINUOUS
 10
108.997830
 20
109.456045
 11
71.841102
 21
109.456045
  0
LINE
  8
1
 62
7
  6
CONTINUOUS
 10
71.841102
 20
109.456045
 11
63.604789
 21
140.295182
  0
LINE
  8
1
 62
7
  6
CONTINUOUS
 10
64.837505
 20
137.312248
 11
64.023461
 21
137.094838
  0
LINE
  8
1
 62
7
  6
CONTINUOUS
 10
64.023461
 20
137.094838
 11
63.604789
 21
140.295182
  0
LINE
  8
1
 62
7
  6
CONTINUOUS
 10
63.604789
 20
140.295182
 11
64.837505
 21
137.312248
  0
LINE
  8
1
 62
7
  6
CONTINUOUS
 10
40.153477
 20
106.836284
 11
51.070908
 21
106.836284
  0
LINE
  8
1
 62
7
  6
CONTINUOUS
 10
47.870908
 20
106.414996
 11
47.870908
 21
107.257572
  0
LINE
  8
1
 62
7
  6
CONTINUOUS
 10
47.870908
 20
107.257572
 11
51.070908
 21
106.836284
  0
LINE
  8
1
 62
7
  6
CONTINUOUS
 10
51.070908
 20
106.836284
 11
47.870908
 21
106.414996
  0
TEXT
  8
1
 62
7
  6
CONTINUOUS
 10
119.332742
 20
34.874850
 40
1.600000
 41
0.720000
  1
(JST)
  7
KANJI
 50
0.000000
 51
0.000000
  0
TEXT
  8
1
 62
7
  6
CONTINUOUS
 10
118.275501
 20
37.274850
 40
2.400000
 41
0.900000
  1
PHR-11
  7
KANJI
 50
0.000000
 51
0.000000
  0
TEXT
  8
1
 62
7
  6
CONTINUOUS
 10
94.875501
 20
34.874850
 40
1.600000
 41
0.720000
  1
HOUSING
  7
KANJI
 50
0.000000
 51
0.000000
  0
TEXT
  8
1
 62
7
  6
CONTINUOUS
 10
94.075501
 20
37.274850
 40
2.400000
 41
1.215000
  1
ânâEâWâôâO
  7
KANJI
 50
0.000000
 51
0.000000
  0
TEXT
  8
1
 62
7
  6
CONTINUOUS
 10
108.472519
 20
91.530090
 40
2.400000
 41
0.900000
  1
UL3266 AWG26
  7
KANJI
 50
0.000000
 51
0.000000
  0
TEXT
  8
1
 62
7
  6
CONTINUOUS
 10
80.272519
 20
91.530090
 40
2.400000
 41
1.215000
  1
âèü|âhÉ³Ädùl
  7
KANJI
 50
0.000000
 51
0.000000
  0
TEXT
  8
1
 62
7
  6
CONTINUOUS
 10
81.072519
 20
89.130090
 40
1.600000
 41
0.720000
  1
LEAD WIRE
  7
KANJI
 50
0.000000
 51
0.000000
  0
TEXT
  8
1
 62
7
  6
CONTINUOUS
 10
157.742924
 20
38.566288
 40
4.000000
 41
0.900000
  1
òtæ«òiüFâRâlâNâ^ü[âèü[âh
  7
KANJI
 50
0.000000
 51
0.000000
  0
TEXT
  8
1
 62
7
  6
CONTINUOUS
 10
157.742924
 20
32.521826
 40
3.000000
 41
0.540000
  1
ATTACHMENT:CONNECTOR LEAD
  7
KANJI
 50
0.000000
 51
0.000000
  0
TEXT
  8
1
 62
7
  6
CONTINUOUS
 10
154.361206
 20
217.397378
 40
5.000000
 41
0.720000
  1
âlü|âÇâvâîü|âg
  7
KANJI
 50
0.000000
 51
0.000000
  0
TEXT
  8
1
 62
7
  6
CONTINUOUS
 10
183.636842
 20
218.397378
 40
3.000000
 41
0.720000
  1
(NAME PLATE)
  7
KANJI
 50
0.000000
 51
0.000000
  0
TEXT
  8
1
 62
7
  6
CONTINUOUS
 10
39.935389
 20
108.989462
 40
2.500000
 41
0.900000
  1
3
  7
KANJI
 50
0.000000
 51
0.000000
  0
TEXT
  8
1
 62
7
  6
CONTINUOUS
 10
51.935389
 20
108.989462
 40
2.500000
 41
0.900000
  1
9
  7
KANJI
 50
0.000000
 51
0.000000
  0
TEXT
  8
1
 62
7
  6
CONTINUOUS
 10
47.935389
 20
108.989462
 40
2.500000
 41
0.900000
  1
7
  7
KANJI
 50
0.000000
 51
0.000000
  0
TEXT
  8
1
 62
7
  6
CONTINUOUS
 10
43.935389
 20
108.989462
 40
2.500000
 41
0.900000
  1
5
  7
KANJI
 50
0.000000
 51
0.000000
  0
TEXT
  8
1
 62
7
  6
CONTINUOUS
 10
23.897454
 20
101.954216
 40
2.000000
 41
0.810000
  1
PIN NO.
  7
KANJI
 50
0.000000
 51
0.000000
  0
TEXT
  8
1
 62
7
  6
CONTINUOUS
 10
23.897454
 20
105.336284
 40
3.000000
 41
0.900000
  1
âsâôöÈìå
  7
KANJI
 50
0.000000
 51
0.000000
  0
TEXT
  8
1
 62
7
  6
CONTINUOUS
 10
76.363286
 20
110.981888
 40
3.500000
 41
0.900000
  1
4-M3ü~0.5
  7
KANJI
 50
0.000000
 51
0.000000
  0
TEXT
  8
1
 62
7
  6
CONTINUOUS
 10
74.246237
 20
105.214173
 40
3.500000
 41
0.540000
  1
É[é▀(DEPTH) 4.5MIN.
  7
KANJI
 50
0.000975
 51
0.000000
  0
LINE
  8
128
 62
7
  6
CONTINUOUS
 10
26.110388
 20
202.918199
 11
68.110389
 21
202.918199
  0
LINE
  8
128
 62
7
  6
CONTINUOUS
 10
26.110388
 20
173.918201
 11
26.110388
 21
203.918199
  0
LINE
  8
128
 62
7
  6
CONTINUOUS
 10
68.110389
 20
173.918199
 11
68.110389
 21
203.918199
  0
LINE
  8
128
 62
7
  6
CONTINUOUS
 10
26.110388
 20
202.918199
 11
29.310388
 21
203.334199
  0
LINE
  8
128
 62
7
  6
CONTINUOUS
 10
29.310388
 20
203.334199
 11
29.310388
 21
202.502199
  0
LINE
  8
128
 62
7
  6
CONTINUOUS
 10
29.310388
 20
202.502199
 11
26.110388
 21
202.918199
  0
LINE
  8
128
 62
7
  6
CONTINUOUS
 10
68.110389
 20
202.918199
 11
64.910389
 21
202.502199
  0
LINE
  8
128
 62
7
  6
CONTINUOUS
 10
64.910389
 20
202.502199
 11
64.910389
 21
203.334199
  0
LINE
  8
128
 62
7
  6
CONTINUOUS
 10
64.910389
 20
203.334199
 11
68.110389
 21
202.918199
  0
TEXT
  8
128
 62
7
  6
CONTINUOUS
 10
44.710388
 20
204.518199
 40
3.200000
 41
0.900000
  1
42
  7
KANJI
 50
0.000000
 51
0.000000
  0
TEXT
  8
128
 62
7
  6
CONTINUOUS
 10
42.630388
 20
204.518199
 40
3.200000
 41
0.900000
  1
(
  7
KANJI
 50
0.000000
 51
0.000000
  0
TEXT
  8
128
 62
7
  6
CONTINUOUS
 10
51.110388
 20
204.518199
 40
3.200000
 41
0.900000
  1
)
  7
KANJI
 50
0.000000
 51
0.000000
  0
LINE
  8
128
 62
7
  6
CONTINUOUS
 10
31.610399
 20
192.918199
 11
62.610389
 21
192.918199
  0
LINE
  8
128
 62
7
  6
CONTINUOUS
 10
62.610389
 20
174.918199
 11
62.610389
 21
193.918199
  0
LINE
  8
128
 62
7
  6
CONTINUOUS
 10
31.610399
 20
174.918199
 11
31.610399
 21
193.918199
  0
LINE
  8
128
 62
7
  6
CONTINUOUS
 10
31.610399
 20
192.918199
 11
34.810399
 21
193.334199
  0
LINE
  8
128
 62
7
  6
CONTINUOUS
 10
34.810399
 20
193.334199
 11
34.810399
 21
192.502199
  0
LINE
  8
128
 62
7
  6
CONTINUOUS
 10
34.810399
 20
192.502199
 11
31.610399
 21
192.918199
  0
LINE
  8
128
 62
7
  6
CONTINUOUS
 10
62.610389
 20
192.918199
 11
59.410389
 21
192.502199
  0
LINE
  8
128
 62
7
  6
CONTINUOUS
 10
59.410389
 20
192.502199
 11
59.410389
 21
193.334199
  0
LINE
  8
128
 62
7
  6
CONTINUOUS
 10
59.410389
 20
193.334199
 11
62.610389
 21
192.918199
  0
TEXT
  8
128
 62
7
  6
CONTINUOUS
 10
41.486389
 20
194.518199
 40
3.200000
 41
0.900000
  1
31
  7
KANJI
 50
0.000000
 51
0.000000
  0
TEXT
  8
128
 62
7
  6
CONTINUOUS
 10
46.926389
 20
195.158199
 40
1.920000
 41
0.900000
  1
ü}0.2
  7
KANJI
 50
0.000000
 51
0.000000
  0
LINE
  8
1
 62
7
  6
CONTINUOUS
 10
80.686966
 20
141.418199
 11
80.686966
 21
172.418199
  0
LINE
  8
1
 62
7
  6
CONTINUOUS
 10
66.110389
 20
172.418199
 11
81.686966
 21
172.418199
  0
LINE
  8
1
 62
7
  6
CONTINUOUS
 10
66.110389
 20
141.418199
 11
81.686966
 21
141.418199
  0
LINE
  8
1
 62
7
  6
CONTINUOUS
 10
80.686966
 20
172.418199
 11
81.102966
 21
169.218199
  0
LINE
  8
1
 62
7
  6
CONTINUOUS
 10
81.102966
 20
169.218199
 11
80.270966
 21
169.218199
  0
LINE
  8
1
 62
7
  6
CONTINUOUS
 10
80.270966
 20
169.218199
 11
80.686966
 21
172.418199
  0
LINE
  8
1
 62
7
  6
CONTINUOUS
 10
80.686966
 20
141.418199
 11
80.270966
 21
144.618199
  0
LINE
  8
1
 62
7
  6
CONTINUOUS
 10
80.270966
 20
144.618199
 11
81.102966
 21
144.618199
  0
LINE
  8
1
 62
7
  6
CONTINUOUS
 10
81.102966
 20
144.618199
 11
80.686966
 21
141.418199
  0
TEXT
  8
1
 62
7
  6
CONTINUOUS
 10
78.686966
 20
150.693880
 40
3.200000
 41
0.900000
  1
31
  7
KANJI
 50
90.000000
 51
0.000000
  0
TEXT
  8
1
 62
7
  6
CONTINUOUS
 10
78.046966
 20
156.133880
 40
1.920000
 41
0.900000
  1
ü}0.2
  7
KANJI
 50
90.000000
 51
0.000000
  0
LINE
  8
1
 62
7
  6
CONTINUOUS
 10
130.945776
 20
207.918199
 11
154.945764
 21
207.918199
  0
LINE
  8
1
 62
7
  6
CONTINUOUS
 10
154.945764
 20
177.918199
 11
154.945764
 21
208.918199
  0
LINE
  8
1
 62
7
  6
CONTINUOUS
 10
130.945776
 20
160.418199
 11
130.945776
 21
208.918199
  0
LINE
  8
1
 62
7
  6
CONTINUOUS
 10
130.945776
 20
207.918199
 11
134.145776
 21
208.334199
  0
LINE
  8
1
 62
7
  6
CONTINUOUS
 10
134.145776
 20
208.334199
 11
134.145776
 21
207.502199
  0
LINE
  8
1
 62
7
  6
CONTINUOUS
 10
134.145776
 20
207.502199
 11
130.945776
 21
207.918199
  0
LINE
  8
1
 62
7
  6
CONTINUOUS
 10
154.945764
 20
207.918199
 11
151.745764
 21
207.502199
  0
LINE
  8
1
 62
7
  6
CONTINUOUS
 10
151.745764
 20
207.502199
 11
151.745764
 21
208.334199
  0
LINE
  8
1
 62
7
  6
CONTINUOUS
 10
151.745764
 20
208.334199
 11
154.945764
 21
207.918199
  0
TEXT
  8
1
 62
7
  6
CONTINUOUS
 10
138.572270
 20
209.918199
 40
3.200000
 41
0.900000
  1
24
  7
KANJI
 50
0.000000
 51
0.000000
  0
TEXT
  8
1
 62
7
  6
CONTINUOUS
 10
144.972270
 20
210.558199
 40
1.920000
 41
0.900000
  1
ü}0.5
  7
KANJI
 50
0.000000
 51
0.000000
  0
LINE
  8
128
 62
7
  6
CONTINUOUS
 10
154.945764
 20
207.918199
 11
193.845764
 21
207.918199
  0
LINE
  8
128
 62
7
  6
CONTINUOUS
 10
193.845764
 20
177.918199
 11
193.845764
 21
208.918199
  0
LINE
  8
128
 62
7
  6
CONTINUOUS
 10
154.945764
 20
177.549191
 11
154.945764
 21
208.918199
  0
LINE
  8
128
 62
7
  6
CONTINUOUS
 10
154.945764
 20
207.918199
 11
158.145764
 21
208.334199
  0
LINE
  8
128
 62
7
  6
CONTINUOUS
 10
158.145764
 20
208.334199
 11
158.145764
 21
207.502199
  0
LINE
  8
128
 62
7
  6
CONTINUOUS
 10
158.145764
 20
207.502199
 11
154.945764
 21
207.918199
  0
LINE
  8
128
 62
7
  6
CONTINUOUS
 10
193.845764
 20
207.918199
 11
190.645764
 21
207.502199
  0
LINE
  8
128
 62
7
  6
CONTINUOUS
 10
190.645764
 20
207.502199
 11
190.645764
 21
208.334199
  0
LINE
  8
128
 62
7
  6
CONTINUOUS
 10
190.645764
 20
208.334199
 11
193.845764
 21
207.918199
  0
TEXT
  8
128
 62
7
  6
CONTINUOUS
 10
165.441493
 20
209.518199
 40
3.200000
 41
0.900000
  1
40
  7
KANJI
 50
0.000000
 51
0.000000
  0
TEXT
  8
128
 62
7
  6
CONTINUOUS
 10
171.841493
 20
209.518199
 40
3.200000
 41
0.900000
  1
MAX.
  7
KANJI
 50
0.000000
 51
0.000000
  0
LINE
  8
128
 62
7
  6
CONTINUOUS
 10
146.545764
 20
187.770445
 11
152.945764
 21
187.770445
  0
LINE
  8
128
 62
7
  6
CONTINUOUS
 10
152.945764
 20
187.770445
 11
154.945764
 21
187.770445
  0
LINE
  8
128
 62
7
  6
CONTINUOUS
 10
154.945764
 20
187.770445
 11
168.259105
 21
187.770445
  0
LINE
  8
128
 62
7
  6
CONTINUOUS
 10
152.945764
 20
168.918199
 11
152.945764
 21
188.770445
  0
LINE
  8
128
 62
7
  6
CONTINUOUS
 10
154.945764
 20
177.549191
 11
154.945764
 21
188.770445
  0
LINE
  8
128
 62
7
  6
CONTINUOUS
 10
152.945764
 20
187.770445
 11
149.745764
 21
187.354445
  0
LINE
  8
128
 62
7
  6
CONTINUOUS
 10
149.745764
 20
187.354445
 11
149.745764
 21
188.186445
  0
LINE
  8
128
 62
7
  6
CONTINUOUS
 10
149.745764
 20
188.186445
 11
152.945764
 21
187.770445
  0
LINE
  8
128
 62
7
  6
CONTINUOUS
 10
154.945764
 20
187.770445
 11
158.145764
 21
188.186445
  0
LINE
  8
128
 62
7
  6
CONTINUOUS
 10
158.145764
 20
188.186445
 11
158.145764
 21
187.354445
  0
LINE
  8
128
 62
7
  6
CONTINUOUS
 10
158.145764
 20
187.354445
 11
154.945764
 21
187.770445
  0
TEXT
  8
128
 62
7
  6
CONTINUOUS
 10
158.931105
 20
189.370445
 40
3.200000
 41
0.900000
  1
2
  7
KANJI
 50
0.000000
 51
0.000000
  0
TEXT
  8
128
 62
7
  6
CONTINUOUS
 10
162.451105
 20
190.010445
 40
1.920000
 41
0.900000
  1
ü}0.2
  7
KANJI
 50
0.000000
 51
0.000000
  0
LINE
  8
128
 62
7
  6
CONTINUOUS
 10
110.945766
 20
145.918199
 11
110.945766
 21
167.918199
  0
LINE
  8
128
 62
7
  6
CONTINUOUS
 10
151.945764
 20
167.918199
 11
109.945766
 21
167.918199
  0
LINE
  8
128
 62
7
  6
CONTINUOUS
 10
151.945664
 20
145.918199
 11
109.945766
 21
145.918199
  0
LINE
  8
128
 62
7
  6
CONTINUOUS
 10
110.945766
 20
167.918199
 11
111.361766
 21
164.718199
  0
LINE
  8
128
 62
7
  6
CONTINUOUS
 10
111.361766
 20
164.718199
 11
110.529766
 21
164.718199
  0
LINE
  8
128
 62
7
  6
CONTINUOUS
 10
110.529766
 20
164.718199
 11
110.945766
 21
167.918199
  0
LINE
  8
128
 62
7
  6
CONTINUOUS
 10
110.945766
 20
145.918199
 11
110.529766
 21
149.118199
  0
LINE
  8
128
 62
7
  6
CONTINUOUS
 10
110.529766
 20
149.118199
 11
111.361766
 21
149.118199
  0
LINE
  8
128
 62
7
  6
CONTINUOUS
 10
111.361766
 20
149.118199
 11
110.945766
 21
145.918199
  0
TEXT
  8
128
 62
7
  6
CONTINUOUS
 10
108.545766
 20
152.585243
 40
3.200000
 41
0.900000
  1
22
  7
KANJI
 50
90.000000
 51
0.000000
  0
TEXT
  8
128
 62
7
  6
CONTINUOUS
 10
106.465766
 20
160.521243
 40
1.920000
 41
0.900000
  1
0
  7
KANJI
 50
90.000000
 51
0.000000
  0
TEXT
  8
128
 62
7
  6
CONTINUOUS
 10
109.345766
 20
158.985243
 40
1.920000
 41
0.900000
  1
-0.05
  7
KANJI
 50
90.000000
 51
0.000000
  0
TEXT
  8
128
 62
7
  6
CONTINUOUS
 10
108.545766
 20
148.745243
 40
3.200000
 41
0.900000
  1
âË
  7
KANJI
 50
90.000000
 51
0.000000
  0
LINE
  8
1
 62
7
  6
CONTINUOUS
 10
120.945868
 20
159.418199
 11
120.945868
 21
186.918584
  0
LINE
  8
1
 62
7
  6
CONTINUOUS
 10
120.945868
 20
154.418199
 11
120.945868
 21
159.418199
  0
LINE
  8
1
 62
7
  6
CONTINUOUS
 10
120.945868
 20
148.018199
 11
120.945868
 21
154.418199
  0
LINE
  8
1
 62
7
  6
CONTINUOUS
 10
129.945776
 20
159.418199
 11
119.945868
 21
159.418199
  0
LINE
  8
1
 62
7
  6
CONTINUOUS
 10
129.945753
 20
154.418199
 11
119.945868
 21
154.418199
  0
LINE
  8
1
 62
7
  6
CONTINUOUS
 10
120.945868
 20
159.418199
 11
120.529868
 21
162.618199
  0
LINE
  8
1
 62
7
  6
CONTINUOUS
 10
120.529868
 20
162.618199
 11
121.361868
 21
162.618199
  0
LINE
  8
1
 62
7
  6
CONTINUOUS
 10
121.361868
 20
162.618199
 11
120.945868
 21
159.418199
  0
LINE
  8
1
 62
7
  6
CONTINUOUS
 10
120.945868
 20
154.418199
 11
121.361868
 21
151.218199
  0
LINE
  8
1
 62
7
  6
CONTINUOUS
 10
121.361868
 20
151.218199
 11
120.529868
 21
151.218199
  0
LINE
  8
1
 62
7
  6
CONTINUOUS
 10
120.529868
 20
151.218199
 11
120.945868
 21
154.418199
  0
TEXT
  8
1
 62
7
  6
CONTINUOUS
 10
118.145868
 20
176.054584
 40
3.200000
 41
0.900000
  1
5
  7
KANJI
 50
90.000000
 51
0.000000
  0
TEXT
  8
1
 62
7
  6
CONTINUOUS
 10
116.065868
 20
179.574584
 40
1.920000
 41
0.900000
  1
 0
  7
KANJI
 50
90.000000
 51
0.000000
  0
TEXT
  8
1
 62
7
  6
CONTINUOUS
 10
118.945868
 20
179.574584
 40
1.920000
 41
0.900000
  1
-0.011
  7
KANJI
 50
90.000000
 51
0.000000
  0
TEXT
  8
1
 62
7
  6
CONTINUOUS
 10
118.145868
 20
172.410140
 40
3.200000
 41
0.900000
  1
âË
  7
KANJI
 50
90.000000
 51
0.000000
  0
LINE
  8
1
 62
7
  6
CONTINUOUS
 10
210.530495
 20
81.323041
 11
197.449652
 21
81.323041
  0
LINE
  8
1
 62
7
  6
CONTINUOUS
 10
210.530495
 20
81.323041
 11
214.030495
 21
81.323041
  0
LINE
  8
1
 62
7
  6
CONTINUOUS
 10
214.030495
 20
70.086103
 11
214.030495
 21
82.823041
  0
LINE
  8
1
 62
7
  6
CONTINUOUS
 10
210.530495
 20
70.406103
 11
210.530495
 21
82.823041
  0
LINE
  8
1
 62
7
  6
CONTINUOUS
 10
210.530495
 20
81.323041
 11
207.330495
 21
80.907041
  0
LINE
  8
1
 62
7
  6
CONTINUOUS
 10
207.330495
 20
80.907041
 11
207.330495
 21
81.739041
  0
LINE
  8
1
 62
7
  6
CONTINUOUS
 10
207.330495
 20
81.739041
 11
210.530495
 21
81.323041
  0
LINE
  8
1
 62
7
  6
CONTINUOUS
 10
214.030495
 20
81.323041
 11
217.230495
 21
81.739041
  0
LINE
  8
1
 62
7
  6
CONTINUOUS
 10
217.230495
 20
81.739041
 11
217.230495
 21
80.907041
  0
LINE
  8
1
 62
7
  6
CONTINUOUS
 10
217.230495
 20
80.907041
 11
214.030495
 21
81.323041
  0
TEXT
  8
1
 62
7
  6
CONTINUOUS
 10
197.449652
 20
83.323041
 40
3.200000
 41
0.900000
  1
(3.5)
  7
KANJI
 50
0.000000
 51
0.000000
  0
LINE
  8
1
 62
7
  6
CONTINUOUS
 10
154.112430
 20
95.990914
 11
214.030495
 21
95.990914
  0
LINE
  8
1
 62
7
  6
CONTINUOUS
 10
214.030495
 20
69.786103
 11
214.030495
 21
97.490914
  0
LINE
  8
1
 62
7
  6
CONTINUOUS
 10
154.112430
 20
75.736103
 11
154.112430
 21
97.490914
  0
LINE
  8
1
 62
7
  6
CONTINUOUS
 10
214.030495
 20
95.990914
 11
210.830495
 21
95.574914
  0
LINE
  8
1
 62
7
  6
CONTINUOUS
 10
210.830495
 20
95.574914
 11
210.830495
 21
96.406914
  0
LINE
  8
1
 62
7
  6
CONTINUOUS
 10
210.830495
 20
96.406914
 11
214.030495
 21
95.990914
  0
LINE
  8
1
 62
7
  6
CONTINUOUS
 10
154.112430
 20
95.990914
 11
157.312430
 21
96.406914
  0
LINE
  8
1
 62
7
  6
CONTINUOUS
 10
157.312430
 20
96.406914
 11
157.312430
 21
95.574914
  0
LINE
  8
1
 62
7
  6
CONTINUOUS
 10
157.312430
 20
95.574914
 11
154.112430
 21
95.990914
  0
TEXT
  8
1
 62
7
  6
CONTINUOUS
 10
177.157889
 20
98.790914
 40
3.200000
 41
0.900000
  1
300
  7
KANJI
 50
0.000000
 51
0.000000
  0
TEXT
  8
1
 62
7
  6
CONTINUOUS
 10
186.437889
 20
100.870914
 40
1.920000
 41
0.900000
  1
+40
  7
KANJI
 50
0.000000
 51
0.000000
  0
TEXT
  8
1
 62
7
  6
CONTINUOUS
 10
188.165889
 20
97.990914
 40
1.920000
 41
0.900000
  1
 0
  7
KANJI
 50
0.000000
 51
0.000000
  0
LINE
  8
1
 62
7
  6
CONTINUOUS
 10
89.202763
 20
131.368199
 11
89.202763
 21
118.592890
  0
LINE
  8
1
 62
7
  6
CONTINUOUS
 10
89.202763
 20
131.368199
 11
89.202763
 21
135.918201
  0
LINE
  8
1
 62
7
  6
CONTINUOUS
 10
89.202763
 20
142.318201
 11
89.202763
 21
135.918201
  0
LINE
  8
1
 62
7
  6
CONTINUOUS
 10
64.110388
 20
135.918201
 11
90.702763
 21
135.918201
  0
LINE
  8
1
 62
7
  6
CONTINUOUS
 10
60.060389
 20
131.368199
 11
90.702763
 21
131.368199
  0
LINE
  8
1
 62
7
  6
CONTINUOUS
 10
89.202763
 20
135.918201
 11
88.786763
 21
139.118201
  0
LINE
  8
1
 62
7
  6
CONTINUOUS
 10
88.786763
 20
139.118201
 11
89.618763
 21
139.118201
  0
LINE
  8
1
 62
7
  6
CONTINUOUS
 10
89.618763
 20
139.118201
 11
89.202763
 21
135.918201
  0
LINE
  8
1
 62
7
  6
CONTINUOUS
 10
89.202763
 20
131.368199
 11
89.618763
 21
128.168199
  0
LINE
  8
1
 62
7
  6
CONTINUOUS
 10
89.618763
 20
128.168199
 11
88.786763
 21
128.168199
  0
LINE
  8
1
 62
7
  6
CONTINUOUS
 10
88.786763
 20
128.168199
 11
89.202763
 21
131.368199
  0
TEXT
  8
1
 62
7
  6
CONTINUOUS
 10
87.202763
 20
120.672890
 40
3.200000
 41
0.900000
  1
4.6
  7
KANJI
 50
90.000000
 51
0.000000
  0
TEXT
  8
1
 62
7
  6
CONTINUOUS
 10
87.202763
 20
118.592890
 40
3.200000
 41
0.900000
  1
(
  7
KANJI
 50
90.000000
 51
0.000000
  0
TEXT
  8
1
 62
7
  6
CONTINUOUS
 10
87.202763
 20
128.112890
 40
3.200000
 41
0.900000
  1
)
  7
KANJI
 50
90.000000
 51
0.000000
  0
LINE
  8
1
 62
7
  6
CONTINUOUS
 10
22.878333
 20
142.318210
 11
22.878333
 21
135.918210
  0
LINE
  8
1
 62
7
  6
CONTINUOUS
 10
22.878333
 20
129.418199
 11
22.878333
 21
135.918210
  0
LINE
  8
1
 62
7
  6
CONTINUOUS
 10
22.878333
 20
129.418199
 11
22.878333
 21
113.499605
  0
LINE
  8
1
 62
7
  6
CONTINUOUS
 10
34.160389
 20
129.418199
 11
21.378333
 21
129.418199
  0
LINE
  8
1
 62
7
  6
CONTINUOUS
 10
30.110379
 20
135.918210
 11
21.378333
 21
135.918210
  0
LINE
  8
1
 62
7
  6
CONTINUOUS
 10
22.878333
 20
135.918210
 11
22.462333
 21
139.118210
  0
LINE
  8
1
 62
7
  6
CONTINUOUS
 10
22.462333
 20
139.118210
 11
23.294333
 21
139.118210
  0
LINE
  8
1
 62
7
  6
CONTINUOUS
 10
23.294333
 20
139.118210
 11
22.878333
 21
135.918210
  0
LINE
  8
1
 62
7
  6
CONTINUOUS
 10
22.878333
 20
129.418199
 11
23.294333
 21
126.218199
  0
LINE
  8
1
 62
7
  6
CONTINUOUS
 10
23.294333
 20
126.218199
 11
22.462333
 21
126.218199
  0
LINE
  8
1
 62
7
  6
CONTINUOUS
 10
22.462333
 20
126.218199
 11
22.878333
 21
129.418199
  0
TEXT
  8
1
 62
7
  6
CONTINUOUS
 10
20.878333
 20
118.779605
 40
3.200000
 41
0.900000
  1
6.5
  7
KANJI
 50
90.000000
 51
0.000000
  0
TEXT
  8
1
 62
7
  6
CONTINUOUS
 10
20.878333
 20
113.499605
 40
3.200000
 41
0.900000
  1
üª(
  7
KANJI
 50
90.000000
 51
0.000000
  0
TEXT
  8
1
 62
7
  6
CONTINUOUS
 10
20.878333
 20
126.219605
 40
3.200000
 41
0.900000
  1
)
  7
KANJI
 50
90.000000
 51
0.000000
  0
LINE
  8
1
 62
7
  6
CONTINUOUS
 10
89.202763
 20
135.918201
 11
89.202763
 21
177.918199
  0
LINE
  8
1
 62
7
  6
CONTINUOUS
 10
64.110389
 20
177.918199
 11
90.702763
 21
177.918199
  0
LINE
  8
1
 62
7
  6
CONTINUOUS
 10
64.110388
 20
135.918201
 11
90.702763
 21
135.918201
  0
LINE
  8
1
 62
7
  6
CONTINUOUS
 10
89.202763
 20
177.918199
 11
89.618763
 21
174.718199
  0
LINE
  8
1
 62
7
  6
CONTINUOUS
 10
89.618763
 20
174.718199
 11
88.786763
 21
174.718199
  0
LINE
  8
1
 62
7
  6
CONTINUOUS
 10
88.786763
 20
174.718199
 11
89.202763
 21
177.918199
  0
LINE
  8
1
 62
7
  6
CONTINUOUS
 10
89.202763
 20
135.918201
 11
88.786763
 21
139.118201
  0
LINE
  8
1
 62
7
  6
CONTINUOUS
 10
88.786763
 20
139.118201
 11
89.618763
 21
139.118201
  0
LINE
  8
1
 62
7
  6
CONTINUOUS
 10
89.618763
 20
139.118201
 11
89.202763
 21
135.918201
  0
TEXT
  8
1
 62
7
  6
CONTINUOUS
 10
87.202763
 20
154.039534
 40
3.200000
 41
0.900000
  1
42
  7
KANJI
 50
90.000000
 51
0.000000
  0
TEXT
  8
1
 62
7
  6
CONTINUOUS
 10
87.202763
 20
151.959534
 40
3.200000
 41
0.900000
  1
(
  7
KANJI
 50
90.000000
 51
0.000000
  0
TEXT
  8
1
 62
7
  6
CONTINUOUS
 10
87.202763
 20
160.439534
 40
3.200000
 41
0.900000
  1
)
  7
KANJI
 50
90.000000
 51
0.000000
  0
LINE
  8
1
 62
7
  6
CONTINUOUS
 10
189.718445
 20
180.528812
 11
183.718445
 21
180.528812
  0
LINE
  8
1
 62
7
  6
CONTINUOUS
 10
183.718445
 20
186.528812
 11
189.718445
 21
186.528812
  0
LINE
  8
1
 62
7
  6
CONTINUOUS
 10
184.218445
 20
183.528812
 11
186.718445
 21
182.028812
  0
LINE
  8
1
 62
7
  6
CONTINUOUS
 10
189.218445
 20
183.528812
 11
184.218445
 21
183.528812
  0
LINE
  8
1
 62
7
  6
CONTINUOUS
 10
186.718445
 20
182.028812
 11
186.718445
 21
184.528812
  0
LINE
  8
1
 62
7
  6
CONTINUOUS
 10
183.718445
 20
206.528812
 11
189.718445
 21
206.528812
  0
LINE
  8
1
 62
7
  6
CONTINUOUS
 10
183.718445
 20
180.528812
 11
183.718445
 21
206.528812
  0
LINE
  8
1
 62
7
  6
CONTINUOUS
 10
189.718445
 20
206.528812
 11
189.718445
 21
180.528812
  0
TEXT
  8
1
 62
7
  6
CONTINUOUS
 10
188.718445
 20
187.575558
 40
4.000000
 41
0.900000
  1
òÂÄÜé╠î³é½
  7
KANJI
 50
90.000000
 51
0.000000
  0
TEXT
  8
1
 62
7
  6
CONTINUOUS
 10
179.212163
 20
186.266182
 40
2.000000
 41
0.900000
  1
DIRECTION
  7
KANJI
 50
90.000000
 51
0.000000
  0
TEXT
  8
1
 62
7
  6
CONTINUOUS
 10
182.212163
 20
186.266182
 40
2.000000
 41
0.900000
  1
OF LETTER
  7
KANJI
 50
90.000000
 51
0.000000
  0
TEXT
  8
1
 62
7
  6
CONTINUOUS
 10
182.131810
 20
182.749101
 40
5.000000
 41
0.900000
  1
(   )
  7
KANJI
 50
90.000000
 51
0.000000
  0
LINE
  8
1
 62
7
  6
CONTINUOUS
 10
220.000000
 20
81.323041
 11
214.030495
 21
81.323041
  0
ENDSEC
  0
EOF
