  0
SECTION
  2
HEADER
  9
$ACADVER
  1
AC1003
  9
$INSBASE
 10
0.000000
 20
0.000000
  9
$EXTMIN
 10
0.000000
 20
0.000000
  9
$EXTMAX
 10
420.000000
 20
297.000000
  9
$LIMMIN
 10
0.000000
 20
0.000000
  9
$LIMMAX
 10
420.000000
 20
297.000000
  9
$VIEWCTR
 10
210.000000
 20
148.500000
  9
$VIEWSIZE
 40
297.000000
  9
$PEXTMIN
 10
0.000000
 20
0.000000
 30
0.000000
  9
$PEXTMAX
 10
420.000000
 20
297.000000
 30
0.000000
  9
$SNAPMODE
 70
     0
  9
$SNAPUNIT
 10
1.000000
 20
1.000000
  9
$SNAPBASE
 10
0.000000
 20
0.000000
  9
$SNAPANG
 50
0.000000
  9
$SNAPISOPAIR
 70
     0
  9
$SNAPSTYLE
 70
     0
  9
$GRIDMODE
 70
     0
  9
$GRIDUNIT
 10
0.000000
 20
0.000000
  9
$ORTHOMODE
 70
     0
  9
$REGENMODE
 70
     1
  9
$FILLMODE
 70
     1
  9
$QTEXTMODE
 70
     0
  9
$DRAGMODE
 70
     2
  9
$LTSCALE
 40
0.250000
  9
$OSMODE
 70
     0
  9
$ATTMODE
 70
     1
  9
$TEXTSIZE
 40
0.200000
  9
$TRACEWID
 40
0.050000
  9
$TEXTSTYLE
  7
STANDARD
  9
$CLAYER
  8
0
  9
$CELTYPE
  6
BYLAYER
  9
$CECOLOR
 62
   256
  9
$DIMSCALE
 40
1.000000
  9
$DIMASZ
 40
1.000000
  9
$DIMEXO
 40
0.000000
  9
$DIMDLI
 40
0.500000
  9
$DIMRND
 40
0.000000
  9
$DIMDLE
 40
0.000000
  9
$DIMEXE
 40
0.000000
  9
$DIMTP
 40
0.000000
  9
$DIMTM
 40
0.000000
  9
$DIMTXT
 40
0.180000
  9
$DIMCEN
 40
0.000000
  9
$DIMTSZ
 40
0.000000
  9
$DIMTOL
 70
     0
  9
$DIMLIM
 70
     0
  9
$DIMTIH
 70
     1
  9
$DIMTOH
 70
     1
  9
$DIMSE1
 70
     0
  9
$DIMSE2
 70
     0
  9
$DIMTAD
 70
     0
  9
$DIMZIN
 70
     0
  9
$DIMBLK
  1

  9
$DIMASO
 70
     0
  9
$DIMSHO
 70
     0
  9
$DIMPOST
  1

  9
$DIMAPOST
  1

  9
$DIMALT
 70
     0
  9
$DIMALTD
 70
     0
  9
$DIMALTF
 40
25.400000
  9
$DIMLFAC
 40
1.000000
  9
$DIMTOFL
 70
     0
  9
$DIMTVP
 40
0.000000
  9
$DIMTIX
 70
     0
  9
$DIMSOXD
 70
     0
  9
$DIMSAH
 70
     0
  9
$DIMBLKL
  1

  9
$DIMBLKR
  1

  9
$LUNITS
 70
     2
  9
$LUPREC
 70
     2
  9
$AXISMODE
 70
     0
  9
$AXISUNIT
 10
1.000000
 20
1.000000
  9
$SKETCHINC
 40
0.000000
  9
$FILLETRAD
 40
0.000000
  9
$AUNITS
 70
     1
  9
$AUPREC
 70
     2
  9
$MENU
  1
ACAD
  9
$ELEVATION
 40
0.000000
  9
$THICKNESS
 40
0.000000
  9
$VIEWDIR
 10
0.000000
 20
0.000000
 30
1.000000
  9
$LIMCHECK
 70
     1
  9
$BLIPMODE
 70
     1
  9
$CHAMFERA
 40
0.000000
  9
$CHAMFERB
 40
0.000000
  9
$FASTZOOM
 70
     1
  9
$SKPOLY
 70
     0
  9
$TDCREATE
 40
0.000000
  9
$TDUPDATE
 40
0.000000
  9
$TDINDWG
 40
0.000000
  9
$TDUSRTIMER
 40
0.000000
  9
$USRTIMER
 70
     1
  9
$ANGBASE
 50
0.000000
  9
$ANGDIR
 70
     0
  9
$PDMODE
 70
     0
  9
$PDSIZE
 40
0.000000
  9
$PLINEWID
 40
0.000000
  9
$COORDS
 70
     2
  9
$USERI1
 70
     0
  9
$USERI2
 70
     0
  9
$USERI3
 70
     0
  9
$USERI4
 70
     0
  9
$USERI5
 70
     0
  9
$USERR1
 40
0.000000
  9
$USERR2
 40
0.000000
  9
$USERR3
 40
0.000000
  9
$USERR4
 40
0.000000
  9
$USERR5
 40
0.000000
  0
ENDSEC
  0
SECTION
  2
TABLES
  0
TABLE
  2
LTYPE
 70
     5
  0
LTYPE
  2
CONTINUOUS
 70
    64
  3
Solid line
 72
    65
 73
     0
 40
0.0
  0
LTYPE
  2
HIDDEN
 70
    64
  3
------------------------
 72
    65
 73
     2
 40
12.6
 49
8.4
 49
-4.2
  0
LTYPE
  2
DOT
 70
    64
  3
････････････････････････
 72
    65
 73
     2
 40
8.0
 49
6.0
 49
-2.0
  0
LTYPE
  2
DASHDOT
 70
    64
  3
--･--･--･--･--･--･--･--
 72
    65
 73
     4
 40
50.5
 49
30.0
 49
-9.0
 49
2.5
 49
-9.0
  0
LTYPE
  2
DIVIDE
 70
    64
  3
--･･--･･--･･--･･--･･--
 72
    65
 73
     6
 40
58.0
 49
30.0
 49
-9.0
 49
2.5
 49
-5.0
 49
2.5
 49
-9.0
  0
ENDTAB
  0
TABLE
  2
LAYER
 70
4
  0
LAYER
  2
1
 70
64
 62
7
  6
CONTINUOUS
  0
LAYER
  2
2
 70
64
 62
134
  6
CONTINUOUS
  0
LAYER
  2
4
 70
64
 62
54
  6
CONTINUOUS
  0
LAYER
  2
128
 70
64
 62
7
  6
CONTINUOUS
  0
ENDTAB
  0
TABLE
  2
STYLE
 70
     2
  0
STYLE
  2
STANDARD
 70
    64
 40
0.0
 41
1.0
 50
0.0
 71
     0
 42
0.2
  3
TXT
  4

  0
STYLE
  2
KANJI
 70
    64
 40
0.0
 41
1.0
 50
0.0
 71
     0
 42
0.2
  3
TXT
  4
BIGFONT
  0
ENDTAB
  0
TABLE
  2
VIEW
 70
     0
  0
ENDTAB
  0
ENDSEC
  0
SECTION
  2
BLOCKS
  0
ENDSEC
  0
SECTION
  2
ENTITIES
  0
LINE
  8
1
 62
7
  6
CONTINUOUS
 10
29.551572
 20
38.609863
 11
58.901572
 21
38.609863
  0
LINE
  8
1
 62
7
  6
CONTINUOUS
 10
29.551572
 20
39.709863
 11
58.901572
 21
39.709863
  0
LINE
  8
1
 62
7
  6
CONTINUOUS
 10
58.795574
 20
25.077856
 11
58.795574
 21
44.269863
  0
LINE
  8
1
 62
7
  6
CONTINUOUS
 10
59.795574
 20
25.077856
 11
59.795574
 21
44.269863
  0
LINE
  8
1
 62
7
  6
CONTINUOUS
 10
29.445574
 20
42.709863
 11
29.145574
 21
42.709863
  0
LINE
  8
1
 62
7
  6
CONTINUOUS
 10
29.445574
 20
26.609863
 11
29.145574
 21
26.609863
  0
LINE
  8
1
 62
7
  6
CONTINUOUS
 10
29.445574
 20
43.609863
 11
29.445574
 21
42.709863
  0
LINE
  8
1
 62
7
  6
CONTINUOUS
 10
29.145574
 20
43.609863
 11
29.445574
 21
43.609863
  0
LINE
  8
1
 62
7
  6
CONTINUOUS
 10
29.445574
 20
25.709863
 11
29.145574
 21
25.709863
  0
LINE
  8
1
 62
7
  6
CONTINUOUS
 10
29.445574
 20
26.609863
 11
29.445574
 21
25.709863
  0
LINE
  8
1
 62
7
  6
CONTINUOUS
 10
29.445574
 20
28.109863
 11
29.145574
 21
28.109863
  0
LINE
  8
1
 62
7
  6
CONTINUOUS
 10
29.445574
 20
27.709863
 11
29.445574
 21
28.109863
  0
LINE
  8
1
 62
7
  6
CONTINUOUS
 10
29.145574
 20
27.709863
 11
29.445574
 21
27.709863
  0
LINE
  8
1
 62
7
  6
CONTINUOUS
 10
29.445574
 20
29.609863
 11
29.145574
 21
29.609863
  0
LINE
  8
1
 62
7
  6
CONTINUOUS
 10
29.445574
 20
29.209863
 11
29.445574
 21
29.609863
  0
LINE
  8
1
 62
7
  6
CONTINUOUS
 10
29.145574
 20
29.209863
 11
29.445574
 21
29.209863
  0
LINE
  8
1
 62
7
  6
CONTINUOUS
 10
29.445574
 20
31.109863
 11
29.145574
 21
31.109863
  0
LINE
  8
1
 62
7
  6
CONTINUOUS
 10
29.445574
 20
30.709863
 11
29.445574
 21
31.109863
  0
LINE
  8
1
 62
7
  6
CONTINUOUS
 10
29.145574
 20
30.709863
 11
29.445574
 21
30.709863
  0
LINE
  8
1
 62
7
  6
CONTINUOUS
 10
29.445574
 20
32.609863
 11
29.145574
 21
32.609863
  0
LINE
  8
1
 62
7
  6
CONTINUOUS
 10
29.445574
 20
32.209863
 11
29.445574
 21
32.609863
  0
LINE
  8
1
 62
7
  6
CONTINUOUS
 10
29.145574
 20
32.209863
 11
29.445574
 21
32.209863
  0
LINE
  8
1
 62
7
  6
CONTINUOUS
 10
29.445574
 20
34.109863
 11
29.145574
 21
34.109863
  0
LINE
  8
1
 62
7
  6
CONTINUOUS
 10
29.445574
 20
33.709863
 11
29.445574
 21
34.109863
  0
LINE
  8
1
 62
7
  6
CONTINUOUS
 10
29.145574
 20
33.709863
 11
29.445574
 21
33.709863
  0
LINE
  8
1
 62
7
  6
CONTINUOUS
 10
29.445574
 20
35.609863
 11
29.145574
 21
35.609863
  0
LINE
  8
1
 62
7
  6
CONTINUOUS
 10
29.445574
 20
35.209863
 11
29.445574
 21
35.609863
  0
LINE
  8
1
 62
7
  6
CONTINUOUS
 10
29.145574
 20
35.209863
 11
29.445574
 21
35.209863
  0
LINE
  8
1
 62
7
  6
CONTINUOUS
 10
29.445574
 20
37.109863
 11
29.145574
 21
37.109863
  0
LINE
  8
1
 62
7
  6
CONTINUOUS
 10
29.445574
 20
36.709863
 11
29.445574
 21
37.109863
  0
LINE
  8
1
 62
7
  6
CONTINUOUS
 10
29.145574
 20
36.709863
 11
29.445574
 21
36.709863
  0
LINE
  8
1
 62
7
  6
CONTINUOUS
 10
29.445574
 20
38.609863
 11
29.145574
 21
38.609863
  0
LINE
  8
1
 62
7
  6
CONTINUOUS
 10
29.445574
 20
38.209863
 11
29.445574
 21
38.609863
  0
LINE
  8
1
 62
7
  6
CONTINUOUS
 10
29.145574
 20
38.209863
 11
29.445574
 21
38.209863
  0
LINE
  8
1
 62
7
  6
CONTINUOUS
 10
29.445574
 20
40.109863
 11
29.145574
 21
40.109863
  0
LINE
  8
1
 62
7
  6
CONTINUOUS
 10
29.445574
 20
39.709863
 11
29.445574
 21
40.109863
  0
LINE
  8
1
 62
7
  6
CONTINUOUS
 10
29.145574
 20
39.709863
 11
29.445574
 21
39.709863
  0
LINE
  8
1
 62
7
  6
CONTINUOUS
 10
29.445574
 20
41.609863
 11
29.145574
 21
41.609863
  0
LINE
  8
1
 62
7
  6
CONTINUOUS
 10
29.445574
 20
41.209863
 11
29.445574
 21
41.609863
  0
LINE
  8
1
 62
7
  6
CONTINUOUS
 10
29.145574
 20
41.209863
 11
29.445574
 21
41.209863
  0
LINE
  8
1
 62
7
  6
CONTINUOUS
 10
29.145574
 20
25.709863
 11
29.145574
 21
43.609863
  0
LINE
  8
1
 62
7
  6
CONTINUOUS
 10
24.645574
 20
43.109863
 11
26.196480
 21
43.109863
  0
LINE
  8
1
 62
7
  6
CONTINUOUS
 10
24.645574
 20
26.209863
 11
24.645574
 21
43.109863
  0
LINE
  8
1
 62
7
  6
CONTINUOUS
 10
26.196480
 20
26.209863
 11
24.645574
 21
26.209863
  0
LINE
  8
1
 62
7
  6
CONTINUOUS
 10
26.196480
 20
43.109863
 11
28.456899
 21
43.109863
  0
LINE
  8
1
 62
7
  6
CONTINUOUS
 10
29.145574
 20
42.159863
 11
28.456899
 21
42.159863
  0
LINE
  8
1
 62
7
  6
CONTINUOUS
 10
28.456899
 20
27.159863
 11
29.145574
 21
27.159863
  0
LINE
  8
1
 62
7
  6
CONTINUOUS
 10
28.456899
 20
43.109863
 11
28.845574
 21
43.609863
  0
LINE
  8
1
 62
7
  6
CONTINUOUS
 10
28.845574
 20
43.609863
 11
29.145574
 21
43.609863
  0
LINE
  8
1
 62
7
  6
CONTINUOUS
 10
26.196480
 20
43.109863
 11
26.196480
 21
43.609863
  0
LINE
  8
1
 62
7
  6
CONTINUOUS
 10
26.196480
 20
43.609863
 11
28.845574
 21
43.609863
  0
LINE
  8
1
 62
7
  6
CONTINUOUS
 10
26.196480
 20
25.709863
 11
26.196480
 21
26.209863
  0
LINE
  8
1
 62
7
  6
CONTINUOUS
 10
28.845574
 20
25.709863
 11
26.196480
 21
25.709863
  0
LINE
  8
1
 62
7
  6
CONTINUOUS
 10
28.456899
 20
26.209863
 11
26.196480
 21
26.209863
  0
LINE
  8
1
 62
7
  6
CONTINUOUS
 10
28.845574
 20
25.709863
 11
28.456899
 21
26.209863
  0
LINE
  8
1
 62
7
  6
CONTINUOUS
 10
29.145574
 20
25.709863
 11
28.845574
 21
25.709863
  0
LINE
  8
1
 62
7
  6
CONTINUOUS
 10
28.456899
 20
42.159863
 11
28.456899
 21
27.159863
  0
LINE
  8
1
 62
7
  6
CONTINUOUS
 10
29.551572
 20
30.709863
 11
58.901572
 21
30.709863
  0
LINE
  8
1
 62
7
  6
CONTINUOUS
 10
29.551572
 20
29.609863
 11
58.901572
 21
29.609863
  0
LINE
  8
1
 62
7
  6
CONTINUOUS
 10
29.551572
 20
33.709863
 11
58.901572
 21
33.709863
  0
LINE
  8
1
 62
7
  6
CONTINUOUS
 10
29.551572
 20
32.609863
 11
58.901572
 21
32.609863
  0
LINE
  8
1
 62
7
  6
CONTINUOUS
 10
29.551572
 20
36.709863
 11
58.901572
 21
36.709863
  0
LINE
  8
1
 62
7
  6
CONTINUOUS
 10
29.551572
 20
35.609863
 11
58.901572
 21
35.609863
  0
LINE
  8
1
 62
7
  6
CONTINUOUS
 10
59.901572
 20
30.709863
 11
90.286645
 21
30.709863
  0
LINE
  8
1
 62
7
  6
CONTINUOUS
 10
59.901572
 20
29.609863
 11
90.286645
 21
29.609863
  0
LINE
  8
1
 62
7
  6
CONTINUOUS
 10
59.901572
 20
32.609863
 11
90.286645
 21
32.609863
  0
LINE
  8
1
 62
7
  6
CONTINUOUS
 10
59.901572
 20
33.709863
 11
90.286645
 21
33.709863
  0
LINE
  8
1
 62
7
  6
CONTINUOUS
 10
59.901572
 20
35.609863
 11
90.286645
 21
35.609863
  0
LINE
  8
1
 62
7
  6
CONTINUOUS
 10
59.901572
 20
36.709863
 11
90.286645
 21
36.709863
  0
LINE
  8
1
 62
7
  6
CONTINUOUS
 10
59.901572
 20
38.609863
 11
90.286645
 21
38.609863
  0
LINE
  8
1
 62
7
  6
CONTINUOUS
 10
59.901572
 20
39.709863
 11
90.286645
 21
39.709863
  0
LINE
  8
1
 62
7
  6
CONTINUOUS
 10
90.286645
 20
29.609863
 11
90.286645
 21
30.709863
  0
LINE
  8
1
 62
7
  6
CONTINUOUS
 10
90.286645
 20
30.434863
 11
93.786645
 21
30.434863
  0
LINE
  8
1
 62
7
  6
CONTINUOUS
 10
90.286645
 20
30.159863
 11
93.786645
 21
30.159863
  0
LINE
  8
1
 62
7
  6
CONTINUOUS
 10
90.286645
 20
29.884863
 11
93.786645
 21
29.884863
  0
LINE
  8
1
 62
7
  6
CONTINUOUS
 10
90.286645
 20
32.609863
 11
90.286645
 21
33.709863
  0
LINE
  8
1
 62
7
  6
CONTINUOUS
 10
90.286645
 20
33.434863
 11
93.786645
 21
33.434863
  0
LINE
  8
1
 62
7
  6
CONTINUOUS
 10
90.286645
 20
33.159863
 11
93.786645
 21
33.159863
  0
LINE
  8
1
 62
7
  6
CONTINUOUS
 10
90.286645
 20
32.884863
 11
93.786645
 21
32.884863
  0
LINE
  8
1
 62
7
  6
CONTINUOUS
 10
90.286645
 20
35.609863
 11
90.286645
 21
36.709863
  0
LINE
  8
1
 62
7
  6
CONTINUOUS
 10
90.286645
 20
36.434863
 11
93.786645
 21
36.434863
  0
LINE
  8
1
 62
7
  6
CONTINUOUS
 10
90.286645
 20
36.159863
 11
93.786645
 21
36.159863
  0
LINE
  8
1
 62
7
  6
CONTINUOUS
 10
90.286645
 20
35.884863
 11
93.786645
 21
35.884863
  0
LINE
  8
1
 62
7
  6
CONTINUOUS
 10
90.286645
 20
38.609863
 11
90.286645
 21
39.709863
  0
LINE
  8
1
 62
7
  6
CONTINUOUS
 10
90.286645
 20
39.434863
 11
93.786645
 21
39.434863
  0
LINE
  8
1
 62
7
  6
CONTINUOUS
 10
90.286645
 20
39.159863
 11
93.786645
 21
39.159863
  0
LINE
  8
1
 62
7
  6
CONTINUOUS
 10
90.286645
 20
38.884863
 11
93.786645
 21
38.884863
  0
LINE
  8
1
 62
7
  6
CONTINUOUS
 10
24.945574
 20
43.109863
 11
24.945574
 21
26.209863
  0
LINE
  8
1
 62
7
  6
CONTINUOUS
 10
34.692867
 20
12.598361
 11
82.414011
 21
12.598361
  0
LINE
  8
1
 62
7
  6
CONTINUOUS
 10
88.314023
 20
95.275238
 11
88.314023
 21
92.275238
  0
LINE
  8
1
 62
7
  6
CONTINUOUS
 10
86.914023
 20
92.275238
 11
86.914023
 21
95.275238
  0
LINE
  8
1
 62
7
  6
CONTINUOUS
 10
86.814023
 20
95.275238
 11
86.814023
 21
92.275238
  0
LINE
  8
1
 62
7
  6
CONTINUOUS
 10
88.514023
 20
92.775238
 11
88.514023
 21
95.275238
  0
LINE
  8
1
 62
7
  6
CONTINUOUS
 10
88.514023
 20
94.275238
 11
88.314023
 21
94.275238
  0
LINE
  8
1
 62
7
  6
CONTINUOUS
 10
90.536089
 20
94.728196
 11
89.821786
 21
93.322279
  0
LINE
  8
1
 62
7
  6
CONTINUOUS
 10
88.930255
 20
92.775238
 11
88.314023
 21
92.775238
  0
LINE
  8
1
 62
7
  6
CONTINUOUS
 10
86.814023
 20
92.275238
 11
68.814023
 21
92.275238
  0
LINE
  8
1
 62
7
  6
CONTINUOUS
 10
67.314023
 20
92.775238
 11
66.697791
 21
92.775238
  0
LINE
  8
1
 62
7
  6
CONTINUOUS
 10
67.314023
 20
92.275238
 11
67.314023
 21
95.275238
  0
LINE
  8
1
 62
7
  6
CONTINUOUS
 10
68.714023
 20
92.275238
 11
67.314023
 21
92.275238
  0
LINE
  8
1
 62
7
  6
CONTINUOUS
 10
68.714023
 20
95.275238
 11
68.714023
 21
92.275238
  0
LINE
  8
1
 62
7
  6
CONTINUOUS
 10
68.814023
 20
92.275238
 11
68.814023
 21
95.275238
  0
LINE
  8
1
 62
7
  6
CONTINUOUS
 10
67.114023
 20
95.275238
 11
67.114023
 21
92.775238
  0
LINE
  8
1
 62
7
  6
CONTINUOUS
 10
67.114023
 20
94.275238
 11
67.314023
 21
94.275238
  0
LINE
  8
1
 62
7
  6
CONTINUOUS
 10
65.091957
 20
94.728196
 11
65.806259
 21
93.322279
  0
LINE
  8
1
 62
7
  6
CONTINUOUS
 10
67.014578
 20
92.775238
 11
66.697791
 21
92.775238
  0
LINE
  8
1
 62
7
  6
CONTINUOUS
 10
185.109691
 20
99.275223
 11
192.861568
 21
99.275238
  0
LINE
  8
1
 62
7
  6
CONTINUOUS
 10
185.109691
 20
130.275238
 11
192.861568
 21
130.275238
  0
LINE
  8
1
 62
7
  6
HIDDEN
 10
79.814023
 20
91.175238
 11
79.814023
 21
82.275238
  0
LINE
  8
1
 62
7
  6
HIDDEN
 10
75.814023
 20
91.175238
 11
75.814023
 21
82.275238
  0
LINE
  8
1
 62
7
  6
CONTINUOUS
 10
144.004565
 20
112.275238
 11
157.791500
 21
112.275238
  0
LINE
  8
4
 62
54
  6
CONTINUOUS
 10
180.391500
 20
126.775238
 11
180.391500
 21
130.575238
  0
LINE
  8
4
 62
54
  6
CONTINUOUS
 10
179.591500
 20
126.775238
 11
179.591500
 21
130.575238
  0
LINE
  8
4
 62
54
  6
CONTINUOUS
 10
178.791500
 20
126.775238
 11
178.791500
 21
134.275238
  0
LINE
  8
4
 62
54
  6
CONTINUOUS
 10
177.991500
 20
126.775238
 11
177.991500
 21
134.275238
  0
LINE
  8
4
 62
54
  6
CONTINUOUS
 10
177.191500
 20
126.775238
 11
177.191500
 21
134.275238
  0
LINE
  8
4
 62
54
  6
CONTINUOUS
 10
176.391500
 20
126.775238
 11
176.391500
 21
127.600163
  0
LINE
  8
4
 62
54
  6
CONTINUOUS
 10
171.291500
 20
102.775238
 11
171.291500
 21
95.275238
  0
LINE
  8
4
 62
54
  6
CONTINUOUS
 10
167.291500
 20
102.775238
 11
167.291500
 21
98.975238
  0
LINE
  8
4
 62
54
  6
CONTINUOUS
 10
168.091500
 20
102.775238
 11
168.091500
 21
98.975238
  0
LINE
  8
4
 62
54
  6
CONTINUOUS
 10
168.891500
 20
102.775238
 11
168.891500
 21
95.275238
  0
LINE
  8
4
 62
54
  6
CONTINUOUS
 10
170.491500
 20
102.775238
 11
170.491500
 21
95.275238
  0
LINE
  8
4
 62
54
  6
CONTINUOUS
 10
169.691500
 20
102.775238
 11
169.691500
 21
95.275238
  0
LINE
  8
2
 62
134
  6
CONTINUOUS
 10
137.761701
 20
114.775238
 11
194.032330
 21
114.775238
  0
LINE
  8
2
 62
134
  6
CONTINUOUS
 10
93.314023
 20
127.775238
 11
93.314023
 21
132.775238
  0
LINE
  8
2
 62
134
  6
CONTINUOUS
 10
90.814023
 20
130.275238
 11
95.814023
 21
130.275238
  0
LINE
  8
2
 62
134
  6
CONTINUOUS
 10
62.314023
 20
127.775238
 11
62.314023
 21
132.775238
  0
LINE
  8
2
 62
134
  6
CONTINUOUS
 10
64.814023
 20
130.275238
 11
59.814023
 21
130.275238
  0
LINE
  8
2
 62
134
  6
CONTINUOUS
 10
93.314023
 20
101.775238
 11
93.314023
 21
96.775238
  0
LINE
  8
2
 62
134
  6
CONTINUOUS
 10
90.814023
 20
99.275238
 11
95.814023
 21
99.275238
  0
LINE
  8
2
 62
134
  6
CONTINUOUS
 10
62.314023
 20
101.775238
 11
62.314023
 21
96.775238
  0
LINE
  8
2
 62
134
  6
CONTINUOUS
 10
64.814023
 20
99.275238
 11
59.814023
 21
99.275238
  0
LINE
  8
2
 62
134
  6
CONTINUOUS
 10
53.314023
 20
114.775238
 11
102.314023
 21
114.775238
  0
LINE
  8
2
 62
134
  6
CONTINUOUS
 10
77.814023
 20
139.275238
 11
77.814023
 21
89.075238
  0
LINE
  8
1
 62
7
  6
CONTINUOUS
 10
59.139173
 20
134.275238
 11
96.488823
 21
134.275238
  0
LINE
  8
1
 62
7
  6
CONTINUOUS
 10
59.139173
 20
95.275238
 11
96.488823
 21
95.275238
  0
LINE
  8
1
 62
7
  6
CONTINUOUS
 10
97.314023
 20
133.450038
 11
97.314023
 21
96.100338
  0
LINE
  8
1
 62
7
  6
CONTINUOUS
 10
58.314023
 20
133.450038
 11
58.314023
 21
96.100338
  0
LINE
  8
1
 62
7
  6
HIDDEN
 10
76.814023
 20
91.175238
 11
76.814023
 21
82.275238
  0
LINE
  8
1
 62
7
  6
HIDDEN
 10
78.814023
 20
91.175238
 11
78.814023
 21
82.275238
  0
LINE
  8
4
 62
54
  6
CONTINUOUS
 10
174.791500
 20
130.375338
 11
174.791500
 21
134.275238
  0
LINE
  8
4
 62
54
  6
CONTINUOUS
 10
175.591500
 20
128.425338
 11
175.591500
 21
134.275238
  0
LINE
  8
4
 62
54
  6
CONTINUOUS
 10
172.891500
 20
99.175138
 11
172.891500
 21
95.275238
  0
LINE
  8
4
 62
54
  6
CONTINUOUS
 10
172.091500
 20
101.125138
 11
172.091500
 21
95.275238
  0
LINE
  8
1
 62
7
  6
CONTINUOUS
 10
189.791500
 20
133.275238
 11
189.791500
 21
93.775238
  0
LINE
  8
1
 62
7
  6
CONTINUOUS
 10
168.191500
 20
98.975238
 11
166.191500
 21
98.975238
  0
LINE
  8
1
 62
7
  6
CONTINUOUS
 10
187.591500
 20
96.525238
 11
187.591500
 21
102.025238
  0
LINE
  8
1
 62
7
  6
CONTINUOUS
 10
187.591500
 20
127.525238
 11
187.591500
 21
133.025238
  0
LINE
  8
1
 62
7
  6
CONTINUOUS
 10
187.591500
 20
133.025238
 11
188.330601
 21
133.025237
  0
LINE
  8
1
 62
7
  6
CONTINUOUS
 10
187.591500
 20
127.525238
 11
188.330601
 21
127.525238
  0
LINE
  8
1
 62
7
  6
CONTINUOUS
 10
168.191500
 20
95.275238
 11
181.191500
 21
95.275238
  0
LINE
  8
1
 62
7
  6
CONTINUOUS
 10
170.191500
 20
134.275238
 11
179.191500
 21
134.275238
  0
LINE
  8
1
 62
7
  6
CONTINUOUS
 10
181.191500
 20
98.975238
 11
179.191500
 21
98.975238
  0
LINE
  8
1
 62
7
  6
CONTINUOUS
 10
181.191500
 20
130.575238
 11
179.191500
 21
130.575238
  0
LINE
  8
1
 62
7
  6
CONTINUOUS
 10
181.191500
 20
130.575238
 11
181.191500
 21
98.975238
  0
LINE
  8
1
 62
7
  6
CONTINUOUS
 10
159.791500
 20
125.275238
 11
159.791500
 21
103.275238
  0
LINE
  8
1
 62
7
  6
CONTINUOUS
 10
168.191500
 20
95.275238
 11
159.791500
 21
95.275238
  0
LINE
  8
1
 62
7
  6
CONTINUOUS
 10
159.791500
 20
95.275238
 11
159.791500
 21
103.275238
  0
LINE
  8
1
 62
7
  6
CONTINUOUS
 10
159.791500
 20
134.275238
 11
159.791500
 21
125.275238
  0
LINE
  8
1
 62
7
  6
CONTINUOUS
 10
170.191500
 20
134.275238
 11
159.791500
 21
134.275238
  0
LINE
  8
1
 62
7
  6
CONTINUOUS
 10
157.791500
 20
125.775238
 11
157.791500
 21
103.775238
  0
LINE
  8
1
 62
7
  6
CONTINUOUS
 10
157.791500
 20
125.775238
 11
159.791500
 21
125.775238
  0
LINE
  8
1
 62
7
  6
CONTINUOUS
 10
157.791500
 20
103.775238
 11
159.791500
 21
103.775238
  0
LINE
  8
1
 62
7
  6
CONTINUOUS
 10
170.191500
 20
130.575238
 11
166.191500
 21
130.575238
  0
LINE
  8
1
 62
7
  6
CONTINUOUS
 10
188.791500
 20
134.275238
 11
179.191500
 21
134.275238
  0
LINE
  8
1
 62
7
  6
CONTINUOUS
 10
187.591500
 20
133.275238
 11
187.591500
 21
127.652541
  0
LINE
  8
1
 62
7
  6
CONTINUOUS
 10
188.091500
 20
126.786538
 11
189.291495
 21
126.093666
  0
LINE
  8
1
 62
7
  6
CONTINUOUS
 10
187.591500
 20
96.275238
 11
187.591490
 21
101.897941
  0
LINE
  8
1
 62
7
  6
CONTINUOUS
 10
188.091500
 20
102.763938
 11
189.291486
 21
103.456826
  0
LINE
  8
1
 62
7
  6
CONTINUOUS
 10
187.591500
 20
127.525238
 11
187.591500
 21
133.025238
  0
LINE
  8
1
 62
7
  6
CONTINUOUS
 10
187.591500
 20
96.525238
 11
187.591500
 21
102.025238
  0
LINE
  8
1
 62
7
  6
CONTINUOUS
 10
166.191500
 20
98.975238
 11
166.191500
 21
130.575238
  0
LINE
  8
1
 62
7
  6
CONTINUOUS
 10
157.791500
 20
117.275238
 11
144.004565
 21
117.275238
  0
LINE
  8
1
 62
7
  6
CONTINUOUS
 10
170.191500
 20
130.575238
 11
179.191500
 21
130.575238
  0
LINE
  8
1
 62
7
  6
CONTINUOUS
 10
168.191500
 20
98.975238
 11
179.191500
 21
98.975238
  0
LINE
  8
1
 62
7
  6
CONTINUOUS
 10
168.191500
 20
136.445941
 11
179.191500
 21
136.445941
  0
LINE
  8
1
 62
7
  6
CONTINUOUS
 10
66.230781
 20
136.445941
 11
88.234119
 21
136.445941
  0
LINE
  8
1
 62
7
  6
CONTINUOUS
 10
176.391500
 20
127.600163
 11
176.391500
 21
126.775238
  0
LINE
  8
1
 62
7
  6
CONTINUOUS
 10
177.991500
 20
130.575238
 11
177.991500
 21
123.655495
  0
LINE
  8
1
 62
7
  6
CONTINUOUS
 10
179.591500
 20
130.575238
 11
179.591500
 21
120.295573
  0
LINE
  8
1
 62
7
  6
CONTINUOUS
 10
168.091500
 20
98.975238
 11
168.091500
 21
110.837835
  0
LINE
  8
1
 62
7
  6
CONTINUOUS
 10
169.691500
 20
98.975238
 11
169.691500
 21
106.950269
  0
LINE
  8
1
 62
7
  6
CONTINUOUS
 10
168.891500
 20
98.975238
 11
168.891500
 21
102.775238
  0
LINE
  8
4
 62
54
  6
CONTINUOUS
 10
176.391500
 20
127.600163
 11
176.391500
 21
134.275238
  0
LINE
  8
1
 62
7
  6
CONTINUOUS
 10
167.291500
 20
112.781617
 11
167.291500
 21
101.029457
  0
LINE
  8
1
 62
7
  6
CONTINUOUS
 10
168.891500
 20
108.894052
 11
168.891500
 21
98.975238
  0
LINE
  8
1
 62
7
  6
CONTINUOUS
 10
170.491500
 20
105.006486
 11
170.491500
 21
98.975238
  0
LINE
  8
1
 62
7
  6
CONTINUOUS
 10
177.191500
 20
125.335455
 11
177.191500
 21
130.575238
  0
LINE
  8
1
 62
7
  6
CONTINUOUS
 10
178.791500
 20
121.975534
 11
178.791500
 21
130.575238
  0
LINE
  8
1
 62
7
  6
CONTINUOUS
 10
180.391500
 20
118.615612
 11
180.391500
 21
130.575238
  0
LINE
  8
1
 62
7
  6
CONTINUOUS
 10
143.291500
 20
117.062681
 11
143.291500
 21
112.487794
  0
LINE
  8
1
 62
7
  6
CONTINUOUS
 10
143.291500
 20
112.487794
 11
144.004565
 21
112.275238
  0
LINE
  8
1
 62
7
  6
CONTINUOUS
 10
187.591500
 20
102.025238
 11
188.330601
 21
102.025237
  0
LINE
  8
1
 62
7
  6
CONTINUOUS
 10
187.591500
 20
96.525238
 11
188.330601
 21
96.525238
  0
LINE
  8
1
 62
7
  6
CONTINUOUS
 10
144.004565
 20
112.275238
 11
144.004565
 21
117.275238
  0
LINE
  8
1
 62
7
  6
CONTINUOUS
 10
166.191500
 20
98.975238
 11
166.191500
 21
95.275238
  0
LINE
  8
1
 62
7
  6
CONTINUOUS
 10
166.191500
 20
130.575238
 11
166.191500
 21
134.275238
  0
LINE
  8
1
 62
7
  6
CONTINUOUS
 10
181.191500
 20
130.575238
 11
181.191500
 21
134.275238
  0
LINE
  8
1
 62
7
  6
CONTINUOUS
 10
179.591500
 20
129.965017
 11
179.591500
 21
134.275238
  0
LINE
  8
1
 62
7
  6
CONTINUOUS
 10
180.391500
 20
130.575238
 11
180.391500
 21
134.275238
  0
LINE
  8
1
 62
7
  6
CONTINUOUS
 10
167.291500
 20
98.975238
 11
167.291500
 21
95.275238
  0
LINE
  8
1
 62
7
  6
CONTINUOUS
 10
168.091500
 20
98.975238
 11
168.091500
 21
95.275238
  0
LINE
  8
1
 62
7
  6
CONTINUOUS
 10
181.191500
 20
98.975238
 11
181.191500
 21
95.275238
  0
LINE
  8
1
 62
7
  6
CONTINUOUS
 10
181.191500
 20
95.275238
 11
181.191500
 21
92.275238
  0
LINE
  8
1
 62
7
  6
CONTINUOUS
 10
181.191500
 20
92.275238
 11
185.391500
 21
92.275238
  0
LINE
  8
1
 62
7
  6
CONTINUOUS
 10
185.391500
 20
92.275238
 11
185.391500
 21
92.775238
  0
LINE
  8
1
 62
7
  6
CONTINUOUS
 10
181.191500
 20
92.775238
 11
188.791500
 21
92.775238
  0
LINE
  8
1
 62
7
  6
CONTINUOUS
 10
181.191500
 20
95.275238
 11
186.591501
 21
95.275238
  0
LINE
  8
1
 62
7
  6
CONTINUOUS
 10
86.914023
 20
92.275238
 11
88.314023
 21
92.275238
  0
LINE
  8
1
 62
7
  6
HIDDEN
 10
82.814023
 20
91.175238
 11
82.814023
 21
82.275238
  0
LINE
  8
1
 62
7
  6
HIDDEN
 10
81.814023
 20
91.175238
 11
81.814023
 21
82.275238
  0
LINE
  8
1
 62
7
  6
HIDDEN
 10
72.814023
 20
91.175238
 11
72.814023
 21
82.275238
  0
LINE
  8
1
 62
7
  6
HIDDEN
 10
73.814023
 20
91.175238
 11
73.814023
 21
82.275238
  0
LINE
  8
1
 62
7
  6
HIDDEN
 10
86.814023
 20
92.275238
 11
86.814023
 21
91.175238
  0
LINE
  8
1
 62
7
  6
HIDDEN
 10
86.814023
 20
91.175238
 11
68.814023
 21
91.175238
  0
LINE
  8
1
 62
7
  6
HIDDEN
 10
68.814023
 20
91.175238
 11
68.814023
 21
92.275238
  0
LINE
  8
1
 62
7
  6
CONTINUOUS
 10
144.004565
 20
117.275238
 11
143.291500
 21
117.062681
  0
ARC
  8
1
 62
7
  6
CONTINUOUS
 10
77.814023
 20
114.775238
 40
27.000035
 50
-136.238180
 51
-133.761744
  0
ARC
  8
1
 62
7
  6
CONTINUOUS
 10
77.814023
 20
114.775238
 40
26.999966
 50
-46.238333
 51
-43.761820
  0
ARC
  8
1
 62
7
  6
CONTINUOUS
 10
77.814023
 20
114.775238
 40
26.999966
 50
43.761667
 51
46.238333
  0
ARC
  8
1
 62
7
  6
CONTINUOUS
 10
77.814023
 20
114.775238
 40
27.000000
 50
133.761744
 51
136.238333
  0
ARC
  8
1
 62
7
  6
CONTINUOUS
 10
182.591500
 20
130.275238
 40
6.999981
 50
-16.957866
 51
16.957749
  0
ARC
  8
1
 62
7
  6
CONTINUOUS
 10
188.330600
 20
132.025238
 40
0.999999
 50
16.957327
 51
89.999943
  0
ARC
  8
1
 62
7
  6
CONTINUOUS
 10
188.330600
 20
128.525238
 40
1.000000
 50
-89.999943
 51
-16.958144
  0
ARC
  8
1
 62
7
  6
CONTINUOUS
 10
188.791500
 20
133.275238
 40
1.000000
 50
0.000000
 51
90.000000
  0
ARC
  8
1
 62
7
  6
CONTINUOUS
 10
186.591500
 20
133.275238
 40
1.000000
 50
0.000000
 51
89.999943
  0
ARC
  8
1
 62
7
  6
CONTINUOUS
 10
188.591500
 20
127.652538
 40
1.000000
 50
179.999828
 51
-120.000728
  0
ARC
  8
1
 62
7
  6
CONTINUOUS
 10
188.791500
 20
125.227638
 40
1.000000
 50
0.000000
 51
60.000322
  0
ARC
  8
1
 62
7
  6
CONTINUOUS
 10
188.791500
 20
93.775238
 40
1.000000
 50
-90.000000
 51
0.000000
  0
ARC
  8
1
 62
7
  6
CONTINUOUS
 10
186.591500
 20
96.275238
 40
1.000000
 50
-89.999943
 51
0.000000
  0
ARC
  8
1
 62
7
  6
CONTINUOUS
 10
188.591500
 20
101.897938
 40
0.999978
 50
120.000728
 51
179.999828
  0
ARC
  8
1
 62
7
  6
CONTINUOUS
 10
188.791500
 20
104.322838
 40
0.999981
 50
-60.000311
 51
0.000000
  0
ARC
  8
1
 62
7
  6
CONTINUOUS
 10
188.330600
 20
97.525238
 40
1.000000
 50
-89.999943
 51
-16.958144
  0
ARC
  8
1
 62
7
  6
CONTINUOUS
 10
182.591500
 20
99.275238
 40
6.999981
 50
-16.957866
 51
16.957749
  0
ARC
  8
1
 62
7
  6
CONTINUOUS
 10
188.330600
 20
97.525238
 40
1.000000
 50
-89.999943
 51
-16.958144
  0
ARC
  8
1
 62
7
  6
CONTINUOUS
 10
188.330600
 20
101.025238
 40
0.999999
 50
16.957327
 51
89.999943
  0
ARC
  8
1
 62
7
  6
CONTINUOUS
 10
188.330600
 20
97.525238
 40
1.000000
 50
-89.999943
 51
-16.958144
  0
CIRCLE
  8
1
 62
7
  6
CONTINUOUS
 10
77.814023
 20
114.775238
 40
10.000000
  0
CIRCLE
  8
1
 62
7
  6
CONTINUOUS
 10
77.814023
 20
114.775238
 40
14.000000
  0
CIRCLE
  8
1
 62
7
  6
CONTINUOUS
 10
77.814023
 20
114.775238
 40
4.500000
  0
CIRCLE
  8
4
 62
54
  6
CONTINUOUS
 10
93.314023
 20
130.275238
 40
1.000000
  0
CIRCLE
  8
4
 62
54
  6
CONTINUOUS
 10
62.314023
 20
130.275238
 40
1.000000
  0
CIRCLE
  8
4
 62
54
  6
CONTINUOUS
 10
93.314023
 20
99.275238
 40
1.000000
  0
CIRCLE
  8
4
 62
54
  6
CONTINUOUS
 10
62.314023
 20
99.275238
 40
1.000000
  0
CIRCLE
  8
1
 62
7
  6
CONTINUOUS
 10
93.314023
 20
130.275238
 40
1.500000
  0
CIRCLE
  8
1
 62
7
  6
CONTINUOUS
 10
62.314023
 20
130.275238
 40
1.500000
  0
CIRCLE
  8
1
 62
7
  6
CONTINUOUS
 10
93.314023
 20
99.275238
 40
1.500000
  0
CIRCLE
  8
1
 62
7
  6
CONTINUOUS
 10
62.314023
 20
99.275238
 40
1.500000
  0
CIRCLE
  8
1
 62
7
  6
CONTINUOUS
 10
77.814023
 20
114.775238
 40
2.500000
  0
ARC
  8
1
 62
7
  6
CONTINUOUS
 10
87.514023
 20
95.275238
 40
1.000000
 50
-36.869898
 51
0.000000
  0
ARC
  8
1
 62
7
  6
CONTINUOUS
 10
88.930255
 20
93.775238
 40
1.000000
 50
-90.000000
 51
-26.933677
  0
ARC
  8
1
 62
7
  6
CONTINUOUS
 10
91.427620
 20
94.275238
 40
1.000000
 50
90.000000
 51
153.066323
  0
ARC
  8
1
 62
7
  6
CONTINUOUS
 10
68.114023
 20
95.275238
 40
1.000000
 50
180.000000
 51
-143.130102
  0
ARC
  8
1
 62
7
  6
CONTINUOUS
 10
66.697791
 20
93.775238
 40
1.000000
 50
-153.066323
 51
-90.000000
  0
ARC
  8
1
 62
7
  6
CONTINUOUS
 10
64.200426
 20
94.275238
 40
1.000000
 50
26.933677
 51
90.000000
  0
LINE
  8
1
 62
7
  6
CONTINUOUS
 10
218.429109
 20
154.275238
 11
191.866150
 21
154.275238
  0
LINE
  8
1
 62
7
  6
CONTINUOUS
 10
191.866150
 20
154.275238
 11
179.191500
 21
136.445941
  0
LINE
  8
1
 62
7
  6
CONTINUOUS
 10
180.702225
 20
139.298168
 11
181.388959
 21
138.809976
  0
LINE
  8
1
 62
7
  6
CONTINUOUS
 10
181.388959
 20
138.809976
 11
179.191500
 21
136.445941
  0
LINE
  8
1
 62
7
  6
CONTINUOUS
 10
179.191500
 20
136.445941
 11
180.702225
 21
139.298168
  0
TEXT
  8
1
 62
7
  6
CONTINUOUS
 10
35.116427
 20
7.553899
 40
3.000000
 41
0.540000
  1
ATTACHMENT:CONNECTOR LEAD
  7
KANJI
 50
0.000000
 51
0.000000
  0
TEXT
  8
1
 62
7
  6
CONTINUOUS
 10
35.116427
 20
13.598361
 40
4.000000
 41
0.900000
  1
付属品：コネクターリード
  7
KANJI
 50
0.000000
 51
0.000000
  0
TEXT
  8
1
 62
7
  6
CONTINUOUS
 10
119.087996
 20
76.530984
 40
4.000000
 41
0.540000
  1
有効深サ(ＤＥＰＴＨ）　３．０ＭＩＮ
  7
KANJI
 50
0.000975
 51
0.000000
  0
TEXT
  8
1
 62
7
  6
CONTINUOUS
 10
192.019900
 20
155.407372
 40
5.000000
 41
0.720000
  1
ネ－ムプレ－ト
  7
KANJI
 50
0.000000
 51
0.000000
  0
TEXT
  8
1
 62
7
  6
CONTINUOUS
 10
192.622152
 20
149.346750
 40
3.200000
 41
0.720000
  1
ＮＡＭＥ　ＰＬＡＴＥ
  7
KANJI
 50
0.000000
 51
0.000000
  0
LINE
  8
128
 62
7
  6
CONTINUOUS
 10
48.314023
 20
99.275238
 11
48.314023
 21
130.275238
  0
LINE
  8
128
 62
7
  6
CONTINUOUS
 10
58.814023
 20
99.275238
 11
47.314023
 21
99.275238
  0
LINE
  8
128
 62
7
  6
CONTINUOUS
 10
58.814023
 20
130.275238
 11
47.314023
 21
130.275238
  0
LINE
  8
128
 62
7
  6
CONTINUOUS
 10
48.314023
 20
130.275238
 11
48.730023
 21
127.075238
  0
LINE
  8
128
 62
7
  6
CONTINUOUS
 10
48.730023
 20
127.075238
 11
47.898023
 21
127.075238
  0
LINE
  8
128
 62
7
  6
CONTINUOUS
 10
47.898023
 20
127.075238
 11
48.314023
 21
130.275238
  0
LINE
  8
128
 62
7
  6
CONTINUOUS
 10
48.314023
 20
99.275238
 11
47.898023
 21
102.475238
  0
LINE
  8
128
 62
7
  6
CONTINUOUS
 10
47.898023
 20
102.475238
 11
48.730023
 21
102.475238
  0
LINE
  8
128
 62
7
  6
CONTINUOUS
 10
48.730023
 20
102.475238
 11
48.314023
 21
99.275238
  0
TEXT
  8
128
 62
7
  6
CONTINUOUS
 10
46.714023
 20
108.667238
 40
3.200000
 41
0.900000
  1
31
  7
KANJI
 50
90.000000
 51
0.000000
  0
TEXT
  8
128
 62
7
  6
CONTINUOUS
 10
46.234023
 20
114.107238
 40
2.240000
 41
0.900000
  1
±0.2
  7
KANJI
 50
90.000000
 51
0.000000
  0
LINE
  8
128
 62
7
  6
CONTINUOUS
 10
58.314023
 20
154.275238
 11
97.314023
 21
154.275238
  0
LINE
  8
128
 62
7
  6
CONTINUOUS
 10
58.314023
 20
134.450038
 11
58.314023
 21
155.275238
  0
LINE
  8
128
 62
7
  6
CONTINUOUS
 10
97.314023
 20
134.450038
 11
97.314023
 21
155.275238
  0
LINE
  8
128
 62
7
  6
CONTINUOUS
 10
58.314023
 20
154.275238
 11
61.514023
 21
154.691238
  0
LINE
  8
128
 62
7
  6
CONTINUOUS
 10
61.514023
 20
154.691238
 11
61.514023
 21
153.859238
  0
LINE
  8
128
 62
7
  6
CONTINUOUS
 10
61.514023
 20
153.859238
 11
58.314023
 21
154.275238
  0
LINE
  8
128
 62
7
  6
CONTINUOUS
 10
97.314023
 20
154.275238
 11
94.114023
 21
153.859238
  0
LINE
  8
128
 62
7
  6
CONTINUOUS
 10
94.114023
 20
153.859238
 11
94.114023
 21
154.691238
  0
LINE
  8
128
 62
7
  6
CONTINUOUS
 10
94.114023
 20
154.691238
 11
97.314023
 21
154.275238
  0
TEXT
  8
128
 62
7
  6
CONTINUOUS
 10
75.414023
 20
155.875238
 40
3.200000
 41
0.900000
  1
39
  7
KANJI
 50
0.000000
 51
0.000000
  0
TEXT
  8
128
 62
7
  6
CONTINUOUS
 10
73.334023
 20
155.875238
 40
3.200000
 41
0.900000
  1
(
  7
KANJI
 50
0.000000
 51
0.000000
  0
TEXT
  8
128
 62
7
  6
CONTINUOUS
 10
81.814023
 20
155.875238
 40
3.200000
 41
0.900000
  1
)
  7
KANJI
 50
0.000000
 51
0.000000
  0
LINE
  8
128
 62
7
  6
CONTINUOUS
 10
38.314023
 20
95.275238
 11
38.314023
 21
134.275238
  0
LINE
  8
128
 62
7
  6
CONTINUOUS
 10
58.139173
 20
95.275238
 11
37.314023
 21
95.275238
  0
LINE
  8
128
 62
7
  6
CONTINUOUS
 10
58.139173
 20
134.275238
 11
37.314023
 21
134.275238
  0
LINE
  8
128
 62
7
  6
CONTINUOUS
 10
38.314023
 20
134.275238
 11
38.730023
 21
131.075238
  0
LINE
  8
128
 62
7
  6
CONTINUOUS
 10
38.730023
 20
131.075238
 11
37.898023
 21
131.075238
  0
LINE
  8
128
 62
7
  6
CONTINUOUS
 10
37.898023
 20
131.075238
 11
38.314023
 21
134.275238
  0
LINE
  8
128
 62
7
  6
CONTINUOUS
 10
38.314023
 20
95.275238
 11
37.898023
 21
98.475238
  0
LINE
  8
128
 62
7
  6
CONTINUOUS
 10
37.898023
 20
98.475238
 11
38.730023
 21
98.475238
  0
LINE
  8
128
 62
7
  6
CONTINUOUS
 10
38.730023
 20
98.475238
 11
38.314023
 21
95.275238
  0
TEXT
  8
128
 62
7
  6
CONTINUOUS
 10
36.714023
 20
112.375238
 40
3.200000
 41
0.900000
  1
39
  7
KANJI
 50
90.000000
 51
0.000000
  0
TEXT
  8
128
 62
7
  6
CONTINUOUS
 10
36.714023
 20
110.295238
 40
3.200000
 41
0.900000
  1
(
  7
KANJI
 50
90.000000
 51
0.000000
  0
TEXT
  8
128
 62
7
  6
CONTINUOUS
 10
36.714023
 20
118.775238
 40
3.200000
 41
0.900000
  1
)
  7
KANJI
 50
90.000000
 51
0.000000
  0
LINE
  8
128
 62
7
  6
CONTINUOUS
 10
62.314023
 20
144.275238
 11
93.314023
 21
144.275238
  0
LINE
  8
128
 62
7
  6
CONTINUOUS
 10
62.314023
 20
133.775238
 11
62.314023
 21
145.275238
  0
LINE
  8
128
 62
7
  6
CONTINUOUS
 10
93.314023
 20
133.775238
 11
93.314023
 21
145.275238
  0
LINE
  8
128
 62
7
  6
CONTINUOUS
 10
62.314023
 20
144.275238
 11
65.514023
 21
144.691238
  0
LINE
  8
128
 62
7
  6
CONTINUOUS
 10
65.514023
 20
144.691238
 11
65.514023
 21
143.859238
  0
LINE
  8
128
 62
7
  6
CONTINUOUS
 10
65.514023
 20
143.859238
 11
62.314023
 21
144.275238
  0
LINE
  8
128
 62
7
  6
CONTINUOUS
 10
93.314023
 20
144.275238
 11
90.114023
 21
143.859238
  0
LINE
  8
128
 62
7
  6
CONTINUOUS
 10
90.114023
 20
143.859238
 11
90.114023
 21
144.691238
  0
LINE
  8
128
 62
7
  6
CONTINUOUS
 10
90.114023
 20
144.691238
 11
93.314023
 21
144.275238
  0
TEXT
  8
128
 62
7
  6
CONTINUOUS
 10
71.706023
 20
145.875238
 40
3.200000
 41
0.900000
  1
31
  7
KANJI
 50
0.000000
 51
0.000000
  0
TEXT
  8
128
 62
7
  6
CONTINUOUS
 10
77.146023
 20
146.355238
 40
2.240000
 41
0.900000
  1
±0.2
  7
KANJI
 50
0.000000
 51
0.000000
  0
LINE
  8
128
 62
7
  6
CONTINUOUS
 10
123.291500
 20
103.775238
 11
123.291500
 21
125.775238
  0
LINE
  8
128
 62
7
  6
CONTINUOUS
 10
156.791500
 20
103.775238
 11
122.291500
 21
103.775238
  0
LINE
  8
128
 62
7
  6
CONTINUOUS
 10
156.791500
 20
125.775238
 11
122.291500
 21
125.775238
  0
LINE
  8
128
 62
7
  6
CONTINUOUS
 10
123.291500
 20
125.775238
 11
123.707500
 21
122.575238
  0
LINE
  8
128
 62
7
  6
CONTINUOUS
 10
123.707500
 20
122.575238
 11
122.875500
 21
122.575238
  0
LINE
  8
128
 62
7
  6
CONTINUOUS
 10
122.875500
 20
122.575238
 11
123.291500
 21
125.775238
  0
LINE
  8
128
 62
7
  6
CONTINUOUS
 10
123.291500
 20
103.775238
 11
122.875500
 21
106.975238
  0
LINE
  8
128
 62
7
  6
CONTINUOUS
 10
122.875500
 20
106.975238
 11
123.707500
 21
106.975238
  0
LINE
  8
128
 62
7
  6
CONTINUOUS
 10
123.707500
 20
106.975238
 11
123.291500
 21
103.775238
  0
TEXT
  8
128
 62
7
  6
CONTINUOUS
 10
120.491500
 20
109.547238
 40
3.200000
 41
0.900000
  1
22
  7
KANJI
 50
90.000000
 51
0.000000
  0
TEXT
  8
128
 62
7
  6
CONTINUOUS
 10
118.331500
 20
117.739238
 40
2.240000
 41
0.900000
  1
0
  7
KANJI
 50
90.000000
 51
0.000000
  0
TEXT
  8
128
 62
7
  6
CONTINUOUS
 10
121.691500
 20
115.947238
 40
2.240000
 41
0.900000
  1
-0.05
  7
KANJI
 50
90.000000
 51
0.000000
  0
TEXT
  8
128
 62
7
  6
CONTINUOUS
 10
120.491500
 20
105.707238
 40
3.200000
 41
0.900000
  1
φ
  7
KANJI
 50
90.000000
 51
0.000000
  0
LINE
  8
128
 62
7
  6
CONTINUOUS
 10
166.191500
 20
154.275238
 11
159.791500
 21
154.275238
  0
LINE
  8
128
 62
7
  6
CONTINUOUS
 10
157.791500
 20
154.275238
 11
159.791500
 21
154.275238
  0
LINE
  8
128
 62
7
  6
CONTINUOUS
 10
157.791500
 20
154.275238
 11
145.966533
 21
154.275238
  0
LINE
  8
128
 62
7
  6
CONTINUOUS
 10
157.791500
 20
126.775238
 11
157.791500
 21
155.275238
  0
LINE
  8
128
 62
7
  6
CONTINUOUS
 10
159.791500
 20
135.275238
 11
159.791500
 21
155.275238
  0
LINE
  8
128
 62
7
  6
CONTINUOUS
 10
157.791500
 20
154.275238
 11
154.591500
 21
153.859238
  0
LINE
  8
128
 62
7
  6
CONTINUOUS
 10
154.591500
 20
153.859238
 11
154.591500
 21
154.691238
  0
LINE
  8
128
 62
7
  6
CONTINUOUS
 10
154.591500
 20
154.691238
 11
157.791500
 21
154.275238
  0
LINE
  8
128
 62
7
  6
CONTINUOUS
 10
159.791500
 20
154.275238
 11
162.991500
 21
154.691238
  0
LINE
  8
128
 62
7
  6
CONTINUOUS
 10
162.991500
 20
154.691238
 11
162.991500
 21
153.859238
  0
LINE
  8
128
 62
7
  6
CONTINUOUS
 10
162.991500
 20
153.859238
 11
159.791500
 21
154.275238
  0
TEXT
  8
128
 62
7
  6
CONTINUOUS
 10
145.966533
 20
155.875238
 40
3.200000
 41
0.900000
  1
2
  7
KANJI
 50
0.000000
 51
0.000000
  0
TEXT
  8
128
 62
7
  6
CONTINUOUS
 10
149.486533
 20
156.355238
 40
2.240000
 41
0.900000
  1
±0.2
  7
KANJI
 50
0.000000
 51
0.000000
  0
LINE
  8
128
 62
7
  6
CONTINUOUS
 10
159.791500
 20
164.275238
 11
189.791500
 21
164.275238
  0
LINE
  8
128
 62
7
  6
CONTINUOUS
 10
159.791500
 20
135.275238
 11
159.791500
 21
165.275238
  0
LINE
  8
128
 62
7
  6
CONTINUOUS
 10
189.791500
 20
134.275238
 11
189.791500
 21
165.275238
  0
LINE
  8
128
 62
7
  6
CONTINUOUS
 10
189.791500
 20
164.275238
 11
186.591500
 21
163.859238
  0
LINE
  8
128
 62
7
  6
CONTINUOUS
 10
186.591500
 20
163.859238
 11
186.591500
 21
164.691238
  0
LINE
  8
128
 62
7
  6
CONTINUOUS
 10
186.591500
 20
164.691238
 11
189.791500
 21
164.275238
  0
LINE
  8
128
 62
7
  6
CONTINUOUS
 10
159.791500
 20
164.275238
 11
162.991500
 21
164.691238
  0
LINE
  8
128
 62
7
  6
CONTINUOUS
 10
162.991500
 20
164.691238
 11
162.991500
 21
163.859238
  0
LINE
  8
128
 62
7
  6
CONTINUOUS
 10
162.991500
 20
163.859238
 11
159.791500
 21
164.275238
  0
TEXT
  8
128
 62
7
  6
CONTINUOUS
 10
172.573012
 20
165.875238
 40
3.200000
 41
0.900000
  1
31
  7
KANJI
 50
0.000000
 51
0.000000
  0
TEXT
  8
128
 62
7
  6
CONTINUOUS
 10
170.493012
 20
165.875238
 40
3.200000
 41
0.900000
  1
(
  7
KANJI
 50
0.000000
 51
0.000000
  0
TEXT
  8
128
 62
7
  6
CONTINUOUS
 10
178.013012
 20
165.875238
 40
3.200000
 41
0.900000
  1
)
  7
KANJI
 50
0.000000
 51
0.000000
  0
LINE
  8
1
 62
7
  6
CONTINUOUS
 10
90.286645
 20
49.709863
 11
78.865143
 21
49.709863
  0
LINE
  8
1
 62
7
  6
CONTINUOUS
 10
90.286645
 20
49.709863
 11
93.786645
 21
49.709863
  0
LINE
  8
1
 62
7
  6
CONTINUOUS
 10
100.186645
 20
49.709863
 11
93.786645
 21
49.709863
  0
LINE
  8
1
 62
7
  6
CONTINUOUS
 10
93.786645
 20
40.434863
 11
93.786645
 21
51.209863
  0
LINE
  8
1
 62
7
  6
CONTINUOUS
 10
90.286645
 20
40.709863
 11
90.286645
 21
51.209863
  0
LINE
  8
1
 62
7
  6
CONTINUOUS
 10
90.286645
 20
49.709863
 11
87.086645
 21
49.293863
  0
LINE
  8
1
 62
7
  6
CONTINUOUS
 10
87.086645
 20
49.293863
 11
87.086645
 21
50.125863
  0
LINE
  8
1
 62
7
  6
CONTINUOUS
 10
87.086645
 20
50.125863
 11
90.286645
 21
49.709863
  0
LINE
  8
1
 62
7
  6
CONTINUOUS
 10
93.786645
 20
49.709863
 11
96.986645
 21
50.125863
  0
LINE
  8
1
 62
7
  6
CONTINUOUS
 10
96.986645
 20
50.125863
 11
96.986645
 21
49.293863
  0
LINE
  8
1
 62
7
  6
CONTINUOUS
 10
96.986645
 20
49.293863
 11
93.786645
 21
49.709863
  0
TEXT
  8
1
 62
7
  6
CONTINUOUS
 10
80.945143
 20
51.709863
 40
3.200000
 41
0.900000
  1
3.5
  7
KANJI
 50
0.000000
 51
0.000000
  0
TEXT
  8
1
 62
7
  6
CONTINUOUS
 10
78.865143
 20
51.709863
 40
3.200000
 41
0.900000
  1
(
  7
KANJI
 50
0.000000
 51
0.000000
  0
TEXT
  8
1
 62
7
  6
CONTINUOUS
 10
88.385143
 20
51.709863
 40
3.200000
 41
0.900000
  1
)
  7
KANJI
 50
0.000000
 51
0.000000
  0
LINE
  8
1
 62
7
  6
CONTINUOUS
 10
29.445574
 20
62.709863
 11
93.786645
 21
62.709863
  0
LINE
  8
1
 62
7
  6
CONTINUOUS
 10
29.445574
 20
44.609863
 11
29.445574
 21
64.209863
  0
LINE
  8
1
 62
7
  6
CONTINUOUS
 10
93.786645
 20
40.434863
 11
93.786645
 21
64.209863
  0
LINE
  8
1
 62
7
  6
CONTINUOUS
 10
29.445574
 20
62.709863
 11
32.645574
 21
63.125863
  0
LINE
  8
1
 62
7
  6
CONTINUOUS
 10
32.645574
 20
63.125863
 11
32.645574
 21
62.293863
  0
LINE
  8
1
 62
7
  6
CONTINUOUS
 10
32.645574
 20
62.293863
 11
29.445574
 21
62.709863
  0
LINE
  8
1
 62
7
  6
CONTINUOUS
 10
93.786645
 20
62.709863
 11
90.586645
 21
62.293863
  0
LINE
  8
1
 62
7
  6
CONTINUOUS
 10
90.586645
 20
62.293863
 11
90.586645
 21
63.125863
  0
LINE
  8
1
 62
7
  6
CONTINUOUS
 10
90.586645
 20
63.125863
 11
93.786645
 21
62.709863
  0
TEXT
  8
1
 62
7
  6
CONTINUOUS
 10
53.843963
 20
65.509863
 40
3.200000
 41
0.900000
  1
200
  7
KANJI
 50
0.000000
 51
0.000000
  0
TEXT
  8
1
 62
7
  6
CONTINUOUS
 10
63.123963
 20
67.589863
 40
1.920000
 41
0.900000
  1
+40
  7
KANJI
 50
0.000000
 51
0.000000
  0
TEXT
  8
1
 62
7
  6
CONTINUOUS
 10
64.851963
 20
64.709863
 40
1.920000
 41
0.900000
  1
 0
  7
KANJI
 50
0.000000
 51
0.000000
  0
LINE
  8
1
 62
7
  6
CONTINUOUS
 10
133.291500
 20
105.875238
 11
133.291500
 21
112.275238
  0
LINE
  8
1
 62
7
  6
CONTINUOUS
 10
133.291500
 20
112.275238
 11
133.291500
 21
117.275238
  0
LINE
  8
1
 62
7
  6
CONTINUOUS
 10
133.291500
 20
117.275238
 11
133.291500
 21
142.596606
  0
LINE
  8
1
 62
7
  6
CONTINUOUS
 10
143.004565
 20
112.275238
 11
131.791500
 21
112.275238
  0
LINE
  8
1
 62
7
  6
CONTINUOUS
 10
143.004565
 20
117.275238
 11
131.791500
 21
117.275238
  0
LINE
  8
1
 62
7
  6
CONTINUOUS
 10
133.291500
 20
117.275238
 11
132.875500
 21
120.475238
  0
LINE
  8
1
 62
7
  6
CONTINUOUS
 10
132.875500
 20
120.475238
 11
133.707500
 21
120.475238
  0
LINE
  8
1
 62
7
  6
CONTINUOUS
 10
133.707500
 20
120.475238
 11
133.291500
 21
117.275238
  0
LINE
  8
1
 62
7
  6
CONTINUOUS
 10
133.291500
 20
112.275238
 11
133.707500
 21
109.075238
  0
LINE
  8
1
 62
7
  6
CONTINUOUS
 10
133.707500
 20
109.075238
 11
132.875500
 21
109.075238
  0
LINE
  8
1
 62
7
  6
CONTINUOUS
 10
132.875500
 20
109.075238
 11
133.291500
 21
112.275238
  0
TEXT
  8
1
 62
7
  6
CONTINUOUS
 10
130.491500
 20
131.732606
 40
3.200000
 41
0.900000
  1
5
  7
KANJI
 50
90.000000
 51
0.000000
  0
TEXT
  8
1
 62
7
  6
CONTINUOUS
 10
128.411500
 20
135.252606
 40
1.920000
 41
0.900000
  1
 0
  7
KANJI
 50
90.000000
 51
0.000000
  0
TEXT
  8
1
 62
7
  6
CONTINUOUS
 10
131.291500
 20
135.252606
 40
1.920000
 41
0.900000
  1
-0.011
  7
KANJI
 50
90.000000
 51
0.000000
  0
TEXT
  8
1
 62
7
  6
CONTINUOUS
 10
130.491500
 20
128.088161
 40
3.200000
 41
0.900000
  1
φ
  7
KANJI
 50
90.000000
 51
0.000000
  0
LINE
  8
1
 62
7
  6
CONTINUOUS
 10
143.291500
 20
164.275238
 11
159.791500
 21
164.275238
  0
LINE
  8
1
 62
7
  6
CONTINUOUS
 10
143.291500
 20
118.062681
 11
143.291500
 21
165.775238
  0
LINE
  8
1
 62
7
  6
CONTINUOUS
 10
159.791500
 20
135.275238
 11
159.791500
 21
165.775238
  0
LINE
  8
1
 62
7
  6
CONTINUOUS
 10
159.791500
 20
164.275238
 11
156.591500
 21
163.859238
  0
LINE
  8
1
 62
7
  6
CONTINUOUS
 10
156.591500
 20
163.859238
 11
156.591500
 21
164.691238
  0
LINE
  8
1
 62
7
  6
CONTINUOUS
 10
156.591500
 20
164.691238
 11
159.791500
 21
164.275238
  0
LINE
  8
1
 62
7
  6
CONTINUOUS
 10
143.291500
 20
164.275238
 11
146.491500
 21
164.691238
  0
LINE
  8
1
 62
7
  6
CONTINUOUS
 10
146.491500
 20
164.691238
 11
146.491500
 21
163.859238
  0
LINE
  8
1
 62
7
  6
CONTINUOUS
 10
146.491500
 20
163.859238
 11
143.291500
 21
164.275238
  0
TEXT
  8
1
 62
7
  6
CONTINUOUS
 10
144.158969
 20
166.275238
 40
3.200000
 41
0.900000
  1
16.5
  7
KANJI
 50
0.000000
 51
0.000000
  0
TEXT
  8
1
 62
7
  6
CONTINUOUS
 10
153.518969
 20
166.915238
 40
1.920000
 41
0.900000
  1
±0.5
  7
KANJI
 50
0.000000
 51
0.000000
  0
LINE
  8
1
 62
7
  6
CONTINUOUS
 10
38.314023
 20
91.175238
 11
38.314023
 21
77.587217
  0
LINE
  8
1
 62
7
  6
CONTINUOUS
 10
38.314023
 20
91.175238
 11
38.314023
 21
95.275238
  0
LINE
  8
1
 62
7
  6
CONTINUOUS
 10
38.314023
 20
101.675238
 11
38.314023
 21
95.275238
  0
LINE
  8
1
 62
7
  6
CONTINUOUS
 10
58.139173
 20
95.275238
 11
36.814023
 21
95.275238
  0
LINE
  8
1
 62
7
  6
CONTINUOUS
 10
67.814023
 20
91.175238
 11
36.814023
 21
91.175238
  0
LINE
  8
1
 62
7
  6
CONTINUOUS
 10
38.314023
 20
95.275238
 11
37.898023
 21
98.475238
  0
LINE
  8
1
 62
7
  6
CONTINUOUS
 10
37.898023
 20
98.475238
 11
38.730023
 21
98.475238
  0
LINE
  8
1
 62
7
  6
CONTINUOUS
 10
38.730023
 20
98.475238
 11
38.314023
 21
95.275238
  0
LINE
  8
1
 62
7
  6
CONTINUOUS
 10
38.314023
 20
91.175238
 11
38.730023
 21
87.975238
  0
LINE
  8
1
 62
7
  6
CONTINUOUS
 10
38.730023
 20
87.975238
 11
37.898023
 21
87.975238
  0
LINE
  8
1
 62
7
  6
CONTINUOUS
 10
37.898023
 20
87.975238
 11
38.314023
 21
91.175238
  0
TEXT
  8
1
 62
7
  6
CONTINUOUS
 10
36.314023
 20
82.867217
 40
3.200000
 41
0.900000
  1
4.1
  7
KANJI
 50
90.000000
 51
0.000000
  0
TEXT
  8
1
 62
7
  6
CONTINUOUS
 10
36.314023
 20
77.587217
 40
3.200000
 41
0.900000
  1
※(
  7
KANJI
 50
90.000000
 51
0.000000
  0
TEXT
  8
1
 62
7
  6
CONTINUOUS
 10
36.314023
 20
89.347217
 40
3.200000
 41
0.900000
  1
)
  7
KANJI
 50
90.000000
 51
0.000000
  0
LINE
  8
1
 62
7
  6
CONTINUOUS
 10
107.314023
 20
95.275238
 11
107.314023
 21
105.149440
  0
LINE
  8
1
 62
7
  6
CONTINUOUS
 10
107.314023
 20
92.275238
 11
107.314023
 21
95.275238
  0
LINE
  8
1
 62
7
  6
CONTINUOUS
 10
107.314023
 20
85.875238
 11
107.314023
 21
92.275238
  0
LINE
  8
1
 62
7
  6
CONTINUOUS
 10
97.488823
 20
95.275238
 11
108.814023
 21
95.275238
  0
LINE
  8
1
 62
7
  6
CONTINUOUS
 10
89.314023
 20
92.275238
 11
108.814023
 21
92.275238
  0
LINE
  8
1
 62
7
  6
CONTINUOUS
 10
107.314023
 20
95.275238
 11
106.898023
 21
98.475238
  0
LINE
  8
1
 62
7
  6
CONTINUOUS
 10
106.898023
 20
98.475238
 11
107.730023
 21
98.475238
  0
LINE
  8
1
 62
7
  6
CONTINUOUS
 10
107.730023
 20
98.475238
 11
107.314023
 21
95.275238
  0
LINE
  8
1
 62
7
  6
CONTINUOUS
 10
107.314023
 20
92.275238
 11
107.730023
 21
89.075238
  0
LINE
  8
1
 62
7
  6
CONTINUOUS
 10
107.730023
 20
89.075238
 11
106.898023
 21
89.075238
  0
LINE
  8
1
 62
7
  6
CONTINUOUS
 10
106.898023
 20
89.075238
 11
107.314023
 21
92.275238
  0
TEXT
  8
1
 62
7
  6
CONTINUOUS
 10
105.053303
 20
101.149440
 40
3.200000
 41
0.900000
  1
3
  7
KANJI
 50
90.000000
 51
0.000000
  0
TEXT
  8
1
 62
7
  6
CONTINUOUS
 10
105.053303
 20
99.069440
 40
3.200000
 41
0.900000
  1
(
  7
KANJI
 50
90.000000
 51
0.000000
  0
TEXT
  8
1
 62
7
  6
CONTINUOUS
 10
105.053303
 20
104.669440
 40
3.200000
 41
0.900000
  1
)
  7
KANJI
 50
90.000000
 51
0.000000
  0
LINE
  8
1
 62
7
  6
CONTINUOUS
 10
174.449076
 20
163.047148
 11
174.449076
 21
137.047148
  0
LINE
  8
1
 62
7
  6
CONTINUOUS
 10
168.449076
 20
137.047148
 11
168.449076
 21
163.047148
  0
LINE
  8
1
 62
7
  6
CONTINUOUS
 10
168.449076
 20
163.047148
 11
174.449076
 21
163.047148
  0
LINE
  8
1
 62
7
  6
CONTINUOUS
 10
171.449076
 20
138.547148
 11
171.449076
 21
141.047148
  0
LINE
  8
1
 62
7
  6
CONTINUOUS
 10
173.949076
 20
140.047148
 11
168.949076
 21
140.047148
  0
LINE
  8
1
 62
7
  6
CONTINUOUS
 10
168.949076
 20
140.047148
 11
171.449076
 21
138.547148
  0
LINE
  8
1
 62
7
  6
CONTINUOUS
 10
168.449076
 20
143.047148
 11
174.449076
 21
143.047148
  0
LINE
  8
1
 62
7
  6
CONTINUOUS
 10
174.449076
 20
137.047148
 11
168.449076
 21
137.047148
  0
TEXT
  8
1
 62
7
  6
CONTINUOUS
 10
179.875895
 20
139.267437
 40
5.000000
 41
0.900000
  1
(   )
  7
KANJI
 50
90.000000
 51
0.000000
  0
TEXT
  8
1
 62
7
  6
CONTINUOUS
 10
176.956248
 20
142.784518
 40
2.000000
 41
0.900000
  1
DIRECTION
  7
KANJI
 50
90.000000
 51
0.000000
  0
TEXT
  8
1
 62
7
  6
CONTINUOUS
 10
179.956248
 20
142.784518
 40
2.000000
 41
0.900000
  1
OF LETTER
  7
KANJI
 50
90.000000
 51
0.000000
  0
TEXT
  8
1
 62
7
  6
CONTINUOUS
 10
173.449076
 20
144.093894
 40
4.000000
 41
0.900000
  1
文字ノ向キ
  7
KANJI
 50
90.000000
 51
0.000000
  0
LINE
  8
1
 62
7
  6
CONTINUOUS
 10
94.539561
 20
98.410335
 11
117.240391
 21
82.389607
  0
LINE
  8
1
 62
7
  6
CONTINUOUS
 10
117.240391
 20
82.389607
 11
143.640391
 21
82.389607
  0
LINE
  8
1
 62
7
  6
CONTINUOUS
 10
94.539561
 20
98.410335
 11
97.393908
 21
96.905092
  0
LINE
  8
1
 62
7
  6
CONTINUOUS
 10
97.393908
 20
96.905092
 11
96.914175
 21
96.225327
  0
LINE
  8
1
 62
7
  6
CONTINUOUS
 10
96.914175
 20
96.225327
 11
94.539561
 21
98.410335
  0
TEXT
  8
1
 62
7
  6
CONTINUOUS
 10
131.720391
 20
84.389607
 40
3.200000
 41
0.900000
  1
3×0.5
  7
KANJI
 50
0.000000
 51
0.000000
  0
TEXT
  8
1
 62
7
  6
CONTINUOUS
 10
122.440391
 20
84.389607
 40
3.200000
 41
0.900000
  1
4-M
  7
KANJI
 50
0.000000
 51
0.000000
  0
ENDSEC
  0
EOF
