  0
SECTION
  2
HEADER
  9
$ACADVER
  1
AC1003
  9
$INSBASE
 10
0.000000
 20
0.000000
  9
$EXTMIN
 10
0.000000
 20
0.000000
  9
$EXTMAX
 10
420.000000
 20
297.000000
  9
$LIMMIN
 10
0.000000
 20
0.000000
  9
$LIMMAX
 10
420.000000
 20
297.000000
  9
$VIEWCTR
 10
210.000000
 20
148.500000
  9
$VIEWSIZE
 40
297.000000
  9
$PEXTMIN
 10
0.000000
 20
0.000000
 30
0.000000
  9
$PEXTMAX
 10
420.000000
 20
297.000000
 30
0.000000
  9
$SNAPMODE
 70
     0
  9
$SNAPUNIT
 10
1.000000
 20
1.000000
  9
$SNAPBASE
 10
0.000000
 20
0.000000
  9
$SNAPANG
 50
0.000000
  9
$SNAPISOPAIR
 70
     0
  9
$SNAPSTYLE
 70
     0
  9
$GRIDMODE
 70
     0
  9
$GRIDUNIT
 10
0.000000
 20
0.000000
  9
$ORTHOMODE
 70
     0
  9
$REGENMODE
 70
     1
  9
$FILLMODE
 70
     1
  9
$QTEXTMODE
 70
     0
  9
$DRAGMODE
 70
     2
  9
$LTSCALE
 40
0.250000
  9
$OSMODE
 70
     0
  9
$ATTMODE
 70
     1
  9
$TEXTSIZE
 40
0.200000
  9
$TRACEWID
 40
0.050000
  9
$TEXTSTYLE
  7
STANDARD
  9
$CLAYER
  8
0
  9
$CELTYPE
  6
BYLAYER
  9
$CECOLOR
 62
   256
  9
$DIMSCALE
 40
1.000000
  9
$DIMASZ
 40
1.000000
  9
$DIMEXO
 40
0.000000
  9
$DIMDLI
 40
0.500000
  9
$DIMRND
 40
0.000000
  9
$DIMDLE
 40
0.000000
  9
$DIMEXE
 40
0.000000
  9
$DIMTP
 40
0.000000
  9
$DIMTM
 40
0.000000
  9
$DIMTXT
 40
0.180000
  9
$DIMCEN
 40
0.000000
  9
$DIMTSZ
 40
0.000000
  9
$DIMTOL
 70
     0
  9
$DIMLIM
 70
     0
  9
$DIMTIH
 70
     1
  9
$DIMTOH
 70
     1
  9
$DIMSE1
 70
     0
  9
$DIMSE2
 70
     0
  9
$DIMTAD
 70
     0
  9
$DIMZIN
 70
     0
  9
$DIMBLK
  1

  9
$DIMASO
 70
     0
  9
$DIMSHO
 70
     0
  9
$DIMPOST
  1

  9
$DIMAPOST
  1

  9
$DIMALT
 70
     0
  9
$DIMALTD
 70
     0
  9
$DIMALTF
 40
25.400000
  9
$DIMLFAC
 40
1.000000
  9
$DIMTOFL
 70
     0
  9
$DIMTVP
 40
0.000000
  9
$DIMTIX
 70
     0
  9
$DIMSOXD
 70
     0
  9
$DIMSAH
 70
     0
  9
$DIMBLKL
  1

  9
$DIMBLKR
  1

  9
$LUNITS
 70
     2
  9
$LUPREC
 70
     2
  9
$AXISMODE
 70
     0
  9
$AXISUNIT
 10
1.000000
 20
1.000000
  9
$SKETCHINC
 40
0.000000
  9
$FILLETRAD
 40
0.000000
  9
$AUNITS
 70
     1
  9
$AUPREC
 70
     2
  9
$MENU
  1
ACAD
  9
$ELEVATION
 40
0.000000
  9
$THICKNESS
 40
0.000000
  9
$VIEWDIR
 10
0.000000
 20
0.000000
 30
1.000000
  9
$LIMCHECK
 70
     1
  9
$BLIPMODE
 70
     1
  9
$CHAMFERA
 40
0.000000
  9
$CHAMFERB
 40
0.000000
  9
$FASTZOOM
 70
     1
  9
$SKPOLY
 70
     0
  9
$TDCREATE
 40
0.000000
  9
$TDUPDATE
 40
0.000000
  9
$TDINDWG
 40
0.000000
  9
$TDUSRTIMER
 40
0.000000
  9
$USRTIMER
 70
     1
  9
$ANGBASE
 50
0.000000
  9
$ANGDIR
 70
     0
  9
$PDMODE
 70
     0
  9
$PDSIZE
 40
0.000000
  9
$PLINEWID
 40
0.000000
  9
$COORDS
 70
     2
  9
$USERI1
 70
     0
  9
$USERI2
 70
     0
  9
$USERI3
 70
     0
  9
$USERI4
 70
     0
  9
$USERI5
 70
     0
  9
$USERR1
 40
0.000000
  9
$USERR2
 40
0.000000
  9
$USERR3
 40
0.000000
  9
$USERR4
 40
0.000000
  9
$USERR5
 40
0.000000
  0
ENDSEC
  0
SECTION
  2
TABLES
  0
TABLE
  2
LTYPE
 70
     5
  0
LTYPE
  2
CONTINUOUS
 70
    64
  3
Solid line
 72
    65
 73
     0
 40
0.0
  0
LTYPE
  2
HIDDEN
 70
    64
  3
------------------------
 72
    65
 73
     2
 40
12.6
 49
8.4
 49
-4.2
  0
LTYPE
  2
DOT
 70
    64
  3
････････････････････････
 72
    65
 73
     2
 40
8.0
 49
6.0
 49
-2.0
  0
LTYPE
  2
DASHDOT
 70
    64
  3
--･--･--･--･--･--･--･--
 72
    65
 73
     4
 40
50.5
 49
30.0
 49
-9.0
 49
2.5
 49
-9.0
  0
LTYPE
  2
DIVIDE
 70
    64
  3
--･･--･･--･･--･･--･･--
 72
    65
 73
     6
 40
58.0
 49
30.0
 49
-9.0
 49
2.5
 49
-5.0
 49
2.5
 49
-9.0
  0
ENDTAB
  0
TABLE
  2
LAYER
 70
4
  0
LAYER
  2
1
 70
64
 62
7
  6
CONTINUOUS
  0
LAYER
  2
2
 70
64
 62
134
  6
CONTINUOUS
  0
LAYER
  2
4
 70
64
 62
54
  6
CONTINUOUS
  0
LAYER
  2
128
 70
64
 62
7
  6
CONTINUOUS
  0
ENDTAB
  0
TABLE
  2
STYLE
 70
     2
  0
STYLE
  2
STANDARD
 70
    64
 40
0.0
 41
1.0
 50
0.0
 71
     0
 42
0.2
  3
TXT
  4

  0
STYLE
  2
KANJI
 70
    64
 40
0.0
 41
1.0
 50
0.0
 71
     0
 42
0.2
  3
TXT
  4
BIGFONT
  0
ENDTAB
  0
TABLE
  2
VIEW
 70
     0
  0
ENDTAB
  0
ENDSEC
  0
SECTION
  2
BLOCKS
  0
ENDSEC
  0
SECTION
  2
ENTITIES
  0
LINE
  8
1
 62
7
  6
CONTINUOUS
 10
36.565182
 20
50.109863
 11
36.565182
 21
33.209863
  0
LINE
  8
1
 62
7
  6
CONTINUOUS
 10
101.800254
 20
48.884863
 11
105.300254
 21
48.884863
  0
LINE
  8
1
 62
7
  6
CONTINUOUS
 10
101.800254
 20
49.159863
 11
105.300254
 21
49.159863
  0
LINE
  8
1
 62
7
  6
CONTINUOUS
 10
101.800254
 20
49.434863
 11
105.300254
 21
49.434863
  0
LINE
  8
1
 62
7
  6
CONTINUOUS
 10
101.800254
 20
48.609863
 11
101.800254
 21
49.709863
  0
LINE
  8
1
 62
7
  6
CONTINUOUS
 10
101.800254
 20
45.884863
 11
105.300254
 21
45.884863
  0
LINE
  8
1
 62
7
  6
CONTINUOUS
 10
101.800254
 20
46.159863
 11
105.300254
 21
46.159863
  0
LINE
  8
1
 62
7
  6
CONTINUOUS
 10
101.800254
 20
46.434863
 11
105.300254
 21
46.434863
  0
LINE
  8
1
 62
7
  6
CONTINUOUS
 10
101.800254
 20
45.609863
 11
101.800254
 21
46.709863
  0
LINE
  8
1
 62
7
  6
CONTINUOUS
 10
101.800254
 20
42.884863
 11
105.300254
 21
42.884863
  0
LINE
  8
1
 62
7
  6
CONTINUOUS
 10
101.800254
 20
43.159863
 11
105.300254
 21
43.159863
  0
LINE
  8
1
 62
7
  6
CONTINUOUS
 10
101.800254
 20
43.434863
 11
105.300254
 21
43.434863
  0
LINE
  8
1
 62
7
  6
CONTINUOUS
 10
101.800254
 20
42.609863
 11
101.800254
 21
43.709863
  0
LINE
  8
1
 62
7
  6
CONTINUOUS
 10
101.800254
 20
39.884863
 11
105.300254
 21
39.884863
  0
LINE
  8
1
 62
7
  6
CONTINUOUS
 10
101.800254
 20
40.159863
 11
105.300254
 21
40.159863
  0
LINE
  8
1
 62
7
  6
CONTINUOUS
 10
101.800254
 20
40.434863
 11
105.300254
 21
40.434863
  0
LINE
  8
1
 62
7
  6
CONTINUOUS
 10
101.800254
 20
39.609863
 11
101.800254
 21
40.709863
  0
LINE
  8
1
 62
7
  6
CONTINUOUS
 10
71.415182
 20
49.709863
 11
101.800254
 21
49.709863
  0
LINE
  8
1
 62
7
  6
CONTINUOUS
 10
71.415182
 20
48.609863
 11
101.800254
 21
48.609863
  0
LINE
  8
1
 62
7
  6
CONTINUOUS
 10
71.415182
 20
46.709863
 11
101.800254
 21
46.709863
  0
LINE
  8
1
 62
7
  6
CONTINUOUS
 10
71.415182
 20
45.609863
 11
101.800254
 21
45.609863
  0
LINE
  8
1
 62
7
  6
CONTINUOUS
 10
71.415182
 20
43.709863
 11
101.800254
 21
43.709863
  0
LINE
  8
1
 62
7
  6
CONTINUOUS
 10
71.415182
 20
42.609863
 11
101.800254
 21
42.609863
  0
LINE
  8
1
 62
7
  6
CONTINUOUS
 10
71.415182
 20
39.609863
 11
101.800254
 21
39.609863
  0
LINE
  8
1
 62
7
  6
CONTINUOUS
 10
71.415182
 20
40.709863
 11
101.800254
 21
40.709863
  0
LINE
  8
1
 62
7
  6
CONTINUOUS
 10
41.065182
 20
45.609863
 11
70.415182
 21
45.609863
  0
LINE
  8
1
 62
7
  6
CONTINUOUS
 10
41.065182
 20
46.709863
 11
70.415182
 21
46.709863
  0
LINE
  8
1
 62
7
  6
CONTINUOUS
 10
41.065182
 20
42.609863
 11
70.415182
 21
42.609863
  0
LINE
  8
1
 62
7
  6
CONTINUOUS
 10
41.065182
 20
43.709863
 11
70.415182
 21
43.709863
  0
LINE
  8
1
 62
7
  6
CONTINUOUS
 10
41.065182
 20
39.609863
 11
70.415182
 21
39.609863
  0
LINE
  8
1
 62
7
  6
CONTINUOUS
 10
41.065182
 20
40.709863
 11
70.415182
 21
40.709863
  0
LINE
  8
1
 62
7
  6
CONTINUOUS
 10
41.065182
 20
37.709863
 11
70.415182
 21
37.709863
  0
LINE
  8
1
 62
7
  6
CONTINUOUS
 10
41.065182
 20
36.609863
 11
70.415182
 21
36.609863
  0
LINE
  8
1
 62
7
  6
CONTINUOUS
 10
40.076506
 20
49.159863
 11
40.076506
 21
34.159863
  0
LINE
  8
1
 62
7
  6
CONTINUOUS
 10
40.765182
 20
32.709863
 11
40.465182
 21
32.709863
  0
LINE
  8
1
 62
7
  6
CONTINUOUS
 10
40.465182
 20
32.709863
 11
40.076506
 21
33.209863
  0
LINE
  8
1
 62
7
  6
CONTINUOUS
 10
40.076506
 20
33.209863
 11
37.816087
 21
33.209863
  0
LINE
  8
1
 62
7
  6
CONTINUOUS
 10
40.465182
 20
32.709863
 11
37.816087
 21
32.709863
  0
LINE
  8
1
 62
7
  6
CONTINUOUS
 10
37.816087
 20
32.709863
 11
37.816087
 21
33.209863
  0
LINE
  8
1
 62
7
  6
CONTINUOUS
 10
37.816087
 20
50.609863
 11
40.465182
 21
50.609863
  0
LINE
  8
1
 62
7
  6
CONTINUOUS
 10
37.816087
 20
50.109863
 11
37.816087
 21
50.609863
  0
LINE
  8
1
 62
7
  6
CONTINUOUS
 10
40.465182
 20
50.609863
 11
40.765182
 21
50.609863
  0
LINE
  8
1
 62
7
  6
CONTINUOUS
 10
40.076506
 20
50.109863
 11
40.465182
 21
50.609863
  0
LINE
  8
1
 62
7
  6
CONTINUOUS
 10
40.076506
 20
34.159863
 11
40.765182
 21
34.159863
  0
LINE
  8
1
 62
7
  6
CONTINUOUS
 10
40.765182
 20
49.159863
 11
40.076506
 21
49.159863
  0
LINE
  8
1
 62
7
  6
CONTINUOUS
 10
37.816087
 20
50.109863
 11
40.076506
 21
50.109863
  0
LINE
  8
1
 62
7
  6
CONTINUOUS
 10
37.816087
 20
33.209863
 11
36.265182
 21
33.209863
  0
LINE
  8
1
 62
7
  6
CONTINUOUS
 10
36.265182
 20
33.209863
 11
36.265182
 21
50.109863
  0
LINE
  8
1
 62
7
  6
CONTINUOUS
 10
36.265182
 20
50.109863
 11
37.816087
 21
50.109863
  0
LINE
  8
1
 62
7
  6
CONTINUOUS
 10
40.765182
 20
32.709863
 11
40.765182
 21
50.609863
  0
LINE
  8
1
 62
7
  6
CONTINUOUS
 10
40.765182
 20
48.209863
 11
41.065182
 21
48.209863
  0
LINE
  8
1
 62
7
  6
CONTINUOUS
 10
41.065182
 20
48.209863
 11
41.065182
 21
48.609863
  0
LINE
  8
1
 62
7
  6
CONTINUOUS
 10
41.065182
 20
48.609863
 11
40.765182
 21
48.609863
  0
LINE
  8
1
 62
7
  6
CONTINUOUS
 10
40.765182
 20
46.709863
 11
41.065182
 21
46.709863
  0
LINE
  8
1
 62
7
  6
CONTINUOUS
 10
41.065182
 20
46.709863
 11
41.065182
 21
47.109863
  0
LINE
  8
1
 62
7
  6
CONTINUOUS
 10
41.065182
 20
47.109863
 11
40.765182
 21
47.109863
  0
LINE
  8
1
 62
7
  6
CONTINUOUS
 10
40.765182
 20
45.209863
 11
41.065182
 21
45.209863
  0
LINE
  8
1
 62
7
  6
CONTINUOUS
 10
41.065182
 20
45.209863
 11
41.065182
 21
45.609863
  0
LINE
  8
1
 62
7
  6
CONTINUOUS
 10
41.065182
 20
45.609863
 11
40.765182
 21
45.609863
  0
LINE
  8
1
 62
7
  6
CONTINUOUS
 10
40.765182
 20
43.709863
 11
41.065182
 21
43.709863
  0
LINE
  8
1
 62
7
  6
CONTINUOUS
 10
41.065182
 20
43.709863
 11
41.065182
 21
44.109863
  0
LINE
  8
1
 62
7
  6
CONTINUOUS
 10
41.065182
 20
44.109863
 11
40.765182
 21
44.109863
  0
LINE
  8
1
 62
7
  6
CONTINUOUS
 10
40.765182
 20
42.209863
 11
41.065182
 21
42.209863
  0
LINE
  8
1
 62
7
  6
CONTINUOUS
 10
41.065182
 20
42.209863
 11
41.065182
 21
42.609863
  0
LINE
  8
1
 62
7
  6
CONTINUOUS
 10
41.065182
 20
42.609863
 11
40.765182
 21
42.609863
  0
LINE
  8
1
 62
7
  6
CONTINUOUS
 10
40.765182
 20
40.709863
 11
41.065182
 21
40.709863
  0
LINE
  8
1
 62
7
  6
CONTINUOUS
 10
41.065182
 20
40.709863
 11
41.065182
 21
41.109863
  0
LINE
  8
1
 62
7
  6
CONTINUOUS
 10
41.065182
 20
41.109863
 11
40.765182
 21
41.109863
  0
LINE
  8
1
 62
7
  6
CONTINUOUS
 10
40.765182
 20
39.209863
 11
41.065182
 21
39.209863
  0
LINE
  8
1
 62
7
  6
CONTINUOUS
 10
41.065182
 20
39.209863
 11
41.065182
 21
39.609863
  0
LINE
  8
1
 62
7
  6
CONTINUOUS
 10
41.065182
 20
39.609863
 11
40.765182
 21
39.609863
  0
LINE
  8
1
 62
7
  6
CONTINUOUS
 10
40.765182
 20
37.709863
 11
41.065182
 21
37.709863
  0
LINE
  8
1
 62
7
  6
CONTINUOUS
 10
41.065182
 20
37.709863
 11
41.065182
 21
38.109863
  0
LINE
  8
1
 62
7
  6
CONTINUOUS
 10
41.065182
 20
38.109863
 11
40.765182
 21
38.109863
  0
LINE
  8
1
 62
7
  6
CONTINUOUS
 10
40.765182
 20
36.209863
 11
41.065182
 21
36.209863
  0
LINE
  8
1
 62
7
  6
CONTINUOUS
 10
41.065182
 20
36.209863
 11
41.065182
 21
36.609863
  0
LINE
  8
1
 62
7
  6
CONTINUOUS
 10
41.065182
 20
36.609863
 11
40.765182
 21
36.609863
  0
LINE
  8
1
 62
7
  6
CONTINUOUS
 10
40.765182
 20
34.709863
 11
41.065182
 21
34.709863
  0
LINE
  8
1
 62
7
  6
CONTINUOUS
 10
41.065182
 20
34.709863
 11
41.065182
 21
35.109863
  0
LINE
  8
1
 62
7
  6
CONTINUOUS
 10
41.065182
 20
35.109863
 11
40.765182
 21
35.109863
  0
LINE
  8
1
 62
7
  6
CONTINUOUS
 10
41.065182
 20
33.609863
 11
41.065182
 21
32.709863
  0
LINE
  8
1
 62
7
  6
CONTINUOUS
 10
41.065182
 20
32.709863
 11
40.765182
 21
32.709863
  0
LINE
  8
1
 62
7
  6
CONTINUOUS
 10
40.765182
 20
50.609863
 11
41.065182
 21
50.609863
  0
LINE
  8
1
 62
7
  6
CONTINUOUS
 10
41.065182
 20
50.609863
 11
41.065182
 21
49.709863
  0
LINE
  8
1
 62
7
  6
CONTINUOUS
 10
41.065182
 20
33.609863
 11
40.765182
 21
33.609863
  0
LINE
  8
1
 62
7
  6
CONTINUOUS
 10
41.065182
 20
49.709863
 11
40.765182
 21
49.709863
  0
LINE
  8
1
 62
7
  6
CONTINUOUS
 10
71.415182
 20
32.077856
 11
71.415182
 21
51.269863
  0
LINE
  8
1
 62
7
  6
CONTINUOUS
 10
70.415182
 20
32.077856
 11
70.415182
 21
51.269863
  0
LINE
  8
1
 62
7
  6
CONTINUOUS
 10
101.800254
 20
36.884863
 11
105.300254
 21
36.884863
  0
LINE
  8
1
 62
7
  6
CONTINUOUS
 10
101.800254
 20
37.159863
 11
105.300254
 21
37.159863
  0
LINE
  8
1
 62
7
  6
CONTINUOUS
 10
101.800254
 20
37.434863
 11
105.300254
 21
37.434863
  0
LINE
  8
1
 62
7
  6
CONTINUOUS
 10
101.800254
 20
36.609863
 11
101.800254
 21
37.709863
  0
LINE
  8
1
 62
7
  6
CONTINUOUS
 10
71.415182
 20
36.609863
 11
101.800254
 21
36.609863
  0
LINE
  8
1
 62
7
  6
CONTINUOUS
 10
71.415182
 20
37.709863
 11
101.800254
 21
37.709863
  0
LINE
  8
1
 62
7
  6
CONTINUOUS
 10
101.800254
 20
33.884863
 11
105.300254
 21
33.884863
  0
LINE
  8
1
 62
7
  6
CONTINUOUS
 10
101.800254
 20
34.159863
 11
105.300254
 21
34.159863
  0
LINE
  8
1
 62
7
  6
CONTINUOUS
 10
101.800254
 20
34.434863
 11
105.300254
 21
34.434863
  0
LINE
  8
1
 62
7
  6
CONTINUOUS
 10
101.800254
 20
33.609863
 11
101.800254
 21
34.709863
  0
LINE
  8
1
 62
7
  6
CONTINUOUS
 10
71.415182
 20
33.609863
 11
101.800254
 21
33.609863
  0
LINE
  8
1
 62
7
  6
CONTINUOUS
 10
71.415182
 20
34.709863
 11
101.800254
 21
34.709863
  0
LINE
  8
1
 62
7
  6
CONTINUOUS
 10
41.065182
 20
33.609863
 11
70.415182
 21
33.609863
  0
LINE
  8
1
 62
7
  6
CONTINUOUS
 10
41.065182
 20
34.709863
 11
70.415182
 21
34.709863
  0
LINE
  8
1
 62
7
  6
CONTINUOUS
 10
41.065182
 20
49.709863
 11
70.415182
 21
49.709863
  0
LINE
  8
1
 62
7
  6
CONTINUOUS
 10
41.065182
 20
48.609863
 11
70.415182
 21
48.609863
  0
LINE
  8
1
 62
7
  6
HIDDEN
 10
82.433630
 20
98.175238
 11
82.433630
 21
89.275238
  0
LINE
  8
1
 62
7
  6
HIDDEN
 10
81.433630
 20
98.175238
 11
81.433630
 21
89.275238
  0
LINE
  8
1
 62
7
  6
HIDDEN
 10
97.433630
 20
98.313039
 11
97.433630
 21
89.413039
  0
LINE
  8
1
 62
7
  6
HIDDEN
 10
96.433630
 20
98.313039
 11
96.433630
 21
89.413039
  0
LINE
  8
1
 62
7
  6
CONTINUOUS
 10
46.312474
 20
19.598361
 11
94.033618
 21
19.598361
  0
LINE
  8
1
 62
7
  6
CONTINUOUS
 10
99.933630
 20
102.275238
 11
99.933630
 21
99.275238
  0
LINE
  8
1
 62
7
  6
CONTINUOUS
 10
98.533630
 20
99.275238
 11
98.533630
 21
102.275238
  0
LINE
  8
1
 62
7
  6
CONTINUOUS
 10
98.433630
 20
102.275238
 11
98.433630
 21
99.275238
  0
LINE
  8
1
 62
7
  6
CONTINUOUS
 10
100.133630
 20
99.775238
 11
100.133630
 21
102.275238
  0
LINE
  8
1
 62
7
  6
CONTINUOUS
 10
100.133630
 20
101.275238
 11
99.933630
 21
101.275238
  0
LINE
  8
1
 62
7
  6
CONTINUOUS
 10
102.155696
 20
101.728196
 11
101.441394
 21
100.322279
  0
LINE
  8
1
 62
7
  6
CONTINUOUS
 10
100.549862
 20
99.775238
 11
99.933630
 21
99.775238
  0
LINE
  8
1
 62
7
  6
CONTINUOUS
 10
98.433630
 20
99.275238
 11
80.433630
 21
99.275238
  0
LINE
  8
1
 62
7
  6
CONTINUOUS
 10
78.933630
 20
99.775238
 11
78.317398
 21
99.775238
  0
LINE
  8
1
 62
7
  6
CONTINUOUS
 10
78.933630
 20
99.275238
 11
78.933630
 21
102.275238
  0
LINE
  8
1
 62
7
  6
CONTINUOUS
 10
80.333630
 20
99.275238
 11
78.933630
 21
99.275238
  0
LINE
  8
1
 62
7
  6
CONTINUOUS
 10
80.333630
 20
102.275238
 11
80.333630
 21
99.275238
  0
LINE
  8
1
 62
7
  6
CONTINUOUS
 10
80.433630
 20
99.275238
 11
80.433630
 21
102.275238
  0
LINE
  8
1
 62
7
  6
CONTINUOUS
 10
78.733630
 20
102.275238
 11
78.733630
 21
99.775238
  0
LINE
  8
1
 62
7
  6
CONTINUOUS
 10
78.733630
 20
101.275238
 11
78.933630
 21
101.275238
  0
LINE
  8
1
 62
7
  6
CONTINUOUS
 10
76.711564
 20
101.728196
 11
77.425866
 21
100.322279
  0
LINE
  8
1
 62
7
  6
CONTINUOUS
 10
78.634185
 20
99.775238
 11
78.317398
 21
99.775238
  0
LINE
  8
1
 62
7
  6
CONTINUOUS
 10
196.729298
 20
106.275223
 11
204.481175
 21
106.275238
  0
LINE
  8
1
 62
7
  6
CONTINUOUS
 10
196.729298
 20
137.275238
 11
204.481175
 21
137.275238
  0
LINE
  8
1
 62
7
  6
HIDDEN
 10
91.433630
 20
98.175238
 11
91.433630
 21
89.275238
  0
LINE
  8
1
 62
7
  6
HIDDEN
 10
87.433630
 20
98.175238
 11
87.433630
 21
89.275238
  0
LINE
  8
1
 62
7
  6
CONTINUOUS
 10
155.624173
 20
119.275238
 11
169.411108
 21
119.275238
  0
LINE
  8
4
 62
54
  6
CONTINUOUS
 10
192.011108
 20
133.775238
 11
192.011108
 21
137.575238
  0
LINE
  8
4
 62
54
  6
CONTINUOUS
 10
191.211108
 20
133.775238
 11
191.211108
 21
137.575238
  0
LINE
  8
4
 62
54
  6
CONTINUOUS
 10
190.411108
 20
133.775238
 11
190.411108
 21
141.275238
  0
LINE
  8
4
 62
54
  6
CONTINUOUS
 10
189.611108
 20
133.775238
 11
189.611108
 21
141.275238
  0
LINE
  8
4
 62
54
  6
CONTINUOUS
 10
188.811108
 20
133.775238
 11
188.811108
 21
141.275238
  0
LINE
  8
4
 62
54
  6
CONTINUOUS
 10
188.011108
 20
133.775238
 11
188.011108
 21
134.600163
  0
LINE
  8
4
 62
54
  6
CONTINUOUS
 10
182.911108
 20
109.775238
 11
182.911108
 21
102.275238
  0
LINE
  8
4
 62
54
  6
CONTINUOUS
 10
178.911108
 20
109.775238
 11
178.911108
 21
105.975238
  0
LINE
  8
4
 62
54
  6
CONTINUOUS
 10
179.711108
 20
109.775238
 11
179.711108
 21
105.975238
  0
LINE
  8
4
 62
54
  6
CONTINUOUS
 10
180.511108
 20
109.775238
 11
180.511108
 21
102.275238
  0
LINE
  8
4
 62
54
  6
CONTINUOUS
 10
182.111108
 20
109.775238
 11
182.111108
 21
102.275238
  0
LINE
  8
4
 62
54
  6
CONTINUOUS
 10
181.311108
 20
109.775238
 11
181.311108
 21
102.275238
  0
LINE
  8
2
 62
134
  6
CONTINUOUS
 10
149.381308
 20
121.775238
 11
205.651937
 21
121.775238
  0
LINE
  8
2
 62
134
  6
CONTINUOUS
 10
104.933630
 20
134.775238
 11
104.933630
 21
139.775238
  0
LINE
  8
2
 62
134
  6
CONTINUOUS
 10
102.433630
 20
137.275238
 11
107.433630
 21
137.275238
  0
LINE
  8
2
 62
134
  6
CONTINUOUS
 10
73.933630
 20
134.775238
 11
73.933630
 21
139.775238
  0
LINE
  8
2
 62
134
  6
CONTINUOUS
 10
76.433630
 20
137.275238
 11
71.433630
 21
137.275238
  0
LINE
  8
2
 62
134
  6
CONTINUOUS
 10
104.933630
 20
108.775238
 11
104.933630
 21
103.775238
  0
LINE
  8
2
 62
134
  6
CONTINUOUS
 10
102.433630
 20
106.275238
 11
107.433630
 21
106.275238
  0
LINE
  8
2
 62
134
  6
CONTINUOUS
 10
73.933630
 20
108.775238
 11
73.933630
 21
103.775238
  0
LINE
  8
2
 62
134
  6
CONTINUOUS
 10
76.433630
 20
106.275238
 11
71.433630
 21
106.275238
  0
LINE
  8
2
 62
134
  6
CONTINUOUS
 10
64.933630
 20
121.775238
 11
113.933630
 21
121.775238
  0
LINE
  8
2
 62
134
  6
CONTINUOUS
 10
89.433630
 20
146.275238
 11
89.433630
 21
96.075238
  0
LINE
  8
1
 62
7
  6
CONTINUOUS
 10
70.758780
 20
141.275238
 11
108.108430
 21
141.275238
  0
LINE
  8
1
 62
7
  6
CONTINUOUS
 10
70.758780
 20
102.275238
 11
108.108430
 21
102.275238
  0
LINE
  8
1
 62
7
  6
CONTINUOUS
 10
108.933630
 20
140.450038
 11
108.933630
 21
103.100338
  0
LINE
  8
1
 62
7
  6
CONTINUOUS
 10
69.933630
 20
140.450038
 11
69.933630
 21
103.100338
  0
LINE
  8
1
 62
7
  6
HIDDEN
 10
88.433630
 20
98.175238
 11
88.433630
 21
89.275238
  0
LINE
  8
1
 62
7
  6
HIDDEN
 10
90.433630
 20
98.175238
 11
90.433630
 21
89.275238
  0
LINE
  8
4
 62
54
  6
CONTINUOUS
 10
186.411108
 20
137.375338
 11
186.411108
 21
141.275238
  0
LINE
  8
4
 62
54
  6
CONTINUOUS
 10
187.211108
 20
135.425338
 11
187.211108
 21
141.275238
  0
LINE
  8
4
 62
54
  6
CONTINUOUS
 10
184.511108
 20
106.175138
 11
184.511108
 21
102.275238
  0
LINE
  8
4
 62
54
  6
CONTINUOUS
 10
183.711108
 20
108.125138
 11
183.711108
 21
102.275238
  0
LINE
  8
1
 62
7
  6
CONTINUOUS
 10
201.411108
 20
140.275238
 11
201.411108
 21
100.775238
  0
LINE
  8
1
 62
7
  6
CONTINUOUS
 10
179.811108
 20
105.975238
 11
177.811108
 21
105.975238
  0
LINE
  8
1
 62
7
  6
CONTINUOUS
 10
199.211108
 20
103.525238
 11
199.211108
 21
109.025238
  0
LINE
  8
1
 62
7
  6
CONTINUOUS
 10
199.211108
 20
134.525238
 11
199.211108
 21
140.025238
  0
LINE
  8
1
 62
7
  6
CONTINUOUS
 10
199.211108
 20
140.025238
 11
199.950209
 21
140.025237
  0
LINE
  8
1
 62
7
  6
CONTINUOUS
 10
199.211108
 20
134.525238
 11
199.950209
 21
134.525238
  0
LINE
  8
1
 62
7
  6
CONTINUOUS
 10
179.811108
 20
102.275238
 11
192.811108
 21
102.275238
  0
LINE
  8
1
 62
7
  6
CONTINUOUS
 10
181.811108
 20
141.275238
 11
190.811108
 21
141.275238
  0
LINE
  8
1
 62
7
  6
CONTINUOUS
 10
192.811108
 20
105.975238
 11
190.811108
 21
105.975238
  0
LINE
  8
1
 62
7
  6
CONTINUOUS
 10
192.811108
 20
137.575238
 11
190.811108
 21
137.575238
  0
LINE
  8
1
 62
7
  6
CONTINUOUS
 10
192.811108
 20
137.575238
 11
192.811108
 21
105.975238
  0
LINE
  8
1
 62
7
  6
CONTINUOUS
 10
171.411108
 20
132.275238
 11
171.411108
 21
110.275238
  0
LINE
  8
1
 62
7
  6
CONTINUOUS
 10
179.811108
 20
102.275238
 11
171.411108
 21
102.275238
  0
LINE
  8
1
 62
7
  6
CONTINUOUS
 10
171.411108
 20
102.275238
 11
171.411108
 21
110.275238
  0
LINE
  8
1
 62
7
  6
CONTINUOUS
 10
171.411108
 20
141.275238
 11
171.411108
 21
132.275238
  0
LINE
  8
1
 62
7
  6
CONTINUOUS
 10
181.811108
 20
141.275238
 11
171.411108
 21
141.275238
  0
LINE
  8
1
 62
7
  6
CONTINUOUS
 10
169.411108
 20
132.775238
 11
169.411108
 21
110.775238
  0
LINE
  8
1
 62
7
  6
CONTINUOUS
 10
169.411108
 20
132.775238
 11
171.411108
 21
132.775238
  0
LINE
  8
1
 62
7
  6
CONTINUOUS
 10
169.411108
 20
110.775238
 11
171.411108
 21
110.775238
  0
LINE
  8
1
 62
7
  6
CONTINUOUS
 10
181.811108
 20
137.575238
 11
177.811108
 21
137.575238
  0
LINE
  8
1
 62
7
  6
CONTINUOUS
 10
200.411108
 20
141.275238
 11
190.811108
 21
141.275238
  0
LINE
  8
1
 62
7
  6
CONTINUOUS
 10
199.211108
 20
140.275238
 11
199.211108
 21
134.652541
  0
LINE
  8
1
 62
7
  6
CONTINUOUS
 10
199.711108
 20
133.786538
 11
200.911103
 21
133.093666
  0
LINE
  8
1
 62
7
  6
CONTINUOUS
 10
199.211108
 20
103.275238
 11
199.211098
 21
108.897941
  0
LINE
  8
1
 62
7
  6
CONTINUOUS
 10
199.711108
 20
109.763938
 11
200.911094
 21
110.456826
  0
LINE
  8
1
 62
7
  6
CONTINUOUS
 10
199.211108
 20
134.525238
 11
199.211108
 21
140.025238
  0
LINE
  8
1
 62
7
  6
CONTINUOUS
 10
199.211108
 20
103.525238
 11
199.211108
 21
109.025238
  0
LINE
  8
1
 62
7
  6
CONTINUOUS
 10
177.811108
 20
105.975238
 11
177.811108
 21
137.575238
  0
LINE
  8
1
 62
7
  6
CONTINUOUS
 10
169.411108
 20
124.275238
 11
155.624173
 21
124.275238
  0
LINE
  8
1
 62
7
  6
CONTINUOUS
 10
181.811108
 20
137.575238
 11
190.811108
 21
137.575238
  0
LINE
  8
1
 62
7
  6
CONTINUOUS
 10
179.811108
 20
105.975238
 11
190.811108
 21
105.975238
  0
LINE
  8
1
 62
7
  6
CONTINUOUS
 10
179.811108
 20
143.445941
 11
190.811108
 21
143.445941
  0
LINE
  8
1
 62
7
  6
CONTINUOUS
 10
77.850388
 20
143.445941
 11
99.853726
 21
143.445941
  0
LINE
  8
1
 62
7
  6
CONTINUOUS
 10
188.011108
 20
134.600163
 11
188.011108
 21
133.775238
  0
LINE
  8
1
 62
7
  6
CONTINUOUS
 10
189.611108
 20
137.575238
 11
189.611108
 21
130.655495
  0
LINE
  8
1
 62
7
  6
CONTINUOUS
 10
191.211108
 20
137.575238
 11
191.211108
 21
127.295573
  0
LINE
  8
1
 62
7
  6
CONTINUOUS
 10
179.711108
 20
105.975238
 11
179.711108
 21
117.837835
  0
LINE
  8
1
 62
7
  6
CONTINUOUS
 10
181.311108
 20
105.975238
 11
181.311108
 21
113.950269
  0
LINE
  8
1
 62
7
  6
CONTINUOUS
 10
180.511108
 20
105.975238
 11
180.511108
 21
109.775238
  0
LINE
  8
4
 62
54
  6
CONTINUOUS
 10
188.011108
 20
134.600163
 11
188.011108
 21
141.275238
  0
LINE
  8
1
 62
7
  6
CONTINUOUS
 10
178.911108
 20
119.781617
 11
178.911108
 21
108.029457
  0
LINE
  8
1
 62
7
  6
CONTINUOUS
 10
180.511108
 20
115.894052
 11
180.511108
 21
105.975238
  0
LINE
  8
1
 62
7
  6
CONTINUOUS
 10
182.111108
 20
112.006486
 11
182.111108
 21
105.975238
  0
LINE
  8
1
 62
7
  6
CONTINUOUS
 10
188.811108
 20
132.335455
 11
188.811108
 21
137.575238
  0
LINE
  8
1
 62
7
  6
CONTINUOUS
 10
190.411108
 20
128.975534
 11
190.411108
 21
137.575238
  0
LINE
  8
1
 62
7
  6
CONTINUOUS
 10
192.011108
 20
125.615612
 11
192.011108
 21
137.575238
  0
LINE
  8
1
 62
7
  6
CONTINUOUS
 10
154.911108
 20
124.062681
 11
154.911108
 21
119.487794
  0
LINE
  8
1
 62
7
  6
CONTINUOUS
 10
154.911108
 20
119.487794
 11
155.624173
 21
119.275238
  0
LINE
  8
1
 62
7
  6
CONTINUOUS
 10
199.211108
 20
109.025238
 11
199.950209
 21
109.025237
  0
LINE
  8
1
 62
7
  6
CONTINUOUS
 10
199.211108
 20
103.525238
 11
199.950209
 21
103.525238
  0
LINE
  8
1
 62
7
  6
CONTINUOUS
 10
155.624173
 20
119.275238
 11
155.624173
 21
124.275238
  0
LINE
  8
1
 62
7
  6
CONTINUOUS
 10
177.811108
 20
105.975238
 11
177.811108
 21
102.275238
  0
LINE
  8
1
 62
7
  6
CONTINUOUS
 10
177.811108
 20
137.575238
 11
177.811108
 21
141.275238
  0
LINE
  8
1
 62
7
  6
CONTINUOUS
 10
192.811108
 20
137.575238
 11
192.811108
 21
141.275238
  0
LINE
  8
1
 62
7
  6
CONTINUOUS
 10
191.211108
 20
136.965017
 11
191.211108
 21
141.275238
  0
LINE
  8
1
 62
7
  6
CONTINUOUS
 10
192.011108
 20
137.575238
 11
192.011108
 21
141.275238
  0
LINE
  8
1
 62
7
  6
CONTINUOUS
 10
178.911108
 20
105.975238
 11
178.911108
 21
102.275238
  0
LINE
  8
1
 62
7
  6
CONTINUOUS
 10
179.711108
 20
105.975238
 11
179.711108
 21
102.275238
  0
LINE
  8
1
 62
7
  6
CONTINUOUS
 10
192.811108
 20
105.975238
 11
192.811108
 21
102.275238
  0
LINE
  8
1
 62
7
  6
CONTINUOUS
 10
192.811108
 20
102.275238
 11
192.811108
 21
99.275238
  0
LINE
  8
1
 62
7
  6
CONTINUOUS
 10
192.811108
 20
99.275238
 11
197.011108
 21
99.275238
  0
LINE
  8
1
 62
7
  6
CONTINUOUS
 10
197.011108
 20
99.275238
 11
197.011108
 21
99.775238
  0
LINE
  8
1
 62
7
  6
CONTINUOUS
 10
192.811108
 20
99.775238
 11
200.411108
 21
99.775238
  0
LINE
  8
1
 62
7
  6
CONTINUOUS
 10
192.811108
 20
102.275238
 11
198.211109
 21
102.275238
  0
LINE
  8
1
 62
7
  6
CONTINUOUS
 10
98.533630
 20
99.275238
 11
99.933630
 21
99.275238
  0
LINE
  8
1
 62
7
  6
HIDDEN
 10
94.433630
 20
98.175238
 11
94.433630
 21
89.275238
  0
LINE
  8
1
 62
7
  6
HIDDEN
 10
93.433630
 20
98.175238
 11
93.433630
 21
89.275238
  0
LINE
  8
1
 62
7
  6
HIDDEN
 10
84.433630
 20
98.175238
 11
84.433630
 21
89.275238
  0
LINE
  8
1
 62
7
  6
HIDDEN
 10
85.433630
 20
98.175238
 11
85.433630
 21
89.275238
  0
LINE
  8
1
 62
7
  6
HIDDEN
 10
98.433630
 20
99.275238
 11
98.433630
 21
98.175238
  0
LINE
  8
1
 62
7
  6
HIDDEN
 10
98.433630
 20
98.175238
 11
80.433630
 21
98.175238
  0
LINE
  8
1
 62
7
  6
HIDDEN
 10
80.433630
 20
98.175238
 11
80.433630
 21
99.275238
  0
LINE
  8
1
 62
7
  6
CONTINUOUS
 10
155.624173
 20
124.275238
 11
154.911108
 21
124.062681
  0
ARC
  8
1
 62
7
  6
CONTINUOUS
 10
89.433630
 20
121.775238
 40
27.000035
 50
-136.238180
 51
-133.761744
  0
ARC
  8
1
 62
7
  6
CONTINUOUS
 10
89.433630
 20
121.775238
 40
26.999966
 50
-46.238333
 51
-43.761820
  0
ARC
  8
1
 62
7
  6
CONTINUOUS
 10
89.433630
 20
121.775238
 40
26.999966
 50
43.761667
 51
46.238333
  0
ARC
  8
1
 62
7
  6
CONTINUOUS
 10
89.433630
 20
121.775238
 40
27.000000
 50
133.761744
 51
136.238333
  0
ARC
  8
1
 62
7
  6
CONTINUOUS
 10
194.211108
 20
137.275238
 40
6.999981
 50
-16.957866
 51
16.957749
  0
ARC
  8
1
 62
7
  6
CONTINUOUS
 10
199.950208
 20
139.025238
 40
0.999999
 50
16.957327
 51
89.999943
  0
ARC
  8
1
 62
7
  6
CONTINUOUS
 10
199.950208
 20
135.525238
 40
1.000000
 50
-89.999943
 51
-16.958144
  0
ARC
  8
1
 62
7
  6
CONTINUOUS
 10
200.411108
 20
140.275238
 40
1.000000
 50
0.000000
 51
90.000000
  0
ARC
  8
1
 62
7
  6
CONTINUOUS
 10
198.211108
 20
140.275238
 40
1.000000
 50
0.000000
 51
89.999943
  0
ARC
  8
1
 62
7
  6
CONTINUOUS
 10
200.211108
 20
134.652538
 40
1.000000
 50
179.999828
 51
-120.000728
  0
ARC
  8
1
 62
7
  6
CONTINUOUS
 10
200.411108
 20
132.227638
 40
1.000000
 50
0.000000
 51
60.000322
  0
ARC
  8
1
 62
7
  6
CONTINUOUS
 10
200.411108
 20
100.775238
 40
1.000000
 50
-90.000000
 51
0.000000
  0
ARC
  8
1
 62
7
  6
CONTINUOUS
 10
198.211108
 20
103.275238
 40
1.000000
 50
-89.999943
 51
0.000000
  0
ARC
  8
1
 62
7
  6
CONTINUOUS
 10
200.211108
 20
108.897938
 40
0.999978
 50
120.000728
 51
179.999828
  0
ARC
  8
1
 62
7
  6
CONTINUOUS
 10
200.411108
 20
111.322838
 40
0.999981
 50
-60.000311
 51
0.000000
  0
ARC
  8
1
 62
7
  6
CONTINUOUS
 10
199.950208
 20
104.525238
 40
1.000000
 50
-89.999943
 51
-16.958144
  0
ARC
  8
1
 62
7
  6
CONTINUOUS
 10
194.211108
 20
106.275238
 40
6.999981
 50
-16.957866
 51
16.957749
  0
ARC
  8
1
 62
7
  6
CONTINUOUS
 10
199.950208
 20
104.525238
 40
1.000000
 50
-89.999943
 51
-16.958144
  0
ARC
  8
1
 62
7
  6
CONTINUOUS
 10
199.950208
 20
108.025238
 40
0.999999
 50
16.957327
 51
89.999943
  0
ARC
  8
1
 62
7
  6
CONTINUOUS
 10
199.950208
 20
104.525238
 40
1.000000
 50
-89.999943
 51
-16.958144
  0
CIRCLE
  8
1
 62
7
  6
CONTINUOUS
 10
89.433630
 20
121.775238
 40
10.000000
  0
CIRCLE
  8
1
 62
7
  6
CONTINUOUS
 10
89.433630
 20
121.775238
 40
14.000000
  0
CIRCLE
  8
1
 62
7
  6
CONTINUOUS
 10
89.433630
 20
121.775238
 40
4.500000
  0
CIRCLE
  8
4
 62
54
  6
CONTINUOUS
 10
104.933630
 20
137.275238
 40
1.000000
  0
CIRCLE
  8
4
 62
54
  6
CONTINUOUS
 10
73.933630
 20
137.275238
 40
1.000000
  0
CIRCLE
  8
4
 62
54
  6
CONTINUOUS
 10
104.933630
 20
106.275238
 40
1.000000
  0
CIRCLE
  8
4
 62
54
  6
CONTINUOUS
 10
73.933630
 20
106.275238
 40
1.000000
  0
CIRCLE
  8
1
 62
7
  6
CONTINUOUS
 10
104.933630
 20
137.275238
 40
1.500000
  0
CIRCLE
  8
1
 62
7
  6
CONTINUOUS
 10
73.933630
 20
137.275238
 40
1.500000
  0
CIRCLE
  8
1
 62
7
  6
CONTINUOUS
 10
104.933630
 20
106.275238
 40
1.500000
  0
CIRCLE
  8
1
 62
7
  6
CONTINUOUS
 10
73.933630
 20
106.275238
 40
1.500000
  0
CIRCLE
  8
1
 62
7
  6
CONTINUOUS
 10
89.433630
 20
121.775238
 40
2.500000
  0
ARC
  8
1
 62
7
  6
CONTINUOUS
 10
99.133630
 20
102.275238
 40
1.000000
 50
-36.869898
 51
0.000000
  0
ARC
  8
1
 62
7
  6
CONTINUOUS
 10
100.549862
 20
100.775238
 40
1.000000
 50
-90.000000
 51
-26.933677
  0
ARC
  8
1
 62
7
  6
CONTINUOUS
 10
103.047227
 20
101.275238
 40
1.000000
 50
90.000000
 51
153.066323
  0
ARC
  8
1
 62
7
  6
CONTINUOUS
 10
79.733630
 20
102.275238
 40
1.000000
 50
180.000000
 51
-143.130102
  0
ARC
  8
1
 62
7
  6
CONTINUOUS
 10
78.317398
 20
100.775238
 40
1.000000
 50
-153.066323
 51
-90.000000
  0
ARC
  8
1
 62
7
  6
CONTINUOUS
 10
75.820033
 20
101.275238
 40
1.000000
 50
26.933677
 51
90.000000
  0
LINE
  8
1
 62
7
  6
CONTINUOUS
 10
203.485757
 20
161.275238
 11
190.811108
 21
143.445941
  0
LINE
  8
1
 62
7
  6
CONTINUOUS
 10
192.321832
 20
146.298168
 11
193.008566
 21
145.809976
  0
LINE
  8
1
 62
7
  6
CONTINUOUS
 10
193.008566
 20
145.809976
 11
190.811108
 21
143.445941
  0
LINE
  8
1
 62
7
  6
CONTINUOUS
 10
190.811108
 20
143.445941
 11
192.321832
 21
146.298168
  0
TEXT
  8
1
 62
7
  6
CONTINUOUS
 10
46.736034
 20
14.553899
 40
3.000000
 41
0.540000
  1
ATTACHMENT:CONNECTOR LEAD
  7
KANJI
 50
0.000000
 51
0.000000
  0
TEXT
  8
1
 62
7
  6
CONTINUOUS
 10
46.736034
 20
20.598361
 40
4.000000
 41
0.900000
  1
付属品：コネクターリード
  7
KANJI
 50
0.000000
 51
0.000000
  0
TEXT
  8
1
 62
7
  6
CONTINUOUS
 10
130.707603
 20
83.530984
 40
4.000000
 41
0.540000
  1
有効深サ(ＤＥＰＴＨ）　３．０ＭＩＮ
  7
KANJI
 50
0.000975
 51
0.000000
  0
TEXT
  8
1
 62
7
  6
CONTINUOUS
 10
203.639507
 20
162.407372
 40
5.000000
 41
0.720000
  1
ネ－ムプレ－ト
  7
KANJI
 50
0.000000
 51
0.000000
  0
TEXT
  8
1
 62
7
  6
CONTINUOUS
 10
204.241759
 20
156.346750
 40
3.200000
 41
0.720000
  1
ＮＡＭＥ　ＰＬＡＴＥ
  7
KANJI
 50
0.000000
 51
0.000000
  0
LINE
  8
128
 62
7
  6
CONTINUOUS
 10
59.933630
 20
106.275238
 11
59.933630
 21
137.275238
  0
LINE
  8
128
 62
7
  6
CONTINUOUS
 10
70.433630
 20
106.275238
 11
58.933630
 21
106.275238
  0
LINE
  8
128
 62
7
  6
CONTINUOUS
 10
70.433630
 20
137.275238
 11
58.933630
 21
137.275238
  0
LINE
  8
128
 62
7
  6
CONTINUOUS
 10
59.933630
 20
137.275238
 11
60.349630
 21
134.075238
  0
LINE
  8
128
 62
7
  6
CONTINUOUS
 10
60.349630
 20
134.075238
 11
59.517630
 21
134.075238
  0
LINE
  8
128
 62
7
  6
CONTINUOUS
 10
59.517630
 20
134.075238
 11
59.933630
 21
137.275238
  0
LINE
  8
128
 62
7
  6
CONTINUOUS
 10
59.933630
 20
106.275238
 11
59.517630
 21
109.475238
  0
LINE
  8
128
 62
7
  6
CONTINUOUS
 10
59.517630
 20
109.475238
 11
60.349630
 21
109.475238
  0
LINE
  8
128
 62
7
  6
CONTINUOUS
 10
60.349630
 20
109.475238
 11
59.933630
 21
106.275238
  0
TEXT
  8
128
 62
7
  6
CONTINUOUS
 10
58.333630
 20
115.667238
 40
3.200000
 41
0.900000
  1
31
  7
KANJI
 50
90.000000
 51
0.000000
  0
TEXT
  8
128
 62
7
  6
CONTINUOUS
 10
57.853630
 20
121.107238
 40
2.240000
 41
0.900000
  1
±0.2
  7
KANJI
 50
90.000000
 51
0.000000
  0
LINE
  8
128
 62
7
  6
CONTINUOUS
 10
69.933630
 20
161.275238
 11
108.933630
 21
161.275238
  0
LINE
  8
128
 62
7
  6
CONTINUOUS
 10
69.933630
 20
141.450038
 11
69.933630
 21
162.275238
  0
LINE
  8
128
 62
7
  6
CONTINUOUS
 10
108.933630
 20
141.450038
 11
108.933630
 21
162.275238
  0
LINE
  8
128
 62
7
  6
CONTINUOUS
 10
69.933630
 20
161.275238
 11
73.133630
 21
161.691238
  0
LINE
  8
128
 62
7
  6
CONTINUOUS
 10
73.133630
 20
161.691238
 11
73.133630
 21
160.859238
  0
LINE
  8
128
 62
7
  6
CONTINUOUS
 10
73.133630
 20
160.859238
 11
69.933630
 21
161.275238
  0
LINE
  8
128
 62
7
  6
CONTINUOUS
 10
108.933630
 20
161.275238
 11
105.733630
 21
160.859238
  0
LINE
  8
128
 62
7
  6
CONTINUOUS
 10
105.733630
 20
160.859238
 11
105.733630
 21
161.691238
  0
LINE
  8
128
 62
7
  6
CONTINUOUS
 10
105.733630
 20
161.691238
 11
108.933630
 21
161.275238
  0
TEXT
  8
128
 62
7
  6
CONTINUOUS
 10
87.033630
 20
162.875238
 40
3.200000
 41
0.900000
  1
39
  7
KANJI
 50
0.000000
 51
0.000000
  0
TEXT
  8
128
 62
7
  6
CONTINUOUS
 10
84.953630
 20
162.875238
 40
3.200000
 41
0.900000
  1
(
  7
KANJI
 50
0.000000
 51
0.000000
  0
TEXT
  8
128
 62
7
  6
CONTINUOUS
 10
93.433630
 20
162.875238
 40
3.200000
 41
0.900000
  1
)
  7
KANJI
 50
0.000000
 51
0.000000
  0
LINE
  8
128
 62
7
  6
CONTINUOUS
 10
49.933630
 20
102.275238
 11
49.933630
 21
141.275238
  0
LINE
  8
128
 62
7
  6
CONTINUOUS
 10
69.758780
 20
102.275238
 11
48.933630
 21
102.275238
  0
LINE
  8
128
 62
7
  6
CONTINUOUS
 10
69.758780
 20
141.275238
 11
48.933630
 21
141.275238
  0
LINE
  8
128
 62
7
  6
CONTINUOUS
 10
49.933630
 20
141.275238
 11
50.349630
 21
138.075238
  0
LINE
  8
128
 62
7
  6
CONTINUOUS
 10
50.349630
 20
138.075238
 11
49.517630
 21
138.075238
  0
LINE
  8
128
 62
7
  6
CONTINUOUS
 10
49.517630
 20
138.075238
 11
49.933630
 21
141.275238
  0
LINE
  8
128
 62
7
  6
CONTINUOUS
 10
49.933630
 20
102.275238
 11
49.517630
 21
105.475238
  0
LINE
  8
128
 62
7
  6
CONTINUOUS
 10
49.517630
 20
105.475238
 11
50.349630
 21
105.475238
  0
LINE
  8
128
 62
7
  6
CONTINUOUS
 10
50.349630
 20
105.475238
 11
49.933630
 21
102.275238
  0
TEXT
  8
128
 62
7
  6
CONTINUOUS
 10
48.333630
 20
119.375238
 40
3.200000
 41
0.900000
  1
39
  7
KANJI
 50
90.000000
 51
0.000000
  0
TEXT
  8
128
 62
7
  6
CONTINUOUS
 10
48.333630
 20
117.295238
 40
3.200000
 41
0.900000
  1
(
  7
KANJI
 50
90.000000
 51
0.000000
  0
TEXT
  8
128
 62
7
  6
CONTINUOUS
 10
48.333630
 20
125.775238
 40
3.200000
 41
0.900000
  1
)
  7
KANJI
 50
90.000000
 51
0.000000
  0
LINE
  8
128
 62
7
  6
CONTINUOUS
 10
73.933630
 20
151.275238
 11
104.933630
 21
151.275238
  0
LINE
  8
128
 62
7
  6
CONTINUOUS
 10
73.933630
 20
140.775238
 11
73.933630
 21
152.275238
  0
LINE
  8
128
 62
7
  6
CONTINUOUS
 10
104.933630
 20
140.775238
 11
104.933630
 21
152.275238
  0
LINE
  8
128
 62
7
  6
CONTINUOUS
 10
73.933630
 20
151.275238
 11
77.133630
 21
151.691238
  0
LINE
  8
128
 62
7
  6
CONTINUOUS
 10
77.133630
 20
151.691238
 11
77.133630
 21
150.859238
  0
LINE
  8
128
 62
7
  6
CONTINUOUS
 10
77.133630
 20
150.859238
 11
73.933630
 21
151.275238
  0
LINE
  8
128
 62
7
  6
CONTINUOUS
 10
104.933630
 20
151.275238
 11
101.733630
 21
150.859238
  0
LINE
  8
128
 62
7
  6
CONTINUOUS
 10
101.733630
 20
150.859238
 11
101.733630
 21
151.691238
  0
LINE
  8
128
 62
7
  6
CONTINUOUS
 10
101.733630
 20
151.691238
 11
104.933630
 21
151.275238
  0
TEXT
  8
128
 62
7
  6
CONTINUOUS
 10
83.325630
 20
152.875238
 40
3.200000
 41
0.900000
  1
31
  7
KANJI
 50
0.000000
 51
0.000000
  0
TEXT
  8
128
 62
7
  6
CONTINUOUS
 10
88.765630
 20
153.355238
 40
2.240000
 41
0.900000
  1
±0.2
  7
KANJI
 50
0.000000
 51
0.000000
  0
LINE
  8
128
 62
7
  6
CONTINUOUS
 10
134.911107
 20
110.775238
 11
134.911107
 21
132.775238
  0
LINE
  8
128
 62
7
  6
CONTINUOUS
 10
168.411107
 20
110.775238
 11
133.911107
 21
110.775238
  0
LINE
  8
128
 62
7
  6
CONTINUOUS
 10
168.411107
 20
132.775238
 11
133.911107
 21
132.775238
  0
LINE
  8
128
 62
7
  6
CONTINUOUS
 10
134.911107
 20
132.775238
 11
135.327107
 21
129.575238
  0
LINE
  8
128
 62
7
  6
CONTINUOUS
 10
135.327107
 20
129.575238
 11
134.495107
 21
129.575238
  0
LINE
  8
128
 62
7
  6
CONTINUOUS
 10
134.495107
 20
129.575238
 11
134.911107
 21
132.775238
  0
LINE
  8
128
 62
7
  6
CONTINUOUS
 10
134.911107
 20
110.775238
 11
134.495107
 21
113.975238
  0
LINE
  8
128
 62
7
  6
CONTINUOUS
 10
134.495107
 20
113.975238
 11
135.327107
 21
113.975238
  0
LINE
  8
128
 62
7
  6
CONTINUOUS
 10
135.327107
 20
113.975238
 11
134.911107
 21
110.775238
  0
TEXT
  8
128
 62
7
  6
CONTINUOUS
 10
132.111107
 20
116.547238
 40
3.200000
 41
0.900000
  1
22
  7
KANJI
 50
90.000000
 51
0.000000
  0
TEXT
  8
128
 62
7
  6
CONTINUOUS
 10
129.951107
 20
124.739238
 40
2.240000
 41
0.900000
  1
0
  7
KANJI
 50
90.000000
 51
0.000000
  0
TEXT
  8
128
 62
7
  6
CONTINUOUS
 10
133.311107
 20
122.947238
 40
2.240000
 41
0.900000
  1
-0.05
  7
KANJI
 50
90.000000
 51
0.000000
  0
TEXT
  8
128
 62
7
  6
CONTINUOUS
 10
132.111107
 20
112.707238
 40
3.200000
 41
0.900000
  1
φ
  7
KANJI
 50
90.000000
 51
0.000000
  0
LINE
  8
128
 62
7
  6
CONTINUOUS
 10
177.811107
 20
161.275238
 11
171.411107
 21
161.275238
  0
LINE
  8
128
 62
7
  6
CONTINUOUS
 10
169.411107
 20
161.275238
 11
171.411107
 21
161.275238
  0
LINE
  8
128
 62
7
  6
CONTINUOUS
 10
169.411107
 20
161.275238
 11
157.586140
 21
161.275238
  0
LINE
  8
128
 62
7
  6
CONTINUOUS
 10
169.411107
 20
133.775238
 11
169.411107
 21
162.275238
  0
LINE
  8
128
 62
7
  6
CONTINUOUS
 10
171.411107
 20
142.275238
 11
171.411107
 21
162.275238
  0
LINE
  8
128
 62
7
  6
CONTINUOUS
 10
169.411107
 20
161.275238
 11
166.211107
 21
160.859238
  0
LINE
  8
128
 62
7
  6
CONTINUOUS
 10
166.211107
 20
160.859238
 11
166.211107
 21
161.691238
  0
LINE
  8
128
 62
7
  6
CONTINUOUS
 10
166.211107
 20
161.691238
 11
169.411107
 21
161.275238
  0
LINE
  8
128
 62
7
  6
CONTINUOUS
 10
171.411107
 20
161.275238
 11
174.611107
 21
161.691238
  0
LINE
  8
128
 62
7
  6
CONTINUOUS
 10
174.611107
 20
161.691238
 11
174.611107
 21
160.859238
  0
LINE
  8
128
 62
7
  6
CONTINUOUS
 10
174.611107
 20
160.859238
 11
171.411107
 21
161.275238
  0
TEXT
  8
128
 62
7
  6
CONTINUOUS
 10
157.586140
 20
162.875238
 40
3.200000
 41
0.900000
  1
2
  7
KANJI
 50
0.000000
 51
0.000000
  0
TEXT
  8
128
 62
7
  6
CONTINUOUS
 10
161.106140
 20
163.355238
 40
2.240000
 41
0.900000
  1
±0.2
  7
KANJI
 50
0.000000
 51
0.000000
  0
LINE
  8
128
 62
7
  6
CONTINUOUS
 10
171.411107
 20
171.275238
 11
201.411107
 21
171.275238
  0
LINE
  8
128
 62
7
  6
CONTINUOUS
 10
171.411107
 20
142.275238
 11
171.411107
 21
172.275238
  0
LINE
  8
128
 62
7
  6
CONTINUOUS
 10
201.411107
 20
141.275238
 11
201.411107
 21
172.275238
  0
LINE
  8
128
 62
7
  6
CONTINUOUS
 10
201.411107
 20
171.275238
 11
198.211107
 21
170.859238
  0
LINE
  8
128
 62
7
  6
CONTINUOUS
 10
198.211107
 20
170.859238
 11
198.211107
 21
171.691238
  0
LINE
  8
128
 62
7
  6
CONTINUOUS
 10
198.211107
 20
171.691238
 11
201.411107
 21
171.275238
  0
LINE
  8
128
 62
7
  6
CONTINUOUS
 10
171.411107
 20
171.275238
 11
174.611107
 21
171.691238
  0
LINE
  8
128
 62
7
  6
CONTINUOUS
 10
174.611107
 20
171.691238
 11
174.611107
 21
170.859238
  0
LINE
  8
128
 62
7
  6
CONTINUOUS
 10
174.611107
 20
170.859238
 11
171.411107
 21
171.275238
  0
TEXT
  8
128
 62
7
  6
CONTINUOUS
 10
184.192619
 20
172.875238
 40
3.200000
 41
0.900000
  1
31
  7
KANJI
 50
0.000000
 51
0.000000
  0
TEXT
  8
128
 62
7
  6
CONTINUOUS
 10
182.112619
 20
172.875238
 40
3.200000
 41
0.900000
  1
(
  7
KANJI
 50
0.000000
 51
0.000000
  0
TEXT
  8
128
 62
7
  6
CONTINUOUS
 10
189.632619
 20
172.875238
 40
3.200000
 41
0.900000
  1
)
  7
KANJI
 50
0.000000
 51
0.000000
  0
LINE
  8
1
 62
7
  6
CONTINUOUS
 10
41.065181
 20
69.709863
 11
105.300254
 21
69.709863
  0
LINE
  8
1
 62
7
  6
CONTINUOUS
 10
105.300254
 20
50.434863
 11
105.300254
 21
71.209863
  0
LINE
  8
1
 62
7
  6
CONTINUOUS
 10
41.065181
 20
51.609863
 11
41.065181
 21
71.209863
  0
LINE
  8
1
 62
7
  6
CONTINUOUS
 10
41.065181
 20
69.709863
 11
44.265181
 21
70.125863
  0
LINE
  8
1
 62
7
  6
CONTINUOUS
 10
44.265181
 20
70.125863
 11
44.265181
 21
69.293863
  0
LINE
  8
1
 62
7
  6
CONTINUOUS
 10
44.265181
 20
69.293863
 11
41.065181
 21
69.709863
  0
LINE
  8
1
 62
7
  6
CONTINUOUS
 10
105.300254
 20
69.709863
 11
102.100254
 21
69.293863
  0
LINE
  8
1
 62
7
  6
CONTINUOUS
 10
102.100254
 20
69.293863
 11
102.100254
 21
70.125863
  0
LINE
  8
1
 62
7
  6
CONTINUOUS
 10
102.100254
 20
70.125863
 11
105.300254
 21
69.709863
  0
TEXT
  8
1
 62
7
  6
CONTINUOUS
 10
65.412094
 20
72.509863
 40
3.200000
 41
0.900000
  1
200
  7
KANJI
 50
0.000000
 51
0.000000
  0
TEXT
  8
1
 62
7
  6
CONTINUOUS
 10
74.692094
 20
74.589863
 40
1.920000
 41
0.900000
  1
+40
  7
KANJI
 50
0.000000
 51
0.000000
  0
TEXT
  8
1
 62
7
  6
CONTINUOUS
 10
76.420094
 20
71.709863
 40
1.920000
 41
0.900000
  1
 0
  7
KANJI
 50
0.000000
 51
0.000000
  0
LINE
  8
1
 62
7
  6
CONTINUOUS
 10
101.800254
 20
59.709863
 11
90.378752
 21
59.709863
  0
LINE
  8
1
 62
7
  6
CONTINUOUS
 10
101.800254
 20
59.709863
 11
105.300254
 21
59.709863
  0
LINE
  8
1
 62
7
  6
CONTINUOUS
 10
111.700254
 20
59.709863
 11
105.300254
 21
59.709863
  0
LINE
  8
1
 62
7
  6
CONTINUOUS
 10
105.300254
 20
50.434863
 11
105.300254
 21
61.209863
  0
LINE
  8
1
 62
7
  6
CONTINUOUS
 10
101.800254
 20
50.709863
 11
101.800254
 21
61.209863
  0
LINE
  8
1
 62
7
  6
CONTINUOUS
 10
101.800254
 20
59.709863
 11
98.600254
 21
59.293863
  0
LINE
  8
1
 62
7
  6
CONTINUOUS
 10
98.600254
 20
59.293863
 11
98.600254
 21
60.125863
  0
LINE
  8
1
 62
7
  6
CONTINUOUS
 10
98.600254
 20
60.125863
 11
101.800254
 21
59.709863
  0
LINE
  8
1
 62
7
  6
CONTINUOUS
 10
105.300254
 20
59.709863
 11
108.500254
 21
60.125863
  0
LINE
  8
1
 62
7
  6
CONTINUOUS
 10
108.500254
 20
60.125863
 11
108.500254
 21
59.293863
  0
LINE
  8
1
 62
7
  6
CONTINUOUS
 10
108.500254
 20
59.293863
 11
105.300254
 21
59.709863
  0
TEXT
  8
1
 62
7
  6
CONTINUOUS
 10
92.458752
 20
61.709863
 40
3.200000
 41
0.900000
  1
3.5
  7
KANJI
 50
0.000000
 51
0.000000
  0
TEXT
  8
1
 62
7
  6
CONTINUOUS
 10
90.378752
 20
61.709863
 40
3.200000
 41
0.900000
  1
(
  7
KANJI
 50
0.000000
 51
0.000000
  0
TEXT
  8
1
 62
7
  6
CONTINUOUS
 10
99.898752
 20
61.709863
 40
3.200000
 41
0.900000
  1
)
  7
KANJI
 50
0.000000
 51
0.000000
  0
LINE
  8
1
 62
7
  6
CONTINUOUS
 10
144.911107
 20
112.875238
 11
144.911107
 21
119.275238
  0
LINE
  8
1
 62
7
  6
CONTINUOUS
 10
144.911107
 20
119.275238
 11
144.911107
 21
124.275238
  0
LINE
  8
1
 62
7
  6
CONTINUOUS
 10
144.911107
 20
124.275238
 11
144.911107
 21
149.596606
  0
LINE
  8
1
 62
7
  6
CONTINUOUS
 10
154.624172
 20
119.275238
 11
143.411107
 21
119.275238
  0
LINE
  8
1
 62
7
  6
CONTINUOUS
 10
154.624172
 20
124.275238
 11
143.411107
 21
124.275238
  0
LINE
  8
1
 62
7
  6
CONTINUOUS
 10
144.911107
 20
124.275238
 11
144.495107
 21
127.475238
  0
LINE
  8
1
 62
7
  6
CONTINUOUS
 10
144.495107
 20
127.475238
 11
145.327107
 21
127.475238
  0
LINE
  8
1
 62
7
  6
CONTINUOUS
 10
145.327107
 20
127.475238
 11
144.911107
 21
124.275238
  0
LINE
  8
1
 62
7
  6
CONTINUOUS
 10
144.911107
 20
119.275238
 11
145.327107
 21
116.075238
  0
LINE
  8
1
 62
7
  6
CONTINUOUS
 10
145.327107
 20
116.075238
 11
144.495107
 21
116.075238
  0
LINE
  8
1
 62
7
  6
CONTINUOUS
 10
144.495107
 20
116.075238
 11
144.911107
 21
119.275238
  0
TEXT
  8
1
 62
7
  6
CONTINUOUS
 10
142.111107
 20
138.732606
 40
3.200000
 41
0.900000
  1
5
  7
KANJI
 50
90.000000
 51
0.000000
  0
TEXT
  8
1
 62
7
  6
CONTINUOUS
 10
140.031107
 20
142.252606
 40
1.920000
 41
0.900000
  1
 0
  7
KANJI
 50
90.000000
 51
0.000000
  0
TEXT
  8
1
 62
7
  6
CONTINUOUS
 10
142.911107
 20
142.252606
 40
1.920000
 41
0.900000
  1
-0.011
  7
KANJI
 50
90.000000
 51
0.000000
  0
TEXT
  8
1
 62
7
  6
CONTINUOUS
 10
142.111107
 20
135.088161
 40
3.200000
 41
0.900000
  1
φ
  7
KANJI
 50
90.000000
 51
0.000000
  0
LINE
  8
1
 62
7
  6
CONTINUOUS
 10
154.911107
 20
171.275238
 11
171.411107
 21
171.275238
  0
LINE
  8
1
 62
7
  6
CONTINUOUS
 10
154.911107
 20
125.062681
 11
154.911107
 21
172.775238
  0
LINE
  8
1
 62
7
  6
CONTINUOUS
 10
171.411107
 20
142.275238
 11
171.411107
 21
172.775238
  0
LINE
  8
1
 62
7
  6
CONTINUOUS
 10
171.411107
 20
171.275238
 11
168.211107
 21
170.859238
  0
LINE
  8
1
 62
7
  6
CONTINUOUS
 10
168.211107
 20
170.859238
 11
168.211107
 21
171.691238
  0
LINE
  8
1
 62
7
  6
CONTINUOUS
 10
168.211107
 20
171.691238
 11
171.411107
 21
171.275238
  0
LINE
  8
1
 62
7
  6
CONTINUOUS
 10
154.911107
 20
171.275238
 11
158.111107
 21
171.691238
  0
LINE
  8
1
 62
7
  6
CONTINUOUS
 10
158.111107
 20
171.691238
 11
158.111107
 21
170.859238
  0
LINE
  8
1
 62
7
  6
CONTINUOUS
 10
158.111107
 20
170.859238
 11
154.911107
 21
171.275238
  0
TEXT
  8
1
 62
7
  6
CONTINUOUS
 10
155.778576
 20
173.275238
 40
3.200000
 41
0.900000
  1
16.5
  7
KANJI
 50
0.000000
 51
0.000000
  0
TEXT
  8
1
 62
7
  6
CONTINUOUS
 10
165.138576
 20
173.915238
 40
1.920000
 41
0.900000
  1
±0.5
  7
KANJI
 50
0.000000
 51
0.000000
  0
LINE
  8
1
 62
7
  6
CONTINUOUS
 10
49.933630
 20
98.175238
 11
49.933630
 21
84.587217
  0
LINE
  8
1
 62
7
  6
CONTINUOUS
 10
49.933630
 20
98.175238
 11
49.933630
 21
102.275238
  0
LINE
  8
1
 62
7
  6
CONTINUOUS
 10
49.933630
 20
108.675238
 11
49.933630
 21
102.275238
  0
LINE
  8
1
 62
7
  6
CONTINUOUS
 10
69.758780
 20
102.275238
 11
48.433630
 21
102.275238
  0
LINE
  8
1
 62
7
  6
CONTINUOUS
 10
79.433630
 20
98.175238
 11
48.433630
 21
98.175238
  0
LINE
  8
1
 62
7
  6
CONTINUOUS
 10
49.933630
 20
102.275238
 11
49.517630
 21
105.475238
  0
LINE
  8
1
 62
7
  6
CONTINUOUS
 10
49.517630
 20
105.475238
 11
50.349630
 21
105.475238
  0
LINE
  8
1
 62
7
  6
CONTINUOUS
 10
50.349630
 20
105.475238
 11
49.933630
 21
102.275238
  0
LINE
  8
1
 62
7
  6
CONTINUOUS
 10
49.933630
 20
98.175238
 11
50.349630
 21
94.975238
  0
LINE
  8
1
 62
7
  6
CONTINUOUS
 10
50.349630
 20
94.975238
 11
49.517630
 21
94.975238
  0
LINE
  8
1
 62
7
  6
CONTINUOUS
 10
49.517630
 20
94.975238
 11
49.933630
 21
98.175238
  0
TEXT
  8
1
 62
7
  6
CONTINUOUS
 10
47.933630
 20
89.867217
 40
3.200000
 41
0.900000
  1
4.1
  7
KANJI
 50
90.000000
 51
0.000000
  0
TEXT
  8
1
 62
7
  6
CONTINUOUS
 10
47.933630
 20
84.587217
 40
3.200000
 41
0.900000
  1
※(
  7
KANJI
 50
90.000000
 51
0.000000
  0
TEXT
  8
1
 62
7
  6
CONTINUOUS
 10
47.933630
 20
96.347217
 40
3.200000
 41
0.900000
  1
)
  7
KANJI
 50
90.000000
 51
0.000000
  0
LINE
  8
1
 62
7
  6
CONTINUOUS
 10
118.933630
 20
102.275238
 11
118.933630
 21
112.149440
  0
LINE
  8
1
 62
7
  6
CONTINUOUS
 10
118.933630
 20
99.275238
 11
118.933630
 21
102.275238
  0
LINE
  8
1
 62
7
  6
CONTINUOUS
 10
118.933630
 20
92.875238
 11
118.933630
 21
99.275238
  0
LINE
  8
1
 62
7
  6
CONTINUOUS
 10
109.108430
 20
102.275238
 11
120.433630
 21
102.275238
  0
LINE
  8
1
 62
7
  6
CONTINUOUS
 10
100.933630
 20
99.275238
 11
120.433630
 21
99.275238
  0
LINE
  8
1
 62
7
  6
CONTINUOUS
 10
118.933630
 20
102.275238
 11
118.517630
 21
105.475238
  0
LINE
  8
1
 62
7
  6
CONTINUOUS
 10
118.517630
 20
105.475238
 11
119.349630
 21
105.475238
  0
LINE
  8
1
 62
7
  6
CONTINUOUS
 10
119.349630
 20
105.475238
 11
118.933630
 21
102.275238
  0
LINE
  8
1
 62
7
  6
CONTINUOUS
 10
118.933630
 20
99.275238
 11
119.349630
 21
96.075238
  0
LINE
  8
1
 62
7
  6
CONTINUOUS
 10
119.349630
 20
96.075238
 11
118.517630
 21
96.075238
  0
LINE
  8
1
 62
7
  6
CONTINUOUS
 10
118.517630
 20
96.075238
 11
118.933630
 21
99.275238
  0
TEXT
  8
1
 62
7
  6
CONTINUOUS
 10
116.672910
 20
108.149440
 40
3.200000
 41
0.900000
  1
3
  7
KANJI
 50
90.000000
 51
0.000000
  0
TEXT
  8
1
 62
7
  6
CONTINUOUS
 10
116.672910
 20
106.069440
 40
3.200000
 41
0.900000
  1
(
  7
KANJI
 50
90.000000
 51
0.000000
  0
TEXT
  8
1
 62
7
  6
CONTINUOUS
 10
116.672910
 20
111.669440
 40
3.200000
 41
0.900000
  1
)
  7
KANJI
 50
90.000000
 51
0.000000
  0
LINE
  8
1
 62
7
  6
CONTINUOUS
 10
186.068683
 20
170.047148
 11
186.068683
 21
144.047148
  0
LINE
  8
1
 62
7
  6
CONTINUOUS
 10
180.068683
 20
144.047148
 11
180.068683
 21
170.047148
  0
LINE
  8
1
 62
7
  6
CONTINUOUS
 10
180.068683
 20
170.047148
 11
186.068683
 21
170.047148
  0
LINE
  8
1
 62
7
  6
CONTINUOUS
 10
183.068683
 20
145.547148
 11
183.068683
 21
148.047148
  0
LINE
  8
1
 62
7
  6
CONTINUOUS
 10
185.568683
 20
147.047148
 11
180.568683
 21
147.047148
  0
LINE
  8
1
 62
7
  6
CONTINUOUS
 10
180.568683
 20
147.047148
 11
183.068683
 21
145.547148
  0
LINE
  8
1
 62
7
  6
CONTINUOUS
 10
180.068683
 20
150.047148
 11
186.068683
 21
150.047148
  0
LINE
  8
1
 62
7
  6
CONTINUOUS
 10
186.068683
 20
144.047148
 11
180.068683
 21
144.047148
  0
TEXT
  8
1
 62
7
  6
CONTINUOUS
 10
191.495502
 20
146.267437
 40
5.000000
 41
0.900000
  1
(   )
  7
KANJI
 50
90.000000
 51
0.000000
  0
TEXT
  8
1
 62
7
  6
CONTINUOUS
 10
188.575855
 20
149.784518
 40
2.000000
 41
0.900000
  1
DIRECTION
  7
KANJI
 50
90.000000
 51
0.000000
  0
TEXT
  8
1
 62
7
  6
CONTINUOUS
 10
191.575855
 20
149.784518
 40
2.000000
 41
0.900000
  1
OF LETTER
  7
KANJI
 50
90.000000
 51
0.000000
  0
TEXT
  8
1
 62
7
  6
CONTINUOUS
 10
185.068683
 20
151.093894
 40
4.000000
 41
0.900000
  1
文字ノ向キ
  7
KANJI
 50
90.000000
 51
0.000000
  0
LINE
  8
1
 62
7
  6
CONTINUOUS
 10
106.159168
 20
105.410335
 11
128.859998
 21
89.389607
  0
LINE
  8
1
 62
7
  6
CONTINUOUS
 10
128.859998
 20
89.389607
 11
155.259998
 21
89.389607
  0
LINE
  8
1
 62
7
  6
CONTINUOUS
 10
106.159168
 20
105.410335
 11
109.013515
 21
103.905092
  0
LINE
  8
1
 62
7
  6
CONTINUOUS
 10
109.013515
 20
103.905092
 11
108.533782
 21
103.225327
  0
LINE
  8
1
 62
7
  6
CONTINUOUS
 10
108.533782
 20
103.225327
 11
106.159168
 21
105.410335
  0
TEXT
  8
1
 62
7
  6
CONTINUOUS
 10
143.339998
 20
91.389607
 40
3.200000
 41
0.900000
  1
3×0.5
  7
KANJI
 50
0.000000
 51
0.000000
  0
TEXT
  8
1
 62
7
  6
CONTINUOUS
 10
134.059998
 20
91.389607
 40
3.200000
 41
0.900000
  1
4-M
  7
KANJI
 50
0.000000
 51
0.000000
  0
LINE
  8
1
 62
7
  6
CONTINUOUS
 10
230.000000
 20
161.275238
 11
203.485757
 21
161.275238
  0
ENDSEC
  0
EOF
