  0
SECTION
  2
HEADER
  9
$ACADVER
  1
AC1003
  9
$INSBASE
 10
0.000000
 20
0.000000
  9
$EXTMIN
 10
0.000000
 20
0.000000
  9
$EXTMAX
 10
420.000000
 20
297.000000
  9
$LIMMIN
 10
0.000000
 20
0.000000
  9
$LIMMAX
 10
420.000000
 20
297.000000
  9
$VIEWCTR
 10
210.000000
 20
148.500000
  9
$VIEWSIZE
 40
297.000000
  9
$PEXTMIN
 10
0.000000
 20
0.000000
 30
0.000000
  9
$PEXTMAX
 10
420.000000
 20
297.000000
 30
0.000000
  9
$SNAPMODE
 70
     0
  9
$SNAPUNIT
 10
1.000000
 20
1.000000
  9
$SNAPBASE
 10
0.000000
 20
0.000000
  9
$SNAPANG
 50
0.000000
  9
$SNAPISOPAIR
 70
     0
  9
$SNAPSTYLE
 70
     0
  9
$GRIDMODE
 70
     0
  9
$GRIDUNIT
 10
0.000000
 20
0.000000
  9
$ORTHOMODE
 70
     0
  9
$REGENMODE
 70
     1
  9
$FILLMODE
 70
     1
  9
$QTEXTMODE
 70
     0
  9
$DRAGMODE
 70
     2
  9
$LTSCALE
 40
0.250000
  9
$OSMODE
 70
     0
  9
$ATTMODE
 70
     1
  9
$TEXTSIZE
 40
0.200000
  9
$TRACEWID
 40
0.050000
  9
$TEXTSTYLE
  7
STANDARD
  9
$CLAYER
  8
0
  9
$CELTYPE
  6
BYLAYER
  9
$CECOLOR
 62
   256
  9
$DIMSCALE
 40
1.000000
  9
$DIMASZ
 40
1.000000
  9
$DIMEXO
 40
0.000000
  9
$DIMDLI
 40
0.500000
  9
$DIMRND
 40
0.000000
  9
$DIMDLE
 40
0.000000
  9
$DIMEXE
 40
0.000000
  9
$DIMTP
 40
0.000000
  9
$DIMTM
 40
0.000000
  9
$DIMTXT
 40
0.180000
  9
$DIMCEN
 40
0.000000
  9
$DIMTSZ
 40
0.000000
  9
$DIMTOL
 70
     0
  9
$DIMLIM
 70
     0
  9
$DIMTIH
 70
     1
  9
$DIMTOH
 70
     1
  9
$DIMSE1
 70
     0
  9
$DIMSE2
 70
     0
  9
$DIMTAD
 70
     0
  9
$DIMZIN
 70
     0
  9
$DIMBLK
  1

  9
$DIMASO
 70
     0
  9
$DIMSHO
 70
     0
  9
$DIMPOST
  1

  9
$DIMAPOST
  1

  9
$DIMALT
 70
     0
  9
$DIMALTD
 70
     0
  9
$DIMALTF
 40
25.400000
  9
$DIMLFAC
 40
1.000000
  9
$DIMTOFL
 70
     0
  9
$DIMTVP
 40
0.000000
  9
$DIMTIX
 70
     0
  9
$DIMSOXD
 70
     0
  9
$DIMSAH
 70
     0
  9
$DIMBLKL
  1

  9
$DIMBLKR
  1

  9
$LUNITS
 70
     2
  9
$LUPREC
 70
     2
  9
$AXISMODE
 70
     0
  9
$AXISUNIT
 10
1.000000
 20
1.000000
  9
$SKETCHINC
 40
0.000000
  9
$FILLETRAD
 40
0.000000
  9
$AUNITS
 70
     1
  9
$AUPREC
 70
     2
  9
$MENU
  1
ACAD
  9
$ELEVATION
 40
0.000000
  9
$THICKNESS
 40
0.000000
  9
$VIEWDIR
 10
0.000000
 20
0.000000
 30
1.000000
  9
$LIMCHECK
 70
     1
  9
$BLIPMODE
 70
     1
  9
$CHAMFERA
 40
0.000000
  9
$CHAMFERB
 40
0.000000
  9
$FASTZOOM
 70
     1
  9
$SKPOLY
 70
     0
  9
$TDCREATE
 40
0.000000
  9
$TDUPDATE
 40
0.000000
  9
$TDINDWG
 40
0.000000
  9
$TDUSRTIMER
 40
0.000000
  9
$USRTIMER
 70
     1
  9
$ANGBASE
 50
0.000000
  9
$ANGDIR
 70
     0
  9
$PDMODE
 70
     0
  9
$PDSIZE
 40
0.000000
  9
$PLINEWID
 40
0.000000
  9
$COORDS
 70
     2
  9
$USERI1
 70
     0
  9
$USERI2
 70
     0
  9
$USERI3
 70
     0
  9
$USERI4
 70
     0
  9
$USERI5
 70
     0
  9
$USERR1
 40
0.000000
  9
$USERR2
 40
0.000000
  9
$USERR3
 40
0.000000
  9
$USERR4
 40
0.000000
  9
$USERR5
 40
0.000000
  0
ENDSEC
  0
SECTION
  2
TABLES
  0
TABLE
  2
LTYPE
 70
     5
  0
LTYPE
  2
CONTINUOUS
 70
    64
  3
Solid line
 72
    65
 73
     0
 40
0.0
  0
LTYPE
  2
HIDDEN
 70
    64
  3
------------------------
 72
    65
 73
     2
 40
12.6
 49
8.4
 49
-4.2
  0
LTYPE
  2
DOT
 70
    64
  3
････････････････････････
 72
    65
 73
     2
 40
8.0
 49
6.0
 49
-2.0
  0
LTYPE
  2
DASHDOT
 70
    64
  3
--･--･--･--･--･--･--･--
 72
    65
 73
     4
 40
50.5
 49
30.0
 49
-9.0
 49
2.5
 49
-9.0
  0
LTYPE
  2
DIVIDE
 70
    64
  3
--･･--･･--･･--･･--･･--
 72
    65
 73
     6
 40
58.0
 49
30.0
 49
-9.0
 49
2.5
 49
-5.0
 49
2.5
 49
-9.0
  0
ENDTAB
  0
TABLE
  2
LAYER
 70
4
  0
LAYER
  2
1
 70
64
 62
7
  6
CONTINUOUS
  0
LAYER
  2
2
 70
64
 62
134
  6
CONTINUOUS
  0
LAYER
  2
4
 70
64
 62
54
  6
CONTINUOUS
  0
LAYER
  2
128
 70
64
 62
7
  6
CONTINUOUS
  0
ENDTAB
  0
TABLE
  2
STYLE
 70
     2
  0
STYLE
  2
STANDARD
 70
    64
 40
0.0
 41
1.0
 50
0.0
 71
     0
 42
0.2
  3
TXT
  4

  0
STYLE
  2
KANJI
 70
    64
 40
0.0
 41
1.0
 50
0.0
 71
     0
 42
0.2
  3
TXT
  4
BIGFONT
  0
ENDTAB
  0
TABLE
  2
VIEW
 70
     0
  0
ENDTAB
  0
ENDSEC
  0
SECTION
  2
BLOCKS
  0
ENDSEC
  0
SECTION
  2
ENTITIES
  0
LINE
  8
1
 62
7
  6
CONTINUOUS
 10
39.551572
 20
65.609863
 11
68.901572
 21
65.609863
  0
LINE
  8
1
 62
7
  6
CONTINUOUS
 10
39.551572
 20
66.709863
 11
68.901572
 21
66.709863
  0
LINE
  8
1
 62
7
  6
CONTINUOUS
 10
68.795574
 20
52.077856
 11
68.795574
 21
71.269863
  0
LINE
  8
1
 62
7
  6
CONTINUOUS
 10
69.795574
 20
52.077856
 11
69.795574
 21
71.269863
  0
LINE
  8
1
 62
7
  6
CONTINUOUS
 10
39.445574
 20
69.709863
 11
39.145574
 21
69.709863
  0
LINE
  8
1
 62
7
  6
CONTINUOUS
 10
39.445574
 20
53.609863
 11
39.145574
 21
53.609863
  0
LINE
  8
1
 62
7
  6
CONTINUOUS
 10
39.445574
 20
70.609863
 11
39.445574
 21
69.709863
  0
LINE
  8
1
 62
7
  6
CONTINUOUS
 10
39.145574
 20
70.609863
 11
39.445574
 21
70.609863
  0
LINE
  8
1
 62
7
  6
CONTINUOUS
 10
39.445574
 20
52.709863
 11
39.145574
 21
52.709863
  0
LINE
  8
1
 62
7
  6
CONTINUOUS
 10
39.445574
 20
53.609863
 11
39.445574
 21
52.709863
  0
LINE
  8
1
 62
7
  6
CONTINUOUS
 10
39.445574
 20
55.109863
 11
39.145574
 21
55.109863
  0
LINE
  8
1
 62
7
  6
CONTINUOUS
 10
39.445574
 20
54.709863
 11
39.445574
 21
55.109863
  0
LINE
  8
1
 62
7
  6
CONTINUOUS
 10
39.145574
 20
54.709863
 11
39.445574
 21
54.709863
  0
LINE
  8
1
 62
7
  6
CONTINUOUS
 10
39.445574
 20
56.609863
 11
39.145574
 21
56.609863
  0
LINE
  8
1
 62
7
  6
CONTINUOUS
 10
39.445574
 20
56.209863
 11
39.445574
 21
56.609863
  0
LINE
  8
1
 62
7
  6
CONTINUOUS
 10
39.145574
 20
56.209863
 11
39.445574
 21
56.209863
  0
LINE
  8
1
 62
7
  6
CONTINUOUS
 10
39.445574
 20
58.109863
 11
39.145574
 21
58.109863
  0
LINE
  8
1
 62
7
  6
CONTINUOUS
 10
39.445574
 20
57.709863
 11
39.445574
 21
58.109863
  0
LINE
  8
1
 62
7
  6
CONTINUOUS
 10
39.145574
 20
57.709863
 11
39.445574
 21
57.709863
  0
LINE
  8
1
 62
7
  6
CONTINUOUS
 10
39.445574
 20
59.609863
 11
39.145574
 21
59.609863
  0
LINE
  8
1
 62
7
  6
CONTINUOUS
 10
39.445574
 20
59.209863
 11
39.445574
 21
59.609863
  0
LINE
  8
1
 62
7
  6
CONTINUOUS
 10
39.145574
 20
59.209863
 11
39.445574
 21
59.209863
  0
LINE
  8
1
 62
7
  6
CONTINUOUS
 10
39.445574
 20
61.109863
 11
39.145574
 21
61.109863
  0
LINE
  8
1
 62
7
  6
CONTINUOUS
 10
39.445574
 20
60.709863
 11
39.445574
 21
61.109863
  0
LINE
  8
1
 62
7
  6
CONTINUOUS
 10
39.145574
 20
60.709863
 11
39.445574
 21
60.709863
  0
LINE
  8
1
 62
7
  6
CONTINUOUS
 10
39.445574
 20
62.609863
 11
39.145574
 21
62.609863
  0
LINE
  8
1
 62
7
  6
CONTINUOUS
 10
39.445574
 20
62.209863
 11
39.445574
 21
62.609863
  0
LINE
  8
1
 62
7
  6
CONTINUOUS
 10
39.145574
 20
62.209863
 11
39.445574
 21
62.209863
  0
LINE
  8
1
 62
7
  6
CONTINUOUS
 10
39.445574
 20
64.109863
 11
39.145574
 21
64.109863
  0
LINE
  8
1
 62
7
  6
CONTINUOUS
 10
39.445574
 20
63.709863
 11
39.445574
 21
64.109863
  0
LINE
  8
1
 62
7
  6
CONTINUOUS
 10
39.145574
 20
63.709863
 11
39.445574
 21
63.709863
  0
LINE
  8
1
 62
7
  6
CONTINUOUS
 10
39.445574
 20
65.609863
 11
39.145574
 21
65.609863
  0
LINE
  8
1
 62
7
  6
CONTINUOUS
 10
39.445574
 20
65.209863
 11
39.445574
 21
65.609863
  0
LINE
  8
1
 62
7
  6
CONTINUOUS
 10
39.145574
 20
65.209863
 11
39.445574
 21
65.209863
  0
LINE
  8
1
 62
7
  6
CONTINUOUS
 10
39.445574
 20
67.109863
 11
39.145574
 21
67.109863
  0
LINE
  8
1
 62
7
  6
CONTINUOUS
 10
39.445574
 20
66.709863
 11
39.445574
 21
67.109863
  0
LINE
  8
1
 62
7
  6
CONTINUOUS
 10
39.145574
 20
66.709863
 11
39.445574
 21
66.709863
  0
LINE
  8
1
 62
7
  6
CONTINUOUS
 10
39.445574
 20
68.609863
 11
39.145574
 21
68.609863
  0
LINE
  8
1
 62
7
  6
CONTINUOUS
 10
39.445574
 20
68.209863
 11
39.445574
 21
68.609863
  0
LINE
  8
1
 62
7
  6
CONTINUOUS
 10
39.145574
 20
68.209863
 11
39.445574
 21
68.209863
  0
LINE
  8
1
 62
7
  6
CONTINUOUS
 10
39.145574
 20
52.709863
 11
39.145574
 21
70.609863
  0
LINE
  8
1
 62
7
  6
CONTINUOUS
 10
34.645574
 20
70.109863
 11
36.196480
 21
70.109863
  0
LINE
  8
1
 62
7
  6
CONTINUOUS
 10
34.645574
 20
53.209863
 11
34.645574
 21
70.109863
  0
LINE
  8
1
 62
7
  6
CONTINUOUS
 10
36.196480
 20
53.209863
 11
34.645574
 21
53.209863
  0
LINE
  8
1
 62
7
  6
CONTINUOUS
 10
36.196480
 20
70.109863
 11
38.456899
 21
70.109863
  0
LINE
  8
1
 62
7
  6
CONTINUOUS
 10
39.145574
 20
69.159863
 11
38.456899
 21
69.159863
  0
LINE
  8
1
 62
7
  6
CONTINUOUS
 10
38.456899
 20
54.159863
 11
39.145574
 21
54.159863
  0
LINE
  8
1
 62
7
  6
CONTINUOUS
 10
38.456899
 20
70.109863
 11
38.845574
 21
70.609863
  0
LINE
  8
1
 62
7
  6
CONTINUOUS
 10
38.845574
 20
70.609863
 11
39.145574
 21
70.609863
  0
LINE
  8
1
 62
7
  6
CONTINUOUS
 10
36.196480
 20
70.109863
 11
36.196480
 21
70.609863
  0
LINE
  8
1
 62
7
  6
CONTINUOUS
 10
36.196480
 20
70.609863
 11
38.845574
 21
70.609863
  0
LINE
  8
1
 62
7
  6
CONTINUOUS
 10
36.196480
 20
52.709863
 11
36.196480
 21
53.209863
  0
LINE
  8
1
 62
7
  6
CONTINUOUS
 10
38.845574
 20
52.709863
 11
36.196480
 21
52.709863
  0
LINE
  8
1
 62
7
  6
CONTINUOUS
 10
38.456899
 20
53.209863
 11
36.196480
 21
53.209863
  0
LINE
  8
1
 62
7
  6
CONTINUOUS
 10
38.845574
 20
52.709863
 11
38.456899
 21
53.209863
  0
LINE
  8
1
 62
7
  6
CONTINUOUS
 10
39.145574
 20
52.709863
 11
38.845574
 21
52.709863
  0
LINE
  8
1
 62
7
  6
CONTINUOUS
 10
38.456899
 20
69.159863
 11
38.456899
 21
54.159863
  0
LINE
  8
1
 62
7
  6
CONTINUOUS
 10
39.551572
 20
57.709863
 11
68.901572
 21
57.709863
  0
LINE
  8
1
 62
7
  6
CONTINUOUS
 10
39.551572
 20
56.609863
 11
68.901572
 21
56.609863
  0
LINE
  8
1
 62
7
  6
CONTINUOUS
 10
39.551572
 20
60.709863
 11
68.901572
 21
60.709863
  0
LINE
  8
1
 62
7
  6
CONTINUOUS
 10
39.551572
 20
59.609863
 11
68.901572
 21
59.609863
  0
LINE
  8
1
 62
7
  6
CONTINUOUS
 10
39.551572
 20
63.709863
 11
68.901572
 21
63.709863
  0
LINE
  8
1
 62
7
  6
CONTINUOUS
 10
39.551572
 20
62.609863
 11
68.901572
 21
62.609863
  0
LINE
  8
1
 62
7
  6
CONTINUOUS
 10
69.901572
 20
57.709863
 11
100.286645
 21
57.709863
  0
LINE
  8
1
 62
7
  6
CONTINUOUS
 10
69.901572
 20
56.609863
 11
100.286645
 21
56.609863
  0
LINE
  8
1
 62
7
  6
CONTINUOUS
 10
69.901572
 20
59.609863
 11
100.286645
 21
59.609863
  0
LINE
  8
1
 62
7
  6
CONTINUOUS
 10
69.901572
 20
60.709863
 11
100.286645
 21
60.709863
  0
LINE
  8
1
 62
7
  6
CONTINUOUS
 10
69.901572
 20
62.609863
 11
100.286645
 21
62.609863
  0
LINE
  8
1
 62
7
  6
CONTINUOUS
 10
69.901572
 20
63.709863
 11
100.286645
 21
63.709863
  0
LINE
  8
1
 62
7
  6
CONTINUOUS
 10
69.901572
 20
65.609863
 11
100.286645
 21
65.609863
  0
LINE
  8
1
 62
7
  6
CONTINUOUS
 10
69.901572
 20
66.709863
 11
100.286645
 21
66.709863
  0
LINE
  8
1
 62
7
  6
CONTINUOUS
 10
100.286645
 20
56.609863
 11
100.286645
 21
57.709863
  0
LINE
  8
1
 62
7
  6
CONTINUOUS
 10
100.286645
 20
57.434863
 11
103.786645
 21
57.434863
  0
LINE
  8
1
 62
7
  6
CONTINUOUS
 10
100.286645
 20
57.159863
 11
103.786645
 21
57.159863
  0
LINE
  8
1
 62
7
  6
CONTINUOUS
 10
100.286645
 20
56.884863
 11
103.786645
 21
56.884863
  0
LINE
  8
1
 62
7
  6
CONTINUOUS
 10
100.286645
 20
59.609863
 11
100.286645
 21
60.709863
  0
LINE
  8
1
 62
7
  6
CONTINUOUS
 10
100.286645
 20
60.434863
 11
103.786645
 21
60.434863
  0
LINE
  8
1
 62
7
  6
CONTINUOUS
 10
100.286645
 20
60.159863
 11
103.786645
 21
60.159863
  0
LINE
  8
1
 62
7
  6
CONTINUOUS
 10
100.286645
 20
59.884863
 11
103.786645
 21
59.884863
  0
LINE
  8
1
 62
7
  6
CONTINUOUS
 10
100.286645
 20
62.609863
 11
100.286645
 21
63.709863
  0
LINE
  8
1
 62
7
  6
CONTINUOUS
 10
100.286645
 20
63.434863
 11
103.786645
 21
63.434863
  0
LINE
  8
1
 62
7
  6
CONTINUOUS
 10
100.286645
 20
63.159863
 11
103.786645
 21
63.159863
  0
LINE
  8
1
 62
7
  6
CONTINUOUS
 10
100.286645
 20
62.884863
 11
103.786645
 21
62.884863
  0
LINE
  8
1
 62
7
  6
CONTINUOUS
 10
100.286645
 20
65.609863
 11
100.286645
 21
66.709863
  0
LINE
  8
1
 62
7
  6
CONTINUOUS
 10
100.286645
 20
66.434863
 11
103.786645
 21
66.434863
  0
LINE
  8
1
 62
7
  6
CONTINUOUS
 10
100.286645
 20
66.159863
 11
103.786645
 21
66.159863
  0
LINE
  8
1
 62
7
  6
CONTINUOUS
 10
100.286645
 20
65.884863
 11
103.786645
 21
65.884863
  0
LINE
  8
1
 62
7
  6
CONTINUOUS
 10
34.945574
 20
70.109863
 11
34.945574
 21
53.209863
  0
LINE
  8
1
 62
7
  6
CONTINUOUS
 10
155.504565
 20
144.275238
 11
154.791500
 21
144.062681
  0
LINE
  8
1
 62
7
  6
HIDDEN
 10
78.814023
 20
118.175238
 11
78.814023
 21
119.275238
  0
LINE
  8
1
 62
7
  6
HIDDEN
 10
96.814023
 20
118.175238
 11
78.814023
 21
118.175238
  0
LINE
  8
1
 62
7
  6
HIDDEN
 10
96.814023
 20
119.275238
 11
96.814023
 21
118.175238
  0
LINE
  8
1
 62
7
  6
HIDDEN
 10
83.814023
 20
118.175238
 11
83.814023
 21
109.275238
  0
LINE
  8
1
 62
7
  6
HIDDEN
 10
82.814023
 20
118.175238
 11
82.814023
 21
109.275238
  0
LINE
  8
1
 62
7
  6
HIDDEN
 10
91.814023
 20
118.175238
 11
91.814023
 21
109.275238
  0
LINE
  8
1
 62
7
  6
HIDDEN
 10
92.814023
 20
118.175238
 11
92.814023
 21
109.275238
  0
LINE
  8
1
 62
7
  6
CONTINUOUS
 10
96.914023
 20
119.275238
 11
98.314023
 21
119.275238
  0
LINE
  8
1
 62
7
  6
CONTINUOUS
 10
189.691500
 20
122.275238
 11
195.091501
 21
122.275238
  0
LINE
  8
1
 62
7
  6
CONTINUOUS
 10
189.691500
 20
119.775238
 11
197.291500
 21
119.775238
  0
LINE
  8
1
 62
7
  6
CONTINUOUS
 10
193.891500
 20
119.275238
 11
193.891500
 21
119.775238
  0
LINE
  8
1
 62
7
  6
CONTINUOUS
 10
189.691500
 20
119.275238
 11
193.891500
 21
119.275238
  0
LINE
  8
1
 62
7
  6
CONTINUOUS
 10
189.691500
 20
122.275238
 11
189.691500
 21
119.275238
  0
LINE
  8
1
 62
7
  6
CONTINUOUS
 10
189.691500
 20
125.975238
 11
189.691500
 21
122.275238
  0
LINE
  8
1
 62
7
  6
CONTINUOUS
 10
179.591500
 20
125.975238
 11
179.591500
 21
122.275238
  0
LINE
  8
1
 62
7
  6
CONTINUOUS
 10
178.791500
 20
125.975238
 11
178.791500
 21
122.275238
  0
LINE
  8
1
 62
7
  6
CONTINUOUS
 10
188.891500
 20
157.575238
 11
188.891500
 21
161.275238
  0
LINE
  8
1
 62
7
  6
CONTINUOUS
 10
188.091500
 20
156.965017
 11
188.091500
 21
161.275238
  0
LINE
  8
1
 62
7
  6
CONTINUOUS
 10
189.691500
 20
157.575238
 11
189.691500
 21
161.275238
  0
LINE
  8
1
 62
7
  6
CONTINUOUS
 10
177.691500
 20
157.575238
 11
177.691500
 21
161.275238
  0
LINE
  8
1
 62
7
  6
CONTINUOUS
 10
177.691500
 20
125.975238
 11
177.691500
 21
122.275238
  0
LINE
  8
1
 62
7
  6
CONTINUOUS
 10
155.504565
 20
139.275238
 11
155.504565
 21
144.275238
  0
LINE
  8
1
 62
7
  6
CONTINUOUS
 10
196.091500
 20
123.525238
 11
196.830601
 21
123.525238
  0
LINE
  8
1
 62
7
  6
CONTINUOUS
 10
196.091500
 20
129.025238
 11
196.830601
 21
129.025237
  0
LINE
  8
1
 62
7
  6
CONTINUOUS
 10
154.791500
 20
139.487794
 11
155.504565
 21
139.275238
  0
LINE
  8
1
 62
7
  6
CONTINUOUS
 10
154.791500
 20
144.062681
 11
154.791500
 21
139.487794
  0
LINE
  8
1
 62
7
  6
CONTINUOUS
 10
188.891500
 20
145.615612
 11
188.891500
 21
157.575238
  0
LINE
  8
1
 62
7
  6
CONTINUOUS
 10
187.291500
 20
148.975534
 11
187.291500
 21
157.575238
  0
LINE
  8
1
 62
7
  6
CONTINUOUS
 10
185.691500
 20
152.335455
 11
185.691500
 21
157.575238
  0
LINE
  8
1
 62
7
  6
CONTINUOUS
 10
181.991500
 20
132.006486
 11
181.991500
 21
125.975238
  0
LINE
  8
1
 62
7
  6
CONTINUOUS
 10
180.391500
 20
135.894052
 11
180.391500
 21
125.975238
  0
LINE
  8
1
 62
7
  6
CONTINUOUS
 10
178.791500
 20
139.781617
 11
178.791500
 21
128.029457
  0
LINE
  8
4
 62
54
  6
CONTINUOUS
 10
184.891500
 20
154.600163
 11
184.891500
 21
161.275238
  0
LINE
  8
1
 62
7
  6
CONTINUOUS
 10
180.391500
 20
125.975238
 11
180.391500
 21
129.775238
  0
LINE
  8
1
 62
7
  6
CONTINUOUS
 10
181.191500
 20
125.975238
 11
181.191500
 21
133.950269
  0
LINE
  8
1
 62
7
  6
CONTINUOUS
 10
179.591500
 20
125.975238
 11
179.591500
 21
137.837835
  0
LINE
  8
1
 62
7
  6
CONTINUOUS
 10
188.091500
 20
157.575238
 11
188.091500
 21
147.295573
  0
LINE
  8
1
 62
7
  6
CONTINUOUS
 10
186.491500
 20
157.575238
 11
186.491500
 21
150.655495
  0
LINE
  8
1
 62
7
  6
CONTINUOUS
 10
184.891500
 20
154.600163
 11
184.891500
 21
153.775238
  0
LINE
  8
1
 62
7
  6
CONTINUOUS
 10
76.230781
 20
163.445941
 11
98.234119
 21
163.445941
  0
LINE
  8
1
 62
7
  6
CONTINUOUS
 10
178.191500
 20
163.445941
 11
189.191500
 21
163.445941
  0
LINE
  8
1
 62
7
  6
CONTINUOUS
 10
179.691500
 20
125.975238
 11
187.691500
 21
125.975238
  0
LINE
  8
1
 62
7
  6
CONTINUOUS
 10
181.691500
 20
157.575238
 11
187.691500
 21
157.575238
  0
LINE
  8
1
 62
7
  6
CONTINUOUS
 10
169.291500
 20
144.275238
 11
155.504565
 21
144.275238
  0
LINE
  8
1
 62
7
  6
CONTINUOUS
 10
177.691500
 20
125.975238
 11
177.691500
 21
157.575238
  0
LINE
  8
1
 62
7
  6
CONTINUOUS
 10
196.091500
 20
123.525238
 11
196.091500
 21
129.025238
  0
LINE
  8
1
 62
7
  6
CONTINUOUS
 10
196.091500
 20
154.525238
 11
196.091500
 21
160.025238
  0
LINE
  8
1
 62
7
  6
CONTINUOUS
 10
196.591500
 20
129.763938
 11
197.791486
 21
130.456826
  0
LINE
  8
1
 62
7
  6
CONTINUOUS
 10
196.091500
 20
123.275238
 11
196.091490
 21
128.897941
  0
LINE
  8
1
 62
7
  6
CONTINUOUS
 10
196.591500
 20
153.786538
 11
197.791495
 21
153.093666
  0
LINE
  8
1
 62
7
  6
CONTINUOUS
 10
196.091500
 20
160.275238
 11
196.091500
 21
154.652541
  0
LINE
  8
1
 62
7
  6
CONTINUOUS
 10
197.291500
 20
161.275238
 11
187.691500
 21
161.275238
  0
LINE
  8
1
 62
7
  6
CONTINUOUS
 10
181.691500
 20
157.575238
 11
177.691500
 21
157.575238
  0
LINE
  8
1
 62
7
  6
CONTINUOUS
 10
169.291500
 20
130.775238
 11
171.291500
 21
130.775238
  0
LINE
  8
1
 62
7
  6
CONTINUOUS
 10
169.291500
 20
152.775238
 11
171.291500
 21
152.775238
  0
LINE
  8
1
 62
7
  6
CONTINUOUS
 10
169.291500
 20
152.775238
 11
169.291500
 21
130.775238
  0
LINE
  8
1
 62
7
  6
CONTINUOUS
 10
181.691500
 20
161.275238
 11
171.291500
 21
161.275238
  0
LINE
  8
1
 62
7
  6
CONTINUOUS
 10
171.291500
 20
161.275238
 11
171.291500
 21
152.275238
  0
LINE
  8
1
 62
7
  6
CONTINUOUS
 10
171.291500
 20
122.275238
 11
171.291500
 21
130.275238
  0
LINE
  8
1
 62
7
  6
CONTINUOUS
 10
179.691500
 20
122.275238
 11
171.291500
 21
122.275238
  0
LINE
  8
1
 62
7
  6
CONTINUOUS
 10
171.291500
 20
152.275238
 11
171.291500
 21
130.275238
  0
LINE
  8
1
 62
7
  6
CONTINUOUS
 10
189.691500
 20
157.575238
 11
189.691500
 21
125.975238
  0
LINE
  8
1
 62
7
  6
CONTINUOUS
 10
189.691500
 20
157.575238
 11
187.691500
 21
157.575238
  0
LINE
  8
1
 62
7
  6
CONTINUOUS
 10
189.691500
 20
125.975238
 11
187.691500
 21
125.975238
  0
LINE
  8
1
 62
7
  6
CONTINUOUS
 10
181.691500
 20
161.275238
 11
187.691500
 21
161.275238
  0
LINE
  8
1
 62
7
  6
CONTINUOUS
 10
179.691500
 20
122.275238
 11
189.691500
 21
122.275238
  0
LINE
  8
1
 62
7
  6
CONTINUOUS
 10
196.091500
 20
154.525238
 11
196.830601
 21
154.525238
  0
LINE
  8
1
 62
7
  6
CONTINUOUS
 10
196.091500
 20
160.025238
 11
196.830601
 21
160.025237
  0
LINE
  8
1
 62
7
  6
CONTINUOUS
 10
196.091500
 20
154.525238
 11
196.091500
 21
160.025238
  0
LINE
  8
1
 62
7
  6
CONTINUOUS
 10
196.091500
 20
123.525238
 11
196.091500
 21
129.025238
  0
LINE
  8
1
 62
7
  6
CONTINUOUS
 10
179.691500
 20
125.975238
 11
177.691500
 21
125.975238
  0
LINE
  8
1
 62
7
  6
CONTINUOUS
 10
198.291500
 20
160.275238
 11
198.291500
 21
120.775238
  0
LINE
  8
4
 62
54
  6
CONTINUOUS
 10
183.591500
 20
128.125138
 11
183.591500
 21
122.275238
  0
LINE
  8
4
 62
54
  6
CONTINUOUS
 10
184.391500
 20
126.175138
 11
184.391500
 21
122.275238
  0
LINE
  8
4
 62
54
  6
CONTINUOUS
 10
184.091500
 20
155.425338
 11
184.091500
 21
161.275238
  0
LINE
  8
4
 62
54
  6
CONTINUOUS
 10
183.291500
 20
157.375338
 11
183.291500
 21
161.275238
  0
LINE
  8
1
 62
7
  6
HIDDEN
 10
88.814023
 20
118.175238
 11
88.814023
 21
109.275238
  0
LINE
  8
1
 62
7
  6
HIDDEN
 10
86.814023
 20
118.175238
 11
86.814023
 21
109.275238
  0
LINE
  8
1
 62
7
  6
CONTINUOUS
 10
68.314023
 20
160.450038
 11
68.314023
 21
123.100338
  0
LINE
  8
1
 62
7
  6
CONTINUOUS
 10
107.314023
 20
160.450038
 11
107.314023
 21
123.100338
  0
LINE
  8
1
 62
7
  6
CONTINUOUS
 10
69.139173
 20
122.275238
 11
106.488823
 21
122.275238
  0
LINE
  8
1
 62
7
  6
CONTINUOUS
 10
69.139173
 20
161.275238
 11
106.488823
 21
161.275238
  0
LINE
  8
2
 62
134
  6
CONTINUOUS
 10
87.814023
 20
166.275238
 11
87.814023
 21
116.075238
  0
LINE
  8
2
 62
134
  6
CONTINUOUS
 10
63.314023
 20
141.775238
 11
112.314023
 21
141.775238
  0
LINE
  8
2
 62
134
  6
CONTINUOUS
 10
74.814023
 20
126.275238
 11
69.814023
 21
126.275238
  0
LINE
  8
2
 62
134
  6
CONTINUOUS
 10
72.314023
 20
128.775238
 11
72.314023
 21
123.775238
  0
LINE
  8
2
 62
134
  6
CONTINUOUS
 10
100.814023
 20
126.275238
 11
105.814023
 21
126.275238
  0
LINE
  8
2
 62
134
  6
CONTINUOUS
 10
103.314023
 20
128.775238
 11
103.314023
 21
123.775238
  0
LINE
  8
2
 62
134
  6
CONTINUOUS
 10
74.814023
 20
157.275238
 11
69.814023
 21
157.275238
  0
LINE
  8
2
 62
134
  6
CONTINUOUS
 10
72.314023
 20
154.775238
 11
72.314023
 21
159.775238
  0
LINE
  8
2
 62
134
  6
CONTINUOUS
 10
100.814023
 20
157.275238
 11
105.814023
 21
157.275238
  0
LINE
  8
2
 62
134
  6
CONTINUOUS
 10
103.314023
 20
154.775238
 11
103.314023
 21
159.775238
  0
LINE
  8
2
 62
134
  6
CONTINUOUS
 10
149.261701
 20
141.775238
 11
202.532330
 21
141.775238
  0
LINE
  8
4
 62
54
  6
CONTINUOUS
 10
181.191500
 20
129.775238
 11
181.191500
 21
122.275238
  0
LINE
  8
4
 62
54
  6
CONTINUOUS
 10
181.991500
 20
129.775238
 11
181.991500
 21
122.275238
  0
LINE
  8
4
 62
54
  6
CONTINUOUS
 10
180.391500
 20
129.775238
 11
180.391500
 21
122.275238
  0
LINE
  8
4
 62
54
  6
CONTINUOUS
 10
179.591500
 20
129.775238
 11
179.591500
 21
125.975238
  0
LINE
  8
4
 62
54
  6
CONTINUOUS
 10
178.791500
 20
129.775238
 11
178.791500
 21
125.975238
  0
LINE
  8
4
 62
54
  6
CONTINUOUS
 10
182.791500
 20
129.775238
 11
182.791500
 21
122.275238
  0
LINE
  8
4
 62
54
  6
CONTINUOUS
 10
184.891500
 20
153.775238
 11
184.891500
 21
154.600163
  0
LINE
  8
4
 62
54
  6
CONTINUOUS
 10
185.691500
 20
153.775238
 11
185.691500
 21
161.275238
  0
LINE
  8
4
 62
54
  6
CONTINUOUS
 10
186.491500
 20
153.775238
 11
186.491500
 21
161.275238
  0
LINE
  8
4
 62
54
  6
CONTINUOUS
 10
187.291500
 20
153.775238
 11
187.291500
 21
161.275238
  0
LINE
  8
4
 62
54
  6
CONTINUOUS
 10
188.091500
 20
153.775238
 11
188.091500
 21
157.575238
  0
LINE
  8
4
 62
54
  6
CONTINUOUS
 10
188.891500
 20
153.775238
 11
188.891500
 21
157.575238
  0
LINE
  8
1
 62
7
  6
CONTINUOUS
 10
155.504565
 20
139.275238
 11
169.291500
 21
139.275238
  0
LINE
  8
1
 62
7
  6
HIDDEN
 10
85.814023
 20
118.175238
 11
85.814023
 21
109.275238
  0
LINE
  8
1
 62
7
  6
HIDDEN
 10
89.814023
 20
118.175238
 11
89.814023
 21
109.275238
  0
LINE
  8
1
 62
7
  6
CONTINUOUS
 10
193.609691
 20
157.275238
 11
201.361568
 21
157.275238
  0
LINE
  8
1
 62
7
  6
CONTINUOUS
 10
193.609691
 20
126.275223
 11
201.361568
 21
126.275238
  0
LINE
  8
1
 62
7
  6
CONTINUOUS
 10
77.014578
 20
119.775238
 11
76.697791
 21
119.775238
  0
LINE
  8
1
 62
7
  6
CONTINUOUS
 10
75.091957
 20
121.728196
 11
75.806259
 21
120.322279
  0
LINE
  8
1
 62
7
  6
CONTINUOUS
 10
77.114023
 20
121.275238
 11
77.314023
 21
121.275238
  0
LINE
  8
1
 62
7
  6
CONTINUOUS
 10
77.114023
 20
122.275238
 11
77.114023
 21
119.775238
  0
LINE
  8
1
 62
7
  6
CONTINUOUS
 10
78.814023
 20
119.275238
 11
78.814023
 21
122.275238
  0
LINE
  8
1
 62
7
  6
CONTINUOUS
 10
78.714023
 20
122.275238
 11
78.714023
 21
119.275238
  0
LINE
  8
1
 62
7
  6
CONTINUOUS
 10
78.714023
 20
119.275238
 11
77.314023
 21
119.275238
  0
LINE
  8
1
 62
7
  6
CONTINUOUS
 10
77.314023
 20
119.275238
 11
77.314023
 21
122.275238
  0
LINE
  8
1
 62
7
  6
CONTINUOUS
 10
77.314023
 20
119.775238
 11
76.697791
 21
119.775238
  0
LINE
  8
1
 62
7
  6
CONTINUOUS
 10
96.814023
 20
119.275238
 11
78.814023
 21
119.275238
  0
LINE
  8
1
 62
7
  6
CONTINUOUS
 10
98.930255
 20
119.775238
 11
98.314023
 21
119.775238
  0
LINE
  8
1
 62
7
  6
CONTINUOUS
 10
100.536089
 20
121.728196
 11
99.821786
 21
120.322279
  0
LINE
  8
1
 62
7
  6
CONTINUOUS
 10
98.514023
 20
121.275238
 11
98.314023
 21
121.275238
  0
LINE
  8
1
 62
7
  6
CONTINUOUS
 10
98.514023
 20
119.775238
 11
98.514023
 21
122.275238
  0
LINE
  8
1
 62
7
  6
CONTINUOUS
 10
96.814023
 20
122.275238
 11
96.814023
 21
119.275238
  0
LINE
  8
1
 62
7
  6
CONTINUOUS
 10
96.914023
 20
119.275238
 11
96.914023
 21
122.275238
  0
LINE
  8
1
 62
7
  6
CONTINUOUS
 10
98.314023
 20
122.275238
 11
98.314023
 21
119.275238
  0
LINE
  8
1
 62
7
  6
CONTINUOUS
 10
44.692867
 20
39.598361
 11
92.414011
 21
39.598361
  0
ARC
  8
1
 62
7
  6
CONTINUOUS
 10
196.830600
 20
124.525238
 40
1.000000
 50
-89.999943
 51
-16.958144
  0
ARC
  8
1
 62
7
  6
CONTINUOUS
 10
196.830600
 20
128.025238
 40
0.999999
 50
16.957327
 51
89.999943
  0
ARC
  8
1
 62
7
  6
CONTINUOUS
 10
196.830600
 20
124.525238
 40
1.000000
 50
-89.999943
 51
-16.958144
  0
ARC
  8
1
 62
7
  6
CONTINUOUS
 10
191.091500
 20
126.275238
 40
6.999981
 50
-16.957866
 51
16.957749
  0
ARC
  8
1
 62
7
  6
CONTINUOUS
 10
196.830600
 20
124.525238
 40
1.000000
 50
-89.999943
 51
-16.958144
  0
ARC
  8
1
 62
7
  6
CONTINUOUS
 10
197.291500
 20
131.322838
 40
0.999981
 50
-60.000311
 51
0.000000
  0
ARC
  8
1
 62
7
  6
CONTINUOUS
 10
197.091500
 20
128.897938
 40
0.999978
 50
120.000728
 51
179.999828
  0
ARC
  8
1
 62
7
  6
CONTINUOUS
 10
195.091500
 20
123.275238
 40
1.000000
 50
-89.999943
 51
0.000000
  0
ARC
  8
1
 62
7
  6
CONTINUOUS
 10
197.291500
 20
120.775238
 40
1.000000
 50
-90.000000
 51
0.000000
  0
ARC
  8
1
 62
7
  6
CONTINUOUS
 10
197.291500
 20
152.227638
 40
1.000000
 50
0.000000
 51
60.000322
  0
ARC
  8
1
 62
7
  6
CONTINUOUS
 10
197.091500
 20
154.652538
 40
1.000000
 50
179.999828
 51
-120.000728
  0
ARC
  8
1
 62
7
  6
CONTINUOUS
 10
195.091500
 20
160.275238
 40
1.000000
 50
0.000000
 51
89.999943
  0
ARC
  8
1
 62
7
  6
CONTINUOUS
 10
197.291500
 20
160.275238
 40
1.000000
 50
0.000000
 51
90.000000
  0
ARC
  8
1
 62
7
  6
CONTINUOUS
 10
196.830600
 20
155.525238
 40
1.000000
 50
-89.999943
 51
-16.958144
  0
ARC
  8
1
 62
7
  6
CONTINUOUS
 10
196.830600
 20
159.025238
 40
0.999999
 50
16.957327
 51
89.999943
  0
ARC
  8
1
 62
7
  6
CONTINUOUS
 10
191.091500
 20
157.275238
 40
6.999981
 50
-16.957866
 51
16.957749
  0
ARC
  8
1
 62
7
  6
CONTINUOUS
 10
87.814023
 20
141.775238
 40
27.000000
 50
133.761744
 51
136.238333
  0
ARC
  8
1
 62
7
  6
CONTINUOUS
 10
87.814023
 20
141.775238
 40
26.999966
 50
43.761667
 51
46.238333
  0
ARC
  8
1
 62
7
  6
CONTINUOUS
 10
87.814023
 20
141.775238
 40
26.999966
 50
-46.238333
 51
-43.761820
  0
ARC
  8
1
 62
7
  6
CONTINUOUS
 10
87.814023
 20
141.775238
 40
27.000035
 50
-136.238180
 51
-133.761744
  0
CIRCLE
  8
1
 62
7
  6
CONTINUOUS
 10
87.814023
 20
141.775238
 40
2.500000
  0
CIRCLE
  8
1
 62
7
  6
CONTINUOUS
 10
72.314023
 20
126.275238
 40
1.500000
  0
CIRCLE
  8
1
 62
7
  6
CONTINUOUS
 10
103.314023
 20
126.275238
 40
1.500000
  0
CIRCLE
  8
1
 62
7
  6
CONTINUOUS
 10
72.314023
 20
157.275238
 40
1.500000
  0
CIRCLE
  8
1
 62
7
  6
CONTINUOUS
 10
103.314023
 20
157.275238
 40
1.500000
  0
CIRCLE
  8
4
 62
54
  6
CONTINUOUS
 10
72.314023
 20
126.275238
 40
1.000000
  0
CIRCLE
  8
4
 62
54
  6
CONTINUOUS
 10
103.314023
 20
126.275238
 40
1.000000
  0
CIRCLE
  8
4
 62
54
  6
CONTINUOUS
 10
72.314023
 20
157.275238
 40
1.000000
  0
CIRCLE
  8
4
 62
54
  6
CONTINUOUS
 10
103.314023
 20
157.275238
 40
1.000000
  0
CIRCLE
  8
1
 62
7
  6
CONTINUOUS
 10
87.814023
 20
141.775238
 40
4.500000
  0
CIRCLE
  8
1
 62
7
  6
CONTINUOUS
 10
87.814023
 20
141.775238
 40
14.000000
  0
CIRCLE
  8
1
 62
7
  6
CONTINUOUS
 10
87.814023
 20
141.775238
 40
10.000000
  0
ARC
  8
1
 62
7
  6
CONTINUOUS
 10
74.200426
 20
121.275238
 40
1.000000
 50
26.933677
 51
90.000000
  0
ARC
  8
1
 62
7
  6
CONTINUOUS
 10
76.697791
 20
120.775238
 40
1.000000
 50
-153.066323
 51
-90.000000
  0
ARC
  8
1
 62
7
  6
CONTINUOUS
 10
78.114023
 20
122.275238
 40
1.000000
 50
180.000000
 51
-143.130102
  0
ARC
  8
1
 62
7
  6
CONTINUOUS
 10
101.427620
 20
121.275238
 40
1.000000
 50
90.000000
 51
153.066323
  0
ARC
  8
1
 62
7
  6
CONTINUOUS
 10
98.930255
 20
120.775238
 40
1.000000
 50
-90.000000
 51
-26.933677
  0
ARC
  8
1
 62
7
  6
CONTINUOUS
 10
97.514023
 20
122.275238
 40
1.000000
 50
-36.869898
 51
0.000000
  0
LINE
  8
1
 62
7
  6
CONTINUOUS
 10
228.429109
 20
181.275238
 11
201.866150
 21
181.275238
  0
LINE
  8
1
 62
7
  6
CONTINUOUS
 10
201.866150
 20
181.275238
 11
189.191500
 21
163.445941
  0
LINE
  8
1
 62
7
  6
CONTINUOUS
 10
190.702225
 20
166.298168
 11
191.388959
 21
165.809976
  0
LINE
  8
1
 62
7
  6
CONTINUOUS
 10
191.388959
 20
165.809976
 11
189.191500
 21
163.445941
  0
LINE
  8
1
 62
7
  6
CONTINUOUS
 10
189.191500
 20
163.445941
 11
190.702225
 21
166.298168
  0
TEXT
  8
1
 62
7
  6
CONTINUOUS
 10
202.622152
 20
176.346750
 40
3.200000
 41
0.720000
  1
ＮＡＭＥ　ＰＬＡＴＥ
  7
KANJI
 50
0.000000
 51
0.000000
  0
TEXT
  8
1
 62
7
  6
CONTINUOUS
 10
202.019900
 20
182.407372
 40
5.000000
 41
0.720000
  1
ネ－ムプレ－ト
  7
KANJI
 50
0.000000
 51
0.000000
  0
TEXT
  8
1
 62
7
  6
CONTINUOUS
 10
129.087996
 20
103.530984
 40
4.000000
 41
0.540000
  1
有効深サ(ＤＥＰＴＨ）　３．０ＭＩＮ
  7
KANJI
 50
0.000975
 51
0.000000
  0
TEXT
  8
1
 62
7
  6
CONTINUOUS
 10
45.116427
 20
40.598361
 40
4.000000
 41
0.900000
  1
付属品：コネクターリード
  7
KANJI
 50
0.000000
 51
0.000000
  0
TEXT
  8
1
 62
7
  6
CONTINUOUS
 10
45.116427
 20
34.553899
 40
3.000000
 41
0.540000
  1
ATTACHMENT:CONNECTOR LEAD
  7
KANJI
 50
0.000000
 51
0.000000
  0
LINE
  8
128
 62
7
  6
CONTINUOUS
 10
177.691500
 20
181.275238
 11
171.291500
 21
181.275238
  0
LINE
  8
128
 62
7
  6
CONTINUOUS
 10
169.291500
 20
181.275238
 11
171.291500
 21
181.275238
  0
LINE
  8
128
 62
7
  6
CONTINUOUS
 10
169.291500
 20
181.275238
 11
157.466533
 21
181.275238
  0
LINE
  8
128
 62
7
  6
CONTINUOUS
 10
169.291500
 20
153.775238
 11
169.291500
 21
182.275238
  0
LINE
  8
128
 62
7
  6
CONTINUOUS
 10
171.291500
 20
162.275238
 11
171.291500
 21
182.275238
  0
LINE
  8
128
 62
7
  6
CONTINUOUS
 10
169.291500
 20
181.275238
 11
166.091500
 21
180.859238
  0
LINE
  8
128
 62
7
  6
CONTINUOUS
 10
166.091500
 20
180.859238
 11
166.091500
 21
181.691238
  0
LINE
  8
128
 62
7
  6
CONTINUOUS
 10
166.091500
 20
181.691238
 11
169.291500
 21
181.275238
  0
LINE
  8
128
 62
7
  6
CONTINUOUS
 10
171.291500
 20
181.275238
 11
174.491500
 21
181.691238
  0
LINE
  8
128
 62
7
  6
CONTINUOUS
 10
174.491500
 20
181.691238
 11
174.491500
 21
180.859238
  0
LINE
  8
128
 62
7
  6
CONTINUOUS
 10
174.491500
 20
180.859238
 11
171.291500
 21
181.275238
  0
TEXT
  8
128
 62
7
  6
CONTINUOUS
 10
157.466533
 20
182.875238
 40
3.200000
 41
0.900000
  1
2
  7
KANJI
 50
0.000000
 51
0.000000
  0
TEXT
  8
128
 62
7
  6
CONTINUOUS
 10
160.986533
 20
183.355238
 40
2.240000
 41
0.900000
  1
±0.2
  7
KANJI
 50
0.000000
 51
0.000000
  0
LINE
  8
128
 62
7
  6
CONTINUOUS
 10
134.791500
 20
130.775238
 11
134.791500
 21
152.775238
  0
LINE
  8
128
 62
7
  6
CONTINUOUS
 10
168.291500
 20
130.775238
 11
133.791500
 21
130.775238
  0
LINE
  8
128
 62
7
  6
CONTINUOUS
 10
168.291500
 20
152.775238
 11
133.791500
 21
152.775238
  0
LINE
  8
128
 62
7
  6
CONTINUOUS
 10
134.791500
 20
152.775238
 11
135.207500
 21
149.575238
  0
LINE
  8
128
 62
7
  6
CONTINUOUS
 10
135.207500
 20
149.575238
 11
134.375500
 21
149.575238
  0
LINE
  8
128
 62
7
  6
CONTINUOUS
 10
134.375500
 20
149.575238
 11
134.791500
 21
152.775238
  0
LINE
  8
128
 62
7
  6
CONTINUOUS
 10
134.791500
 20
130.775238
 11
134.375500
 21
133.975238
  0
LINE
  8
128
 62
7
  6
CONTINUOUS
 10
134.375500
 20
133.975238
 11
135.207500
 21
133.975238
  0
LINE
  8
128
 62
7
  6
CONTINUOUS
 10
135.207500
 20
133.975238
 11
134.791500
 21
130.775238
  0
TEXT
  8
128
 62
7
  6
CONTINUOUS
 10
131.991500
 20
136.547238
 40
3.200000
 41
0.900000
  1
22
  7
KANJI
 50
90.000000
 51
0.000000
  0
TEXT
  8
128
 62
7
  6
CONTINUOUS
 10
129.831500
 20
144.739238
 40
2.240000
 41
0.900000
  1
0
  7
KANJI
 50
90.000000
 51
0.000000
  0
TEXT
  8
128
 62
7
  6
CONTINUOUS
 10
133.191500
 20
142.947238
 40
2.240000
 41
0.900000
  1
-0.05
  7
KANJI
 50
90.000000
 51
0.000000
  0
TEXT
  8
128
 62
7
  6
CONTINUOUS
 10
131.991500
 20
132.707238
 40
3.200000
 41
0.900000
  1
φ
  7
KANJI
 50
90.000000
 51
0.000000
  0
LINE
  8
128
 62
7
  6
CONTINUOUS
 10
72.314023
 20
171.275238
 11
103.314023
 21
171.275238
  0
LINE
  8
128
 62
7
  6
CONTINUOUS
 10
103.314023
 20
160.775238
 11
103.314023
 21
172.275238
  0
LINE
  8
128
 62
7
  6
CONTINUOUS
 10
72.314023
 20
160.775238
 11
72.314023
 21
172.275238
  0
LINE
  8
128
 62
7
  6
CONTINUOUS
 10
72.314023
 20
171.275238
 11
75.514023
 21
171.691238
  0
LINE
  8
128
 62
7
  6
CONTINUOUS
 10
75.514023
 20
171.691238
 11
75.514023
 21
170.859238
  0
LINE
  8
128
 62
7
  6
CONTINUOUS
 10
75.514023
 20
170.859238
 11
72.314023
 21
171.275238
  0
LINE
  8
128
 62
7
  6
CONTINUOUS
 10
103.314023
 20
171.275238
 11
100.114023
 21
170.859238
  0
LINE
  8
128
 62
7
  6
CONTINUOUS
 10
100.114023
 20
170.859238
 11
100.114023
 21
171.691238
  0
LINE
  8
128
 62
7
  6
CONTINUOUS
 10
100.114023
 20
171.691238
 11
103.314023
 21
171.275238
  0
TEXT
  8
128
 62
7
  6
CONTINUOUS
 10
81.706023
 20
172.875238
 40
3.200000
 41
0.900000
  1
31
  7
KANJI
 50
0.000000
 51
0.000000
  0
TEXT
  8
128
 62
7
  6
CONTINUOUS
 10
87.146023
 20
173.355238
 40
2.240000
 41
0.900000
  1
±0.2
  7
KANJI
 50
0.000000
 51
0.000000
  0
LINE
  8
128
 62
7
  6
CONTINUOUS
 10
48.314023
 20
122.275238
 11
48.314023
 21
161.275238
  0
LINE
  8
128
 62
7
  6
CONTINUOUS
 10
68.139173
 20
161.275238
 11
47.314023
 21
161.275238
  0
LINE
  8
128
 62
7
  6
CONTINUOUS
 10
68.139173
 20
122.275238
 11
47.314023
 21
122.275238
  0
LINE
  8
128
 62
7
  6
CONTINUOUS
 10
48.314023
 20
161.275238
 11
48.730023
 21
158.075238
  0
LINE
  8
128
 62
7
  6
CONTINUOUS
 10
48.730023
 20
158.075238
 11
47.898023
 21
158.075238
  0
LINE
  8
128
 62
7
  6
CONTINUOUS
 10
47.898023
 20
158.075238
 11
48.314023
 21
161.275238
  0
LINE
  8
128
 62
7
  6
CONTINUOUS
 10
48.314023
 20
122.275238
 11
47.898023
 21
125.475238
  0
LINE
  8
128
 62
7
  6
CONTINUOUS
 10
47.898023
 20
125.475238
 11
48.730023
 21
125.475238
  0
LINE
  8
128
 62
7
  6
CONTINUOUS
 10
48.730023
 20
125.475238
 11
48.314023
 21
122.275238
  0
TEXT
  8
128
 62
7
  6
CONTINUOUS
 10
46.714023
 20
139.375238
 40
3.200000
 41
0.900000
  1
39
  7
KANJI
 50
90.000000
 51
0.000000
  0
TEXT
  8
128
 62
7
  6
CONTINUOUS
 10
46.714023
 20
137.295238
 40
3.200000
 41
0.900000
  1
(
  7
KANJI
 50
90.000000
 51
0.000000
  0
TEXT
  8
128
 62
7
  6
CONTINUOUS
 10
46.714023
 20
145.775238
 40
3.200000
 41
0.900000
  1
)
  7
KANJI
 50
90.000000
 51
0.000000
  0
LINE
  8
128
 62
7
  6
CONTINUOUS
 10
68.314023
 20
181.275238
 11
107.314023
 21
181.275238
  0
LINE
  8
128
 62
7
  6
CONTINUOUS
 10
107.314023
 20
161.450038
 11
107.314023
 21
182.275238
  0
LINE
  8
128
 62
7
  6
CONTINUOUS
 10
68.314023
 20
161.450038
 11
68.314023
 21
182.275238
  0
LINE
  8
128
 62
7
  6
CONTINUOUS
 10
68.314023
 20
181.275238
 11
71.514023
 21
181.691238
  0
LINE
  8
128
 62
7
  6
CONTINUOUS
 10
71.514023
 20
181.691238
 11
71.514023
 21
180.859238
  0
LINE
  8
128
 62
7
  6
CONTINUOUS
 10
71.514023
 20
180.859238
 11
68.314023
 21
181.275238
  0
LINE
  8
128
 62
7
  6
CONTINUOUS
 10
107.314023
 20
181.275238
 11
104.114023
 21
180.859238
  0
LINE
  8
128
 62
7
  6
CONTINUOUS
 10
104.114023
 20
180.859238
 11
104.114023
 21
181.691238
  0
LINE
  8
128
 62
7
  6
CONTINUOUS
 10
104.114023
 20
181.691238
 11
107.314023
 21
181.275238
  0
TEXT
  8
128
 62
7
  6
CONTINUOUS
 10
85.414023
 20
182.875238
 40
3.200000
 41
0.900000
  1
39
  7
KANJI
 50
0.000000
 51
0.000000
  0
TEXT
  8
128
 62
7
  6
CONTINUOUS
 10
83.334023
 20
182.875238
 40
3.200000
 41
0.900000
  1
(
  7
KANJI
 50
0.000000
 51
0.000000
  0
TEXT
  8
128
 62
7
  6
CONTINUOUS
 10
91.814023
 20
182.875238
 40
3.200000
 41
0.900000
  1
)
  7
KANJI
 50
0.000000
 51
0.000000
  0
LINE
  8
128
 62
7
  6
CONTINUOUS
 10
58.314023
 20
126.275238
 11
58.314023
 21
157.275238
  0
LINE
  8
128
 62
7
  6
CONTINUOUS
 10
68.814023
 20
157.275238
 11
57.314023
 21
157.275238
  0
LINE
  8
128
 62
7
  6
CONTINUOUS
 10
68.814023
 20
126.275238
 11
57.314023
 21
126.275238
  0
LINE
  8
128
 62
7
  6
CONTINUOUS
 10
58.314023
 20
157.275238
 11
58.730023
 21
154.075238
  0
LINE
  8
128
 62
7
  6
CONTINUOUS
 10
58.730023
 20
154.075238
 11
57.898023
 21
154.075238
  0
LINE
  8
128
 62
7
  6
CONTINUOUS
 10
57.898023
 20
154.075238
 11
58.314023
 21
157.275238
  0
LINE
  8
128
 62
7
  6
CONTINUOUS
 10
58.314023
 20
126.275238
 11
57.898023
 21
129.475238
  0
LINE
  8
128
 62
7
  6
CONTINUOUS
 10
57.898023
 20
129.475238
 11
58.730023
 21
129.475238
  0
LINE
  8
128
 62
7
  6
CONTINUOUS
 10
58.730023
 20
129.475238
 11
58.314023
 21
126.275238
  0
TEXT
  8
128
 62
7
  6
CONTINUOUS
 10
56.714023
 20
135.667238
 40
3.200000
 41
0.900000
  1
31
  7
KANJI
 50
90.000000
 51
0.000000
  0
TEXT
  8
128
 62
7
  6
CONTINUOUS
 10
56.234023
 20
141.107238
 40
2.240000
 41
0.900000
  1
±0.2
  7
KANJI
 50
90.000000
 51
0.000000
  0
LINE
  8
128
 62
7
  6
CONTINUOUS
 10
171.291500
 20
191.275238
 11
198.291500
 21
191.275238
  0
LINE
  8
128
 62
7
  6
CONTINUOUS
 10
171.291500
 20
162.275238
 11
171.291500
 21
192.275238
  0
LINE
  8
128
 62
7
  6
CONTINUOUS
 10
198.291500
 20
161.275238
 11
198.291500
 21
192.275238
  0
LINE
  8
128
 62
7
  6
CONTINUOUS
 10
198.291500
 20
191.275238
 11
195.091500
 21
190.859238
  0
LINE
  8
128
 62
7
  6
CONTINUOUS
 10
195.091500
 20
190.859238
 11
195.091500
 21
191.691238
  0
LINE
  8
128
 62
7
  6
CONTINUOUS
 10
195.091500
 20
191.691238
 11
198.291500
 21
191.275238
  0
LINE
  8
128
 62
7
  6
CONTINUOUS
 10
171.291500
 20
191.275238
 11
174.491500
 21
191.691238
  0
LINE
  8
128
 62
7
  6
CONTINUOUS
 10
174.491500
 20
191.691238
 11
174.491500
 21
190.859238
  0
LINE
  8
128
 62
7
  6
CONTINUOUS
 10
174.491500
 20
190.859238
 11
171.291500
 21
191.275238
  0
TEXT
  8
128
 62
7
  6
CONTINUOUS
 10
182.122861
 20
192.875238
 40
3.200000
 41
0.900000
  1
27
  7
KANJI
 50
0.000000
 51
0.000000
  0
TEXT
  8
128
 62
7
  6
CONTINUOUS
 10
180.042861
 20
192.875238
 40
3.200000
 41
0.900000
  1
(
  7
KANJI
 50
0.000000
 51
0.000000
  0
TEXT
  8
128
 62
7
  6
CONTINUOUS
 10
188.522861
 20
192.875238
 40
3.200000
 41
0.900000
  1
)
  7
KANJI
 50
0.000000
 51
0.000000
  0
LINE
  8
1
 62
7
  6
CONTINUOUS
 10
110.186645
 20
76.709863
 11
103.786645
 21
76.709863
  0
LINE
  8
1
 62
7
  6
CONTINUOUS
 10
100.286645
 20
76.709863
 11
103.786645
 21
76.709863
  0
LINE
  8
1
 62
7
  6
CONTINUOUS
 10
100.286645
 20
76.709863
 11
88.865143
 21
76.709863
  0
LINE
  8
1
 62
7
  6
CONTINUOUS
 10
100.286645
 20
67.709863
 11
100.286645
 21
78.209863
  0
LINE
  8
1
 62
7
  6
CONTINUOUS
 10
103.786645
 20
67.434863
 11
103.786645
 21
78.209863
  0
LINE
  8
1
 62
7
  6
CONTINUOUS
 10
100.286645
 20
76.709863
 11
97.086645
 21
76.293863
  0
LINE
  8
1
 62
7
  6
CONTINUOUS
 10
97.086645
 20
76.293863
 11
97.086645
 21
77.125863
  0
LINE
  8
1
 62
7
  6
CONTINUOUS
 10
97.086645
 20
77.125863
 11
100.286645
 21
76.709863
  0
LINE
  8
1
 62
7
  6
CONTINUOUS
 10
103.786645
 20
76.709863
 11
106.986645
 21
77.125863
  0
LINE
  8
1
 62
7
  6
CONTINUOUS
 10
106.986645
 20
77.125863
 11
106.986645
 21
76.293863
  0
LINE
  8
1
 62
7
  6
CONTINUOUS
 10
106.986645
 20
76.293863
 11
103.786645
 21
76.709863
  0
TEXT
  8
1
 62
7
  6
CONTINUOUS
 10
90.945143
 20
78.709863
 40
3.200000
 41
0.900000
  1
3.5
  7
KANJI
 50
0.000000
 51
0.000000
  0
TEXT
  8
1
 62
7
  6
CONTINUOUS
 10
88.865143
 20
78.709863
 40
3.200000
 41
0.900000
  1
(
  7
KANJI
 50
0.000000
 51
0.000000
  0
TEXT
  8
1
 62
7
  6
CONTINUOUS
 10
98.385143
 20
78.709863
 40
3.200000
 41
0.900000
  1
)
  7
KANJI
 50
0.000000
 51
0.000000
  0
LINE
  8
1
 62
7
  6
CONTINUOUS
 10
39.445574
 20
89.709863
 11
103.786645
 21
89.709863
  0
LINE
  8
1
 62
7
  6
CONTINUOUS
 10
103.786645
 20
67.434863
 11
103.786645
 21
91.209863
  0
LINE
  8
1
 62
7
  6
CONTINUOUS
 10
39.445574
 20
71.609863
 11
39.445574
 21
91.209863
  0
LINE
  8
1
 62
7
  6
CONTINUOUS
 10
39.445574
 20
89.709863
 11
42.645574
 21
90.125863
  0
LINE
  8
1
 62
7
  6
CONTINUOUS
 10
42.645574
 20
90.125863
 11
42.645574
 21
89.293863
  0
LINE
  8
1
 62
7
  6
CONTINUOUS
 10
42.645574
 20
89.293863
 11
39.445574
 21
89.709863
  0
LINE
  8
1
 62
7
  6
CONTINUOUS
 10
103.786645
 20
89.709863
 11
100.586645
 21
89.293863
  0
LINE
  8
1
 62
7
  6
CONTINUOUS
 10
100.586645
 20
89.293863
 11
100.586645
 21
90.125863
  0
LINE
  8
1
 62
7
  6
CONTINUOUS
 10
100.586645
 20
90.125863
 11
103.786645
 21
89.709863
  0
TEXT
  8
1
 62
7
  6
CONTINUOUS
 10
63.843963
 20
92.509863
 40
3.200000
 41
0.900000
  1
200
  7
KANJI
 50
0.000000
 51
0.000000
  0
TEXT
  8
1
 62
7
  6
CONTINUOUS
 10
73.123963
 20
94.589863
 40
1.920000
 41
0.900000
  1
+40
  7
KANJI
 50
0.000000
 51
0.000000
  0
TEXT
  8
1
 62
7
  6
CONTINUOUS
 10
74.851963
 20
91.709863
 40
1.920000
 41
0.900000
  1
 0
  7
KANJI
 50
0.000000
 51
0.000000
  0
LINE
  8
1
 62
7
  6
CONTINUOUS
 10
117.314023
 20
112.875238
 11
117.314023
 21
119.275238
  0
LINE
  8
1
 62
7
  6
CONTINUOUS
 10
117.314023
 20
119.275238
 11
117.314023
 21
122.275238
  0
LINE
  8
1
 62
7
  6
CONTINUOUS
 10
117.314023
 20
122.275238
 11
117.314023
 21
132.149440
  0
LINE
  8
1
 62
7
  6
CONTINUOUS
 10
99.314023
 20
119.275238
 11
118.814023
 21
119.275238
  0
LINE
  8
1
 62
7
  6
CONTINUOUS
 10
107.488823
 20
122.275238
 11
118.814023
 21
122.275238
  0
LINE
  8
1
 62
7
  6
CONTINUOUS
 10
117.314023
 20
122.275238
 11
116.898023
 21
125.475238
  0
LINE
  8
1
 62
7
  6
CONTINUOUS
 10
116.898023
 20
125.475238
 11
117.730023
 21
125.475238
  0
LINE
  8
1
 62
7
  6
CONTINUOUS
 10
117.730023
 20
125.475238
 11
117.314023
 21
122.275238
  0
LINE
  8
1
 62
7
  6
CONTINUOUS
 10
117.314023
 20
119.275238
 11
117.730023
 21
116.075238
  0
LINE
  8
1
 62
7
  6
CONTINUOUS
 10
117.730023
 20
116.075238
 11
116.898023
 21
116.075238
  0
LINE
  8
1
 62
7
  6
CONTINUOUS
 10
116.898023
 20
116.075238
 11
117.314023
 21
119.275238
  0
TEXT
  8
1
 62
7
  6
CONTINUOUS
 10
115.053303
 20
128.149440
 40
3.200000
 41
0.900000
  1
3
  7
KANJI
 50
90.000000
 51
0.000000
  0
TEXT
  8
1
 62
7
  6
CONTINUOUS
 10
115.053303
 20
126.069440
 40
3.200000
 41
0.900000
  1
(
  7
KANJI
 50
90.000000
 51
0.000000
  0
TEXT
  8
1
 62
7
  6
CONTINUOUS
 10
115.053303
 20
131.669440
 40
3.200000
 41
0.900000
  1
)
  7
KANJI
 50
90.000000
 51
0.000000
  0
LINE
  8
1
 62
7
  6
CONTINUOUS
 10
48.314023
 20
128.675238
 11
48.314023
 21
122.275238
  0
LINE
  8
1
 62
7
  6
CONTINUOUS
 10
48.314023
 20
118.175238
 11
48.314023
 21
122.275238
  0
LINE
  8
1
 62
7
  6
CONTINUOUS
 10
48.314023
 20
118.175238
 11
48.314023
 21
104.587217
  0
LINE
  8
1
 62
7
  6
CONTINUOUS
 10
77.814023
 20
118.175238
 11
46.814023
 21
118.175238
  0
LINE
  8
1
 62
7
  6
CONTINUOUS
 10
68.139173
 20
122.275238
 11
46.814023
 21
122.275238
  0
LINE
  8
1
 62
7
  6
CONTINUOUS
 10
48.314023
 20
122.275238
 11
47.898023
 21
125.475238
  0
LINE
  8
1
 62
7
  6
CONTINUOUS
 10
47.898023
 20
125.475238
 11
48.730023
 21
125.475238
  0
LINE
  8
1
 62
7
  6
CONTINUOUS
 10
48.730023
 20
125.475238
 11
48.314023
 21
122.275238
  0
LINE
  8
1
 62
7
  6
CONTINUOUS
 10
48.314023
 20
118.175238
 11
48.730023
 21
114.975238
  0
LINE
  8
1
 62
7
  6
CONTINUOUS
 10
48.730023
 20
114.975238
 11
47.898023
 21
114.975238
  0
LINE
  8
1
 62
7
  6
CONTINUOUS
 10
47.898023
 20
114.975238
 11
48.314023
 21
118.175238
  0
TEXT
  8
1
 62
7
  6
CONTINUOUS
 10
46.314023
 20
109.867217
 40
3.200000
 41
0.900000
  1
4.1
  7
KANJI
 50
90.000000
 51
0.000000
  0
TEXT
  8
1
 62
7
  6
CONTINUOUS
 10
46.314023
 20
104.587217
 40
3.200000
 41
0.900000
  1
※(
  7
KANJI
 50
90.000000
 51
0.000000
  0
TEXT
  8
1
 62
7
  6
CONTINUOUS
 10
46.314023
 20
116.347217
 40
3.200000
 41
0.900000
  1
)
  7
KANJI
 50
90.000000
 51
0.000000
  0
LINE
  8
1
 62
7
  6
CONTINUOUS
 10
154.791500
 20
191.275238
 11
171.291500
 21
191.275238
  0
LINE
  8
1
 62
7
  6
CONTINUOUS
 10
154.791500
 20
145.062681
 11
154.791500
 21
192.775238
  0
LINE
  8
1
 62
7
  6
CONTINUOUS
 10
171.291500
 20
162.275238
 11
171.291500
 21
192.775238
  0
LINE
  8
1
 62
7
  6
CONTINUOUS
 10
171.291500
 20
191.275238
 11
168.091500
 21
190.859238
  0
LINE
  8
1
 62
7
  6
CONTINUOUS
 10
168.091500
 20
190.859238
 11
168.091500
 21
191.691238
  0
LINE
  8
1
 62
7
  6
CONTINUOUS
 10
168.091500
 20
191.691238
 11
171.291500
 21
191.275238
  0
LINE
  8
1
 62
7
  6
CONTINUOUS
 10
154.791500
 20
191.275238
 11
157.991500
 21
191.691238
  0
LINE
  8
1
 62
7
  6
CONTINUOUS
 10
157.991500
 20
191.691238
 11
157.991500
 21
190.859238
  0
LINE
  8
1
 62
7
  6
CONTINUOUS
 10
157.991500
 20
190.859238
 11
154.791500
 21
191.275238
  0
TEXT
  8
1
 62
7
  6
CONTINUOUS
 10
155.658969
 20
193.275238
 40
3.200000
 41
0.900000
  1
16.5
  7
KANJI
 50
0.000000
 51
0.000000
  0
TEXT
  8
1
 62
7
  6
CONTINUOUS
 10
165.018969
 20
193.915238
 40
1.920000
 41
0.900000
  1
±0.5
  7
KANJI
 50
0.000000
 51
0.000000
  0
LINE
  8
1
 62
7
  6
CONTINUOUS
 10
144.791500
 20
132.875238
 11
144.791500
 21
139.275238
  0
LINE
  8
1
 62
7
  6
CONTINUOUS
 10
144.791500
 20
139.275238
 11
144.791500
 21
144.275238
  0
LINE
  8
1
 62
7
  6
CONTINUOUS
 10
144.791500
 20
144.275238
 11
144.791500
 21
169.596606
  0
LINE
  8
1
 62
7
  6
CONTINUOUS
 10
154.504565
 20
139.275238
 11
143.291500
 21
139.275238
  0
LINE
  8
1
 62
7
  6
CONTINUOUS
 10
154.504565
 20
144.275238
 11
143.291500
 21
144.275238
  0
LINE
  8
1
 62
7
  6
CONTINUOUS
 10
144.791500
 20
144.275238
 11
144.375500
 21
147.475238
  0
LINE
  8
1
 62
7
  6
CONTINUOUS
 10
144.375500
 20
147.475238
 11
145.207500
 21
147.475238
  0
LINE
  8
1
 62
7
  6
CONTINUOUS
 10
145.207500
 20
147.475238
 11
144.791500
 21
144.275238
  0
LINE
  8
1
 62
7
  6
CONTINUOUS
 10
144.791500
 20
139.275238
 11
145.207500
 21
136.075238
  0
LINE
  8
1
 62
7
  6
CONTINUOUS
 10
145.207500
 20
136.075238
 11
144.375500
 21
136.075238
  0
LINE
  8
1
 62
7
  6
CONTINUOUS
 10
144.375500
 20
136.075238
 11
144.791500
 21
139.275238
  0
TEXT
  8
1
 62
7
  6
CONTINUOUS
 10
141.991500
 20
158.732606
 40
3.200000
 41
0.900000
  1
5
  7
KANJI
 50
90.000000
 51
0.000000
  0
TEXT
  8
1
 62
7
  6
CONTINUOUS
 10
139.911500
 20
162.252606
 40
1.920000
 41
0.900000
  1
 0
  7
KANJI
 50
90.000000
 51
0.000000
  0
TEXT
  8
1
 62
7
  6
CONTINUOUS
 10
142.791500
 20
162.252606
 40
1.920000
 41
0.900000
  1
-0.011
  7
KANJI
 50
90.000000
 51
0.000000
  0
TEXT
  8
1
 62
7
  6
CONTINUOUS
 10
141.991500
 20
155.088161
 40
3.200000
 41
0.900000
  1
φ
  7
KANJI
 50
90.000000
 51
0.000000
  0
LINE
  8
1
 62
7
  6
CONTINUOUS
 10
184.449076
 20
164.047148
 11
178.449076
 21
164.047148
  0
LINE
  8
1
 62
7
  6
CONTINUOUS
 10
178.449076
 20
170.047148
 11
184.449076
 21
170.047148
  0
LINE
  8
1
 62
7
  6
CONTINUOUS
 10
178.949076
 20
167.047148
 11
181.449076
 21
165.547148
  0
LINE
  8
1
 62
7
  6
CONTINUOUS
 10
183.949076
 20
167.047148
 11
178.949076
 21
167.047148
  0
LINE
  8
1
 62
7
  6
CONTINUOUS
 10
181.449076
 20
165.547148
 11
181.449076
 21
168.047148
  0
LINE
  8
1
 62
7
  6
CONTINUOUS
 10
178.449076
 20
190.047148
 11
184.449076
 21
190.047148
  0
LINE
  8
1
 62
7
  6
CONTINUOUS
 10
178.449076
 20
164.047148
 11
178.449076
 21
190.047148
  0
LINE
  8
1
 62
7
  6
CONTINUOUS
 10
184.449076
 20
190.047148
 11
184.449076
 21
164.047148
  0
TEXT
  8
1
 62
7
  6
CONTINUOUS
 10
183.449076
 20
171.093894
 40
4.000000
 41
0.900000
  1
文字ノ向キ
  7
KANJI
 50
90.000000
 51
0.000000
  0
TEXT
  8
1
 62
7
  6
CONTINUOUS
 10
186.956248
 20
169.784518
 40
2.000000
 41
0.900000
  1
DIRECTION
  7
KANJI
 50
90.000000
 51
0.000000
  0
TEXT
  8
1
 62
7
  6
CONTINUOUS
 10
189.956248
 20
169.784518
 40
2.000000
 41
0.900000
  1
OF LETTER
  7
KANJI
 50
90.000000
 51
0.000000
  0
TEXT
  8
1
 62
7
  6
CONTINUOUS
 10
189.875895
 20
166.267437
 40
5.000000
 41
0.900000
  1
(   )
  7
KANJI
 50
90.000000
 51
0.000000
  0
LINE
  8
1
 62
7
  6
CONTINUOUS
 10
127.240391
 20
109.389607
 11
153.640391
 21
109.389607
  0
LINE
  8
1
 62
7
  6
CONTINUOUS
 10
104.539561
 20
125.410335
 11
127.240391
 21
109.389607
  0
LINE
  8
1
 62
7
  6
CONTINUOUS
 10
104.539561
 20
125.410335
 11
107.393908
 21
123.905092
  0
LINE
  8
1
 62
7
  6
CONTINUOUS
 10
107.393908
 20
123.905092
 11
106.914175
 21
123.225327
  0
LINE
  8
1
 62
7
  6
CONTINUOUS
 10
106.914175
 20
123.225327
 11
104.539561
 21
125.410335
  0
TEXT
  8
1
 62
7
  6
CONTINUOUS
 10
141.720391
 20
111.389607
 40
3.200000
 41
0.900000
  1
3×0.5
  7
KANJI
 50
0.000000
 51
0.000000
  0
TEXT
  8
1
 62
7
  6
CONTINUOUS
 10
132.440391
 20
111.389607
 40
3.200000
 41
0.900000
  1
4-M
  7
KANJI
 50
0.000000
 51
0.000000
  0
ENDSEC
  0
EOF
