  0
SECTION
  2
HEADER
  9
$ACADVER
  1
AC1003
  9
$INSBASE
 10
0.000000
 20
0.000000
  9
$EXTMIN
 10
0.000000
 20
0.000000
  9
$EXTMAX
 10
420.000000
 20
297.000000
  9
$LIMMIN
 10
0.000000
 20
0.000000
  9
$LIMMAX
 10
420.000000
 20
297.000000
  9
$VIEWCTR
 10
210.000000
 20
148.500000
  9
$VIEWSIZE
 40
297.000000
  9
$PEXTMIN
 10
0.000000
 20
0.000000
 30
0.000000
  9
$PEXTMAX
 10
420.000000
 20
297.000000
 30
0.000000
  9
$SNAPMODE
 70
     0
  9
$SNAPUNIT
 10
1.000000
 20
1.000000
  9
$SNAPBASE
 10
0.000000
 20
0.000000
  9
$SNAPANG
 50
0.000000
  9
$SNAPISOPAIR
 70
     0
  9
$SNAPSTYLE
 70
     0
  9
$GRIDMODE
 70
     0
  9
$GRIDUNIT
 10
0.000000
 20
0.000000
  9
$ORTHOMODE
 70
     0
  9
$REGENMODE
 70
     1
  9
$FILLMODE
 70
     1
  9
$QTEXTMODE
 70
     0
  9
$DRAGMODE
 70
     2
  9
$LTSCALE
 40
0.250000
  9
$OSMODE
 70
     0
  9
$ATTMODE
 70
     1
  9
$TEXTSIZE
 40
0.200000
  9
$TRACEWID
 40
0.050000
  9
$TEXTSTYLE
  7
STANDARD
  9
$CLAYER
  8
0
  9
$CELTYPE
  6
BYLAYER
  9
$CECOLOR
 62
   256
  9
$DIMSCALE
 40
1.000000
  9
$DIMASZ
 40
1.000000
  9
$DIMEXO
 40
0.000000
  9
$DIMDLI
 40
0.500000
  9
$DIMRND
 40
0.000000
  9
$DIMDLE
 40
0.000000
  9
$DIMEXE
 40
0.000000
  9
$DIMTP
 40
0.000000
  9
$DIMTM
 40
0.000000
  9
$DIMTXT
 40
0.180000
  9
$DIMCEN
 40
0.000000
  9
$DIMTSZ
 40
0.000000
  9
$DIMTOL
 70
     0
  9
$DIMLIM
 70
     0
  9
$DIMTIH
 70
     1
  9
$DIMTOH
 70
     1
  9
$DIMSE1
 70
     0
  9
$DIMSE2
 70
     0
  9
$DIMTAD
 70
     0
  9
$DIMZIN
 70
     0
  9
$DIMBLK
  1

  9
$DIMASO
 70
     0
  9
$DIMSHO
 70
     0
  9
$DIMPOST
  1

  9
$DIMAPOST
  1

  9
$DIMALT
 70
     0
  9
$DIMALTD
 70
     0
  9
$DIMALTF
 40
25.400000
  9
$DIMLFAC
 40
1.000000
  9
$DIMTOFL
 70
     0
  9
$DIMTVP
 40
0.000000
  9
$DIMTIX
 70
     0
  9
$DIMSOXD
 70
     0
  9
$DIMSAH
 70
     0
  9
$DIMBLKL
  1

  9
$DIMBLKR
  1

  9
$LUNITS
 70
     2
  9
$LUPREC
 70
     2
  9
$AXISMODE
 70
     0
  9
$AXISUNIT
 10
1.000000
 20
1.000000
  9
$SKETCHINC
 40
0.000000
  9
$FILLETRAD
 40
0.000000
  9
$AUNITS
 70
     1
  9
$AUPREC
 70
     2
  9
$MENU
  1
ACAD
  9
$ELEVATION
 40
0.000000
  9
$THICKNESS
 40
0.000000
  9
$VIEWDIR
 10
0.000000
 20
0.000000
 30
1.000000
  9
$LIMCHECK
 70
     1
  9
$BLIPMODE
 70
     1
  9
$CHAMFERA
 40
0.000000
  9
$CHAMFERB
 40
0.000000
  9
$FASTZOOM
 70
     1
  9
$SKPOLY
 70
     0
  9
$TDCREATE
 40
0.000000
  9
$TDUPDATE
 40
0.000000
  9
$TDINDWG
 40
0.000000
  9
$TDUSRTIMER
 40
0.000000
  9
$USRTIMER
 70
     1
  9
$ANGBASE
 50
0.000000
  9
$ANGDIR
 70
     0
  9
$PDMODE
 70
     0
  9
$PDSIZE
 40
0.000000
  9
$PLINEWID
 40
0.000000
  9
$COORDS
 70
     2
  9
$USERI1
 70
     0
  9
$USERI2
 70
     0
  9
$USERI3
 70
     0
  9
$USERI4
 70
     0
  9
$USERI5
 70
     0
  9
$USERR1
 40
0.000000
  9
$USERR2
 40
0.000000
  9
$USERR3
 40
0.000000
  9
$USERR4
 40
0.000000
  9
$USERR5
 40
0.000000
  0
ENDSEC
  0
SECTION
  2
TABLES
  0
TABLE
  2
LTYPE
 70
     5
  0
LTYPE
  2
CONTINUOUS
 70
    64
  3
Solid line
 72
    65
 73
     0
 40
0.0
  0
LTYPE
  2
HIDDEN
 70
    64
  3
------------------------
 72
    65
 73
     2
 40
12.6
 49
8.4
 49
-4.2
  0
LTYPE
  2
DOT
 70
    64
  3
････････････････････････
 72
    65
 73
     2
 40
8.0
 49
6.0
 49
-2.0
  0
LTYPE
  2
DASHDOT
 70
    64
  3
--･--･--･--･--･--･--･--
 72
    65
 73
     4
 40
50.5
 49
30.0
 49
-9.0
 49
2.5
 49
-9.0
  0
LTYPE
  2
DIVIDE
 70
    64
  3
--･･--･･--･･--･･--･･--
 72
    65
 73
     6
 40
58.0
 49
30.0
 49
-9.0
 49
2.5
 49
-5.0
 49
2.5
 49
-9.0
  0
ENDTAB
  0
TABLE
  2
LAYER
 70
4
  0
LAYER
  2
1
 70
64
 62
7
  6
CONTINUOUS
  0
LAYER
  2
2
 70
64
 62
134
  6
CONTINUOUS
  0
LAYER
  2
4
 70
64
 62
54
  6
CONTINUOUS
  0
LAYER
  2
128
 70
64
 62
7
  6
CONTINUOUS
  0
ENDTAB
  0
TABLE
  2
STYLE
 70
     2
  0
STYLE
  2
STANDARD
 70
    64
 40
0.0
 41
1.0
 50
0.0
 71
     0
 42
0.2
  3
TXT
  4

  0
STYLE
  2
KANJI
 70
    64
 40
0.0
 41
1.0
 50
0.0
 71
     0
 42
0.2
  3
TXT
  4
BIGFONT
  0
ENDTAB
  0
TABLE
  2
VIEW
 70
     0
  0
ENDTAB
  0
ENDSEC
  0
SECTION
  2
BLOCKS
  0
ENDSEC
  0
SECTION
  2
ENTITIES
  0
LINE
  8
1
 62
7
  6
CONTINUOUS
 10
32.289591
 20
50.109863
 11
32.289591
 21
33.209863
  0
LINE
  8
1
 62
7
  6
CONTINUOUS
 10
97.524664
 20
48.884863
 11
101.024664
 21
48.884863
  0
LINE
  8
1
 62
7
  6
CONTINUOUS
 10
97.524664
 20
49.159863
 11
101.024664
 21
49.159863
  0
LINE
  8
1
 62
7
  6
CONTINUOUS
 10
97.524664
 20
49.434863
 11
101.024664
 21
49.434863
  0
LINE
  8
1
 62
7
  6
CONTINUOUS
 10
97.524664
 20
48.609863
 11
97.524664
 21
49.709863
  0
LINE
  8
1
 62
7
  6
CONTINUOUS
 10
97.524664
 20
45.884863
 11
101.024664
 21
45.884863
  0
LINE
  8
1
 62
7
  6
CONTINUOUS
 10
97.524664
 20
46.159863
 11
101.024664
 21
46.159863
  0
LINE
  8
1
 62
7
  6
CONTINUOUS
 10
97.524664
 20
46.434863
 11
101.024664
 21
46.434863
  0
LINE
  8
1
 62
7
  6
CONTINUOUS
 10
97.524664
 20
45.609863
 11
97.524664
 21
46.709863
  0
LINE
  8
1
 62
7
  6
CONTINUOUS
 10
97.524664
 20
42.884863
 11
101.024664
 21
42.884863
  0
LINE
  8
1
 62
7
  6
CONTINUOUS
 10
97.524664
 20
43.159863
 11
101.024664
 21
43.159863
  0
LINE
  8
1
 62
7
  6
CONTINUOUS
 10
97.524664
 20
43.434863
 11
101.024664
 21
43.434863
  0
LINE
  8
1
 62
7
  6
CONTINUOUS
 10
97.524664
 20
42.609863
 11
97.524664
 21
43.709863
  0
LINE
  8
1
 62
7
  6
CONTINUOUS
 10
97.524664
 20
39.884863
 11
101.024664
 21
39.884863
  0
LINE
  8
1
 62
7
  6
CONTINUOUS
 10
97.524664
 20
40.159863
 11
101.024664
 21
40.159863
  0
LINE
  8
1
 62
7
  6
CONTINUOUS
 10
97.524664
 20
40.434863
 11
101.024664
 21
40.434863
  0
LINE
  8
1
 62
7
  6
CONTINUOUS
 10
97.524664
 20
39.609863
 11
97.524664
 21
40.709863
  0
LINE
  8
1
 62
7
  6
CONTINUOUS
 10
67.139591
 20
49.709863
 11
97.524664
 21
49.709863
  0
LINE
  8
1
 62
7
  6
CONTINUOUS
 10
67.139591
 20
48.609863
 11
97.524664
 21
48.609863
  0
LINE
  8
1
 62
7
  6
CONTINUOUS
 10
67.139591
 20
46.709863
 11
97.524664
 21
46.709863
  0
LINE
  8
1
 62
7
  6
CONTINUOUS
 10
67.139591
 20
45.609863
 11
97.524664
 21
45.609863
  0
LINE
  8
1
 62
7
  6
CONTINUOUS
 10
67.139591
 20
43.709863
 11
97.524664
 21
43.709863
  0
LINE
  8
1
 62
7
  6
CONTINUOUS
 10
67.139591
 20
42.609863
 11
97.524664
 21
42.609863
  0
LINE
  8
1
 62
7
  6
CONTINUOUS
 10
67.139591
 20
39.609863
 11
97.524664
 21
39.609863
  0
LINE
  8
1
 62
7
  6
CONTINUOUS
 10
67.139591
 20
40.709863
 11
97.524664
 21
40.709863
  0
LINE
  8
1
 62
7
  6
CONTINUOUS
 10
36.789591
 20
45.609863
 11
66.139591
 21
45.609863
  0
LINE
  8
1
 62
7
  6
CONTINUOUS
 10
36.789591
 20
46.709863
 11
66.139591
 21
46.709863
  0
LINE
  8
1
 62
7
  6
CONTINUOUS
 10
36.789591
 20
42.609863
 11
66.139591
 21
42.609863
  0
LINE
  8
1
 62
7
  6
CONTINUOUS
 10
36.789591
 20
43.709863
 11
66.139591
 21
43.709863
  0
LINE
  8
1
 62
7
  6
CONTINUOUS
 10
36.789591
 20
39.609863
 11
66.139591
 21
39.609863
  0
LINE
  8
1
 62
7
  6
CONTINUOUS
 10
36.789591
 20
40.709863
 11
66.139591
 21
40.709863
  0
LINE
  8
1
 62
7
  6
CONTINUOUS
 10
36.789591
 20
37.709863
 11
66.139591
 21
37.709863
  0
LINE
  8
1
 62
7
  6
CONTINUOUS
 10
36.789591
 20
36.609863
 11
66.139591
 21
36.609863
  0
LINE
  8
1
 62
7
  6
CONTINUOUS
 10
35.800916
 20
49.159863
 11
35.800916
 21
34.159863
  0
LINE
  8
1
 62
7
  6
CONTINUOUS
 10
36.489591
 20
32.709863
 11
36.189591
 21
32.709863
  0
LINE
  8
1
 62
7
  6
CONTINUOUS
 10
36.189591
 20
32.709863
 11
35.800916
 21
33.209863
  0
LINE
  8
1
 62
7
  6
CONTINUOUS
 10
35.800916
 20
33.209863
 11
33.540497
 21
33.209863
  0
LINE
  8
1
 62
7
  6
CONTINUOUS
 10
36.189591
 20
32.709863
 11
33.540497
 21
32.709863
  0
LINE
  8
1
 62
7
  6
CONTINUOUS
 10
33.540497
 20
32.709863
 11
33.540497
 21
33.209863
  0
LINE
  8
1
 62
7
  6
CONTINUOUS
 10
33.540497
 20
50.609863
 11
36.189591
 21
50.609863
  0
LINE
  8
1
 62
7
  6
CONTINUOUS
 10
33.540497
 20
50.109863
 11
33.540497
 21
50.609863
  0
LINE
  8
1
 62
7
  6
CONTINUOUS
 10
36.189591
 20
50.609863
 11
36.489591
 21
50.609863
  0
LINE
  8
1
 62
7
  6
CONTINUOUS
 10
35.800916
 20
50.109863
 11
36.189591
 21
50.609863
  0
LINE
  8
1
 62
7
  6
CONTINUOUS
 10
35.800916
 20
34.159863
 11
36.489591
 21
34.159863
  0
LINE
  8
1
 62
7
  6
CONTINUOUS
 10
36.489591
 20
49.159863
 11
35.800916
 21
49.159863
  0
LINE
  8
1
 62
7
  6
CONTINUOUS
 10
33.540497
 20
50.109863
 11
35.800916
 21
50.109863
  0
LINE
  8
1
 62
7
  6
CONTINUOUS
 10
33.540497
 20
33.209863
 11
31.989591
 21
33.209863
  0
LINE
  8
1
 62
7
  6
CONTINUOUS
 10
31.989591
 20
33.209863
 11
31.989591
 21
50.109863
  0
LINE
  8
1
 62
7
  6
CONTINUOUS
 10
31.989591
 20
50.109863
 11
33.540497
 21
50.109863
  0
LINE
  8
1
 62
7
  6
CONTINUOUS
 10
36.489591
 20
32.709863
 11
36.489591
 21
50.609863
  0
LINE
  8
1
 62
7
  6
CONTINUOUS
 10
36.489591
 20
48.209863
 11
36.789591
 21
48.209863
  0
LINE
  8
1
 62
7
  6
CONTINUOUS
 10
36.789591
 20
48.209863
 11
36.789591
 21
48.609863
  0
LINE
  8
1
 62
7
  6
CONTINUOUS
 10
36.789591
 20
48.609863
 11
36.489591
 21
48.609863
  0
LINE
  8
1
 62
7
  6
CONTINUOUS
 10
36.489591
 20
46.709863
 11
36.789591
 21
46.709863
  0
LINE
  8
1
 62
7
  6
CONTINUOUS
 10
36.789591
 20
46.709863
 11
36.789591
 21
47.109863
  0
LINE
  8
1
 62
7
  6
CONTINUOUS
 10
36.789591
 20
47.109863
 11
36.489591
 21
47.109863
  0
LINE
  8
1
 62
7
  6
CONTINUOUS
 10
36.489591
 20
45.209863
 11
36.789591
 21
45.209863
  0
LINE
  8
1
 62
7
  6
CONTINUOUS
 10
36.789591
 20
45.209863
 11
36.789591
 21
45.609863
  0
LINE
  8
1
 62
7
  6
CONTINUOUS
 10
36.789591
 20
45.609863
 11
36.489591
 21
45.609863
  0
LINE
  8
1
 62
7
  6
CONTINUOUS
 10
36.489591
 20
43.709863
 11
36.789591
 21
43.709863
  0
LINE
  8
1
 62
7
  6
CONTINUOUS
 10
36.789591
 20
43.709863
 11
36.789591
 21
44.109863
  0
LINE
  8
1
 62
7
  6
CONTINUOUS
 10
36.789591
 20
44.109863
 11
36.489591
 21
44.109863
  0
LINE
  8
1
 62
7
  6
CONTINUOUS
 10
36.489591
 20
42.209863
 11
36.789591
 21
42.209863
  0
LINE
  8
1
 62
7
  6
CONTINUOUS
 10
36.789591
 20
42.209863
 11
36.789591
 21
42.609863
  0
LINE
  8
1
 62
7
  6
CONTINUOUS
 10
36.789591
 20
42.609863
 11
36.489591
 21
42.609863
  0
LINE
  8
1
 62
7
  6
CONTINUOUS
 10
36.489591
 20
40.709863
 11
36.789591
 21
40.709863
  0
LINE
  8
1
 62
7
  6
CONTINUOUS
 10
36.789591
 20
40.709863
 11
36.789591
 21
41.109863
  0
LINE
  8
1
 62
7
  6
CONTINUOUS
 10
36.789591
 20
41.109863
 11
36.489591
 21
41.109863
  0
LINE
  8
1
 62
7
  6
CONTINUOUS
 10
36.489591
 20
39.209863
 11
36.789591
 21
39.209863
  0
LINE
  8
1
 62
7
  6
CONTINUOUS
 10
36.789591
 20
39.209863
 11
36.789591
 21
39.609863
  0
LINE
  8
1
 62
7
  6
CONTINUOUS
 10
36.789591
 20
39.609863
 11
36.489591
 21
39.609863
  0
LINE
  8
1
 62
7
  6
CONTINUOUS
 10
36.489591
 20
37.709863
 11
36.789591
 21
37.709863
  0
LINE
  8
1
 62
7
  6
CONTINUOUS
 10
36.789591
 20
37.709863
 11
36.789591
 21
38.109863
  0
LINE
  8
1
 62
7
  6
CONTINUOUS
 10
36.789591
 20
38.109863
 11
36.489591
 21
38.109863
  0
LINE
  8
1
 62
7
  6
CONTINUOUS
 10
36.489591
 20
36.209863
 11
36.789591
 21
36.209863
  0
LINE
  8
1
 62
7
  6
CONTINUOUS
 10
36.789591
 20
36.209863
 11
36.789591
 21
36.609863
  0
LINE
  8
1
 62
7
  6
CONTINUOUS
 10
36.789591
 20
36.609863
 11
36.489591
 21
36.609863
  0
LINE
  8
1
 62
7
  6
CONTINUOUS
 10
36.489591
 20
34.709863
 11
36.789591
 21
34.709863
  0
LINE
  8
1
 62
7
  6
CONTINUOUS
 10
36.789591
 20
34.709863
 11
36.789591
 21
35.109863
  0
LINE
  8
1
 62
7
  6
CONTINUOUS
 10
36.789591
 20
35.109863
 11
36.489591
 21
35.109863
  0
LINE
  8
1
 62
7
  6
CONTINUOUS
 10
36.789591
 20
33.609863
 11
36.789591
 21
32.709863
  0
LINE
  8
1
 62
7
  6
CONTINUOUS
 10
36.789591
 20
32.709863
 11
36.489591
 21
32.709863
  0
LINE
  8
1
 62
7
  6
CONTINUOUS
 10
36.489591
 20
50.609863
 11
36.789591
 21
50.609863
  0
LINE
  8
1
 62
7
  6
CONTINUOUS
 10
36.789591
 20
50.609863
 11
36.789591
 21
49.709863
  0
LINE
  8
1
 62
7
  6
CONTINUOUS
 10
36.789591
 20
33.609863
 11
36.489591
 21
33.609863
  0
LINE
  8
1
 62
7
  6
CONTINUOUS
 10
36.789591
 20
49.709863
 11
36.489591
 21
49.709863
  0
LINE
  8
1
 62
7
  6
CONTINUOUS
 10
67.139591
 20
32.077856
 11
67.139591
 21
51.269863
  0
LINE
  8
1
 62
7
  6
CONTINUOUS
 10
66.139591
 20
32.077856
 11
66.139591
 21
51.269863
  0
LINE
  8
1
 62
7
  6
CONTINUOUS
 10
97.524664
 20
36.884863
 11
101.024664
 21
36.884863
  0
LINE
  8
1
 62
7
  6
CONTINUOUS
 10
97.524664
 20
37.159863
 11
101.024664
 21
37.159863
  0
LINE
  8
1
 62
7
  6
CONTINUOUS
 10
97.524664
 20
37.434863
 11
101.024664
 21
37.434863
  0
LINE
  8
1
 62
7
  6
CONTINUOUS
 10
97.524664
 20
36.609863
 11
97.524664
 21
37.709863
  0
LINE
  8
1
 62
7
  6
CONTINUOUS
 10
67.139591
 20
36.609863
 11
97.524664
 21
36.609863
  0
LINE
  8
1
 62
7
  6
CONTINUOUS
 10
67.139591
 20
37.709863
 11
97.524664
 21
37.709863
  0
LINE
  8
1
 62
7
  6
CONTINUOUS
 10
97.524664
 20
33.884863
 11
101.024664
 21
33.884863
  0
LINE
  8
1
 62
7
  6
CONTINUOUS
 10
97.524664
 20
34.159863
 11
101.024664
 21
34.159863
  0
LINE
  8
1
 62
7
  6
CONTINUOUS
 10
97.524664
 20
34.434863
 11
101.024664
 21
34.434863
  0
LINE
  8
1
 62
7
  6
CONTINUOUS
 10
97.524664
 20
33.609863
 11
97.524664
 21
34.709863
  0
LINE
  8
1
 62
7
  6
CONTINUOUS
 10
67.139591
 20
33.609863
 11
97.524664
 21
33.609863
  0
LINE
  8
1
 62
7
  6
CONTINUOUS
 10
67.139591
 20
34.709863
 11
97.524664
 21
34.709863
  0
LINE
  8
1
 62
7
  6
CONTINUOUS
 10
36.789591
 20
33.609863
 11
66.139591
 21
33.609863
  0
LINE
  8
1
 62
7
  6
CONTINUOUS
 10
36.789591
 20
34.709863
 11
66.139591
 21
34.709863
  0
LINE
  8
1
 62
7
  6
CONTINUOUS
 10
36.789591
 20
49.709863
 11
66.139591
 21
49.709863
  0
LINE
  8
1
 62
7
  6
CONTINUOUS
 10
36.789591
 20
48.609863
 11
66.139591
 21
48.609863
  0
LINE
  8
1
 62
7
  6
HIDDEN
 10
78.158039
 20
98.175238
 11
78.158039
 21
89.275238
  0
LINE
  8
1
 62
7
  6
HIDDEN
 10
77.158039
 20
98.175238
 11
77.158039
 21
89.275238
  0
LINE
  8
1
 62
7
  6
HIDDEN
 10
93.158039
 20
98.313039
 11
93.158039
 21
89.413039
  0
LINE
  8
1
 62
7
  6
HIDDEN
 10
92.158039
 20
98.313039
 11
92.158039
 21
89.413039
  0
LINE
  8
1
 62
7
  6
CONTINUOUS
 10
42.036883
 20
19.598361
 11
89.758027
 21
19.598361
  0
LINE
  8
1
 62
7
  6
CONTINUOUS
 10
95.658039
 20
102.275238
 11
95.658039
 21
99.275238
  0
LINE
  8
1
 62
7
  6
CONTINUOUS
 10
94.258039
 20
99.275238
 11
94.258039
 21
102.275238
  0
LINE
  8
1
 62
7
  6
CONTINUOUS
 10
94.158039
 20
102.275238
 11
94.158039
 21
99.275238
  0
LINE
  8
1
 62
7
  6
CONTINUOUS
 10
95.858039
 20
99.775238
 11
95.858039
 21
102.275238
  0
LINE
  8
1
 62
7
  6
CONTINUOUS
 10
95.858039
 20
101.275238
 11
95.658039
 21
101.275238
  0
LINE
  8
1
 62
7
  6
CONTINUOUS
 10
97.880105
 20
101.728196
 11
97.165803
 21
100.322279
  0
LINE
  8
1
 62
7
  6
CONTINUOUS
 10
96.274272
 20
99.775238
 11
95.658039
 21
99.775238
  0
LINE
  8
1
 62
7
  6
CONTINUOUS
 10
94.158039
 20
99.275238
 11
76.158039
 21
99.275238
  0
LINE
  8
1
 62
7
  6
CONTINUOUS
 10
74.658039
 20
99.775238
 11
74.041807
 21
99.775238
  0
LINE
  8
1
 62
7
  6
CONTINUOUS
 10
74.658039
 20
99.275238
 11
74.658039
 21
102.275238
  0
LINE
  8
1
 62
7
  6
CONTINUOUS
 10
76.058039
 20
99.275238
 11
74.658039
 21
99.275238
  0
LINE
  8
1
 62
7
  6
CONTINUOUS
 10
76.058039
 20
102.275238
 11
76.058039
 21
99.275238
  0
LINE
  8
1
 62
7
  6
CONTINUOUS
 10
76.158039
 20
99.275238
 11
76.158039
 21
102.275238
  0
LINE
  8
1
 62
7
  6
CONTINUOUS
 10
74.458039
 20
102.275238
 11
74.458039
 21
99.775238
  0
LINE
  8
1
 62
7
  6
CONTINUOUS
 10
74.458039
 20
101.275238
 11
74.658039
 21
101.275238
  0
LINE
  8
1
 62
7
  6
CONTINUOUS
 10
72.435974
 20
101.728196
 11
73.150276
 21
100.322279
  0
LINE
  8
1
 62
7
  6
CONTINUOUS
 10
74.358595
 20
99.775238
 11
74.041807
 21
99.775238
  0
LINE
  8
1
 62
7
  6
CONTINUOUS
 10
190.953707
 20
106.275223
 11
198.705584
 21
106.275238
  0
LINE
  8
1
 62
7
  6
CONTINUOUS
 10
190.953707
 20
137.275238
 11
198.705584
 21
137.275238
  0
LINE
  8
1
 62
7
  6
HIDDEN
 10
87.158039
 20
98.175238
 11
87.158039
 21
89.275238
  0
LINE
  8
1
 62
7
  6
HIDDEN
 10
83.158039
 20
98.175238
 11
83.158039
 21
89.275238
  0
LINE
  8
1
 62
7
  6
CONTINUOUS
 10
152.848582
 20
119.275238
 11
166.635517
 21
119.275238
  0
LINE
  8
4
 62
54
  6
CONTINUOUS
 10
186.235517
 20
133.775238
 11
186.235517
 21
137.575238
  0
LINE
  8
4
 62
54
  6
CONTINUOUS
 10
185.435517
 20
133.775238
 11
185.435517
 21
137.575238
  0
LINE
  8
4
 62
54
  6
CONTINUOUS
 10
184.635517
 20
133.775238
 11
184.635517
 21
141.275238
  0
LINE
  8
4
 62
54
  6
CONTINUOUS
 10
183.835517
 20
133.775238
 11
183.835517
 21
141.275238
  0
LINE
  8
4
 62
54
  6
CONTINUOUS
 10
183.035517
 20
133.775238
 11
183.035517
 21
141.275238
  0
LINE
  8
4
 62
54
  6
CONTINUOUS
 10
182.235517
 20
133.775238
 11
182.235517
 21
134.600163
  0
LINE
  8
4
 62
54
  6
CONTINUOUS
 10
180.135517
 20
109.775238
 11
180.135517
 21
102.275238
  0
LINE
  8
4
 62
54
  6
CONTINUOUS
 10
176.135517
 20
109.775238
 11
176.135517
 21
105.975238
  0
LINE
  8
4
 62
54
  6
CONTINUOUS
 10
176.935517
 20
109.775238
 11
176.935517
 21
105.975238
  0
LINE
  8
4
 62
54
  6
CONTINUOUS
 10
177.735517
 20
109.775238
 11
177.735517
 21
102.275238
  0
LINE
  8
4
 62
54
  6
CONTINUOUS
 10
179.335517
 20
109.775238
 11
179.335517
 21
102.275238
  0
LINE
  8
4
 62
54
  6
CONTINUOUS
 10
178.535517
 20
109.775238
 11
178.535517
 21
102.275238
  0
LINE
  8
2
 62
134
  6
CONTINUOUS
 10
146.605717
 20
121.775238
 11
199.876346
 21
121.775238
  0
LINE
  8
2
 62
134
  6
CONTINUOUS
 10
100.658039
 20
134.775238
 11
100.658039
 21
139.775238
  0
LINE
  8
2
 62
134
  6
CONTINUOUS
 10
98.158039
 20
137.275238
 11
103.158039
 21
137.275238
  0
LINE
  8
2
 62
134
  6
CONTINUOUS
 10
69.658039
 20
134.775238
 11
69.658039
 21
139.775238
  0
LINE
  8
2
 62
134
  6
CONTINUOUS
 10
72.158039
 20
137.275238
 11
67.158039
 21
137.275238
  0
LINE
  8
2
 62
134
  6
CONTINUOUS
 10
100.658039
 20
108.775238
 11
100.658039
 21
103.775238
  0
LINE
  8
2
 62
134
  6
CONTINUOUS
 10
98.158039
 20
106.275238
 11
103.158039
 21
106.275238
  0
LINE
  8
2
 62
134
  6
CONTINUOUS
 10
69.658039
 20
108.775238
 11
69.658039
 21
103.775238
  0
LINE
  8
2
 62
134
  6
CONTINUOUS
 10
72.158039
 20
106.275238
 11
67.158039
 21
106.275238
  0
LINE
  8
2
 62
134
  6
CONTINUOUS
 10
60.658039
 20
121.775238
 11
109.658039
 21
121.775238
  0
LINE
  8
2
 62
134
  6
CONTINUOUS
 10
85.158039
 20
146.275238
 11
85.158039
 21
96.075238
  0
LINE
  8
1
 62
7
  6
CONTINUOUS
 10
66.483189
 20
141.275238
 11
103.832839
 21
141.275238
  0
LINE
  8
1
 62
7
  6
CONTINUOUS
 10
66.483189
 20
102.275238
 11
103.832839
 21
102.275238
  0
LINE
  8
1
 62
7
  6
CONTINUOUS
 10
104.658039
 20
140.450038
 11
104.658039
 21
103.100338
  0
LINE
  8
1
 62
7
  6
CONTINUOUS
 10
65.658039
 20
140.450038
 11
65.658039
 21
103.100338
  0
LINE
  8
1
 62
7
  6
HIDDEN
 10
84.158039
 20
98.175238
 11
84.158039
 21
89.275238
  0
LINE
  8
1
 62
7
  6
HIDDEN
 10
86.158039
 20
98.175238
 11
86.158039
 21
89.275238
  0
LINE
  8
4
 62
54
  6
CONTINUOUS
 10
180.635517
 20
137.375338
 11
180.635517
 21
141.275238
  0
LINE
  8
4
 62
54
  6
CONTINUOUS
 10
181.435517
 20
135.425338
 11
181.435517
 21
141.275238
  0
LINE
  8
4
 62
54
  6
CONTINUOUS
 10
181.735517
 20
106.175138
 11
181.735517
 21
102.275238
  0
LINE
  8
4
 62
54
  6
CONTINUOUS
 10
180.935517
 20
108.125138
 11
180.935517
 21
102.275238
  0
LINE
  8
1
 62
7
  6
CONTINUOUS
 10
195.635517
 20
140.275238
 11
195.635517
 21
100.775238
  0
LINE
  8
1
 62
7
  6
CONTINUOUS
 10
177.035517
 20
105.975238
 11
175.035517
 21
105.975238
  0
LINE
  8
1
 62
7
  6
CONTINUOUS
 10
193.435517
 20
103.525238
 11
193.435517
 21
109.025238
  0
LINE
  8
1
 62
7
  6
CONTINUOUS
 10
193.435517
 20
134.525238
 11
193.435517
 21
140.025238
  0
LINE
  8
1
 62
7
  6
CONTINUOUS
 10
193.435517
 20
140.025238
 11
194.174618
 21
140.025237
  0
LINE
  8
1
 62
7
  6
CONTINUOUS
 10
193.435517
 20
134.525238
 11
194.174618
 21
134.525238
  0
LINE
  8
1
 62
7
  6
CONTINUOUS
 10
177.035517
 20
102.275238
 11
187.035517
 21
102.275238
  0
LINE
  8
1
 62
7
  6
CONTINUOUS
 10
179.035517
 20
141.275238
 11
185.035517
 21
141.275238
  0
LINE
  8
1
 62
7
  6
CONTINUOUS
 10
187.035517
 20
105.975238
 11
185.035517
 21
105.975238
  0
LINE
  8
1
 62
7
  6
CONTINUOUS
 10
187.035517
 20
137.575238
 11
185.035517
 21
137.575238
  0
LINE
  8
1
 62
7
  6
CONTINUOUS
 10
187.035517
 20
137.575238
 11
187.035517
 21
105.975238
  0
LINE
  8
1
 62
7
  6
CONTINUOUS
 10
168.635517
 20
132.275238
 11
168.635517
 21
110.275238
  0
LINE
  8
1
 62
7
  6
CONTINUOUS
 10
177.035517
 20
102.275238
 11
168.635517
 21
102.275238
  0
LINE
  8
1
 62
7
  6
CONTINUOUS
 10
168.635517
 20
102.275238
 11
168.635517
 21
110.275238
  0
LINE
  8
1
 62
7
  6
CONTINUOUS
 10
168.635517
 20
141.275238
 11
168.635517
 21
132.275238
  0
LINE
  8
1
 62
7
  6
CONTINUOUS
 10
179.035517
 20
141.275238
 11
168.635517
 21
141.275238
  0
LINE
  8
1
 62
7
  6
CONTINUOUS
 10
166.635517
 20
132.775238
 11
166.635517
 21
110.775238
  0
LINE
  8
1
 62
7
  6
CONTINUOUS
 10
166.635517
 20
132.775238
 11
168.635517
 21
132.775238
  0
LINE
  8
1
 62
7
  6
CONTINUOUS
 10
166.635517
 20
110.775238
 11
168.635517
 21
110.775238
  0
LINE
  8
1
 62
7
  6
CONTINUOUS
 10
179.035517
 20
137.575238
 11
175.035517
 21
137.575238
  0
LINE
  8
1
 62
7
  6
CONTINUOUS
 10
194.635517
 20
141.275238
 11
185.035517
 21
141.275238
  0
LINE
  8
1
 62
7
  6
CONTINUOUS
 10
193.435517
 20
140.275238
 11
193.435517
 21
134.652541
  0
LINE
  8
1
 62
7
  6
CONTINUOUS
 10
193.935517
 20
133.786538
 11
195.135512
 21
133.093666
  0
LINE
  8
1
 62
7
  6
CONTINUOUS
 10
193.435517
 20
103.275238
 11
193.435507
 21
108.897941
  0
LINE
  8
1
 62
7
  6
CONTINUOUS
 10
193.935517
 20
109.763938
 11
195.135503
 21
110.456826
  0
LINE
  8
1
 62
7
  6
CONTINUOUS
 10
193.435517
 20
134.525238
 11
193.435517
 21
140.025238
  0
LINE
  8
1
 62
7
  6
CONTINUOUS
 10
193.435517
 20
103.525238
 11
193.435517
 21
109.025238
  0
LINE
  8
1
 62
7
  6
CONTINUOUS
 10
175.035517
 20
105.975238
 11
175.035517
 21
137.575238
  0
LINE
  8
1
 62
7
  6
CONTINUOUS
 10
166.635517
 20
124.275238
 11
152.848582
 21
124.275238
  0
LINE
  8
1
 62
7
  6
CONTINUOUS
 10
179.035517
 20
137.575238
 11
185.035517
 21
137.575238
  0
LINE
  8
1
 62
7
  6
CONTINUOUS
 10
177.035517
 20
105.975238
 11
185.035517
 21
105.975238
  0
LINE
  8
1
 62
7
  6
CONTINUOUS
 10
175.535517
 20
143.445941
 11
186.535517
 21
143.445941
  0
LINE
  8
1
 62
7
  6
CONTINUOUS
 10
73.574798
 20
143.445941
 11
95.578135
 21
143.445941
  0
LINE
  8
1
 62
7
  6
CONTINUOUS
 10
182.235517
 20
134.600163
 11
182.235517
 21
133.775238
  0
LINE
  8
1
 62
7
  6
CONTINUOUS
 10
183.835517
 20
137.575238
 11
183.835517
 21
130.655495
  0
LINE
  8
1
 62
7
  6
CONTINUOUS
 10
185.435517
 20
137.575238
 11
185.435517
 21
127.295573
  0
LINE
  8
1
 62
7
  6
CONTINUOUS
 10
176.935517
 20
105.975238
 11
176.935517
 21
117.837835
  0
LINE
  8
1
 62
7
  6
CONTINUOUS
 10
178.535517
 20
105.975238
 11
178.535517
 21
113.950269
  0
LINE
  8
1
 62
7
  6
CONTINUOUS
 10
177.735517
 20
105.975238
 11
177.735517
 21
109.775238
  0
LINE
  8
4
 62
54
  6
CONTINUOUS
 10
182.235517
 20
134.600163
 11
182.235517
 21
141.275238
  0
LINE
  8
1
 62
7
  6
CONTINUOUS
 10
176.135517
 20
119.781617
 11
176.135517
 21
108.029457
  0
LINE
  8
1
 62
7
  6
CONTINUOUS
 10
177.735517
 20
115.894052
 11
177.735517
 21
105.975238
  0
LINE
  8
1
 62
7
  6
CONTINUOUS
 10
179.335517
 20
112.006486
 11
179.335517
 21
105.975238
  0
LINE
  8
1
 62
7
  6
CONTINUOUS
 10
183.035517
 20
132.335455
 11
183.035517
 21
137.575238
  0
LINE
  8
1
 62
7
  6
CONTINUOUS
 10
184.635517
 20
128.975534
 11
184.635517
 21
137.575238
  0
LINE
  8
1
 62
7
  6
CONTINUOUS
 10
186.235517
 20
125.615612
 11
186.235517
 21
137.575238
  0
LINE
  8
1
 62
7
  6
CONTINUOUS
 10
152.135517
 20
124.062681
 11
152.135517
 21
119.487794
  0
LINE
  8
1
 62
7
  6
CONTINUOUS
 10
152.135517
 20
119.487794
 11
152.848582
 21
119.275238
  0
LINE
  8
1
 62
7
  6
CONTINUOUS
 10
193.435517
 20
109.025238
 11
194.174618
 21
109.025237
  0
LINE
  8
1
 62
7
  6
CONTINUOUS
 10
193.435517
 20
103.525238
 11
194.174618
 21
103.525238
  0
LINE
  8
1
 62
7
  6
CONTINUOUS
 10
152.848582
 20
119.275238
 11
152.848582
 21
124.275238
  0
LINE
  8
1
 62
7
  6
CONTINUOUS
 10
175.035517
 20
105.975238
 11
175.035517
 21
102.275238
  0
LINE
  8
1
 62
7
  6
CONTINUOUS
 10
175.035517
 20
137.575238
 11
175.035517
 21
141.275238
  0
LINE
  8
1
 62
7
  6
CONTINUOUS
 10
187.035517
 20
137.575238
 11
187.035517
 21
141.275238
  0
LINE
  8
1
 62
7
  6
CONTINUOUS
 10
185.435517
 20
136.965017
 11
185.435517
 21
141.275238
  0
LINE
  8
1
 62
7
  6
CONTINUOUS
 10
186.235517
 20
137.575238
 11
186.235517
 21
141.275238
  0
LINE
  8
1
 62
7
  6
CONTINUOUS
 10
176.135517
 20
105.975238
 11
176.135517
 21
102.275238
  0
LINE
  8
1
 62
7
  6
CONTINUOUS
 10
176.935517
 20
105.975238
 11
176.935517
 21
102.275238
  0
LINE
  8
1
 62
7
  6
CONTINUOUS
 10
187.035517
 20
105.975238
 11
187.035517
 21
102.275238
  0
LINE
  8
1
 62
7
  6
CONTINUOUS
 10
187.035517
 20
102.275238
 11
187.035517
 21
99.275238
  0
LINE
  8
1
 62
7
  6
CONTINUOUS
 10
187.035517
 20
99.275238
 11
191.235517
 21
99.275238
  0
LINE
  8
1
 62
7
  6
CONTINUOUS
 10
191.235517
 20
99.275238
 11
191.235517
 21
99.775238
  0
LINE
  8
1
 62
7
  6
CONTINUOUS
 10
187.035517
 20
99.775238
 11
194.635517
 21
99.775238
  0
LINE
  8
1
 62
7
  6
CONTINUOUS
 10
187.035517
 20
102.275238
 11
192.435518
 21
102.275238
  0
LINE
  8
1
 62
7
  6
CONTINUOUS
 10
94.258039
 20
99.275238
 11
95.658039
 21
99.275238
  0
LINE
  8
1
 62
7
  6
HIDDEN
 10
90.158039
 20
98.175238
 11
90.158039
 21
89.275238
  0
LINE
  8
1
 62
7
  6
HIDDEN
 10
89.158039
 20
98.175238
 11
89.158039
 21
89.275238
  0
LINE
  8
1
 62
7
  6
HIDDEN
 10
80.158039
 20
98.175238
 11
80.158039
 21
89.275238
  0
LINE
  8
1
 62
7
  6
HIDDEN
 10
81.158039
 20
98.175238
 11
81.158039
 21
89.275238
  0
LINE
  8
1
 62
7
  6
HIDDEN
 10
94.158039
 20
99.275238
 11
94.158039
 21
98.175238
  0
LINE
  8
1
 62
7
  6
HIDDEN
 10
94.158039
 20
98.175238
 11
76.158039
 21
98.175238
  0
LINE
  8
1
 62
7
  6
HIDDEN
 10
76.158039
 20
98.175238
 11
76.158039
 21
99.275238
  0
LINE
  8
1
 62
7
  6
CONTINUOUS
 10
152.848582
 20
124.275238
 11
152.135517
 21
124.062681
  0
ARC
  8
1
 62
7
  6
CONTINUOUS
 10
85.158039
 20
121.775238
 40
27.000035
 50
-136.238180
 51
-133.761744
  0
ARC
  8
1
 62
7
  6
CONTINUOUS
 10
85.158039
 20
121.775238
 40
26.999966
 50
-46.238333
 51
-43.761820
  0
ARC
  8
1
 62
7
  6
CONTINUOUS
 10
85.158039
 20
121.775238
 40
26.999966
 50
43.761667
 51
46.238333
  0
ARC
  8
1
 62
7
  6
CONTINUOUS
 10
85.158039
 20
121.775238
 40
27.000000
 50
133.761744
 51
136.238333
  0
ARC
  8
1
 62
7
  6
CONTINUOUS
 10
188.435517
 20
137.275238
 40
6.999981
 50
-16.957866
 51
16.957749
  0
ARC
  8
1
 62
7
  6
CONTINUOUS
 10
194.174617
 20
139.025238
 40
0.999999
 50
16.957327
 51
89.999943
  0
ARC
  8
1
 62
7
  6
CONTINUOUS
 10
194.174617
 20
135.525238
 40
1.000000
 50
-89.999943
 51
-16.958144
  0
ARC
  8
1
 62
7
  6
CONTINUOUS
 10
194.635517
 20
140.275238
 40
1.000000
 50
0.000000
 51
90.000000
  0
ARC
  8
1
 62
7
  6
CONTINUOUS
 10
192.435517
 20
140.275238
 40
1.000000
 50
0.000000
 51
89.999943
  0
ARC
  8
1
 62
7
  6
CONTINUOUS
 10
194.435517
 20
134.652538
 40
1.000000
 50
179.999828
 51
-120.000728
  0
ARC
  8
1
 62
7
  6
CONTINUOUS
 10
194.635517
 20
132.227638
 40
1.000000
 50
0.000000
 51
60.000322
  0
ARC
  8
1
 62
7
  6
CONTINUOUS
 10
194.635517
 20
100.775238
 40
1.000000
 50
-90.000000
 51
0.000000
  0
ARC
  8
1
 62
7
  6
CONTINUOUS
 10
192.435517
 20
103.275238
 40
1.000000
 50
-89.999943
 51
0.000000
  0
ARC
  8
1
 62
7
  6
CONTINUOUS
 10
194.435517
 20
108.897938
 40
0.999978
 50
120.000728
 51
179.999828
  0
ARC
  8
1
 62
7
  6
CONTINUOUS
 10
194.635517
 20
111.322838
 40
0.999981
 50
-60.000311
 51
0.000000
  0
ARC
  8
1
 62
7
  6
CONTINUOUS
 10
194.174617
 20
104.525238
 40
1.000000
 50
-89.999943
 51
-16.958144
  0
ARC
  8
1
 62
7
  6
CONTINUOUS
 10
188.435517
 20
106.275238
 40
6.999981
 50
-16.957866
 51
16.957749
  0
ARC
  8
1
 62
7
  6
CONTINUOUS
 10
194.174617
 20
104.525238
 40
1.000000
 50
-89.999943
 51
-16.958144
  0
ARC
  8
1
 62
7
  6
CONTINUOUS
 10
194.174617
 20
108.025238
 40
0.999999
 50
16.957327
 51
89.999943
  0
ARC
  8
1
 62
7
  6
CONTINUOUS
 10
194.174617
 20
104.525238
 40
1.000000
 50
-89.999943
 51
-16.958144
  0
CIRCLE
  8
1
 62
7
  6
CONTINUOUS
 10
85.158039
 20
121.775238
 40
10.000000
  0
CIRCLE
  8
1
 62
7
  6
CONTINUOUS
 10
85.158039
 20
121.775238
 40
14.000000
  0
CIRCLE
  8
1
 62
7
  6
CONTINUOUS
 10
85.158039
 20
121.775238
 40
4.500000
  0
CIRCLE
  8
4
 62
54
  6
CONTINUOUS
 10
100.658039
 20
137.275238
 40
1.000000
  0
CIRCLE
  8
4
 62
54
  6
CONTINUOUS
 10
69.658039
 20
137.275238
 40
1.000000
  0
CIRCLE
  8
4
 62
54
  6
CONTINUOUS
 10
100.658039
 20
106.275238
 40
1.000000
  0
CIRCLE
  8
4
 62
54
  6
CONTINUOUS
 10
69.658039
 20
106.275238
 40
1.000000
  0
CIRCLE
  8
1
 62
7
  6
CONTINUOUS
 10
100.658039
 20
137.275238
 40
1.500000
  0
CIRCLE
  8
1
 62
7
  6
CONTINUOUS
 10
69.658039
 20
137.275238
 40
1.500000
  0
CIRCLE
  8
1
 62
7
  6
CONTINUOUS
 10
100.658039
 20
106.275238
 40
1.500000
  0
CIRCLE
  8
1
 62
7
  6
CONTINUOUS
 10
69.658039
 20
106.275238
 40
1.500000
  0
CIRCLE
  8
1
 62
7
  6
CONTINUOUS
 10
85.158039
 20
121.775238
 40
2.500000
  0
ARC
  8
1
 62
7
  6
CONTINUOUS
 10
94.858039
 20
102.275238
 40
1.000000
 50
-36.869898
 51
0.000000
  0
ARC
  8
1
 62
7
  6
CONTINUOUS
 10
96.274272
 20
100.775238
 40
1.000000
 50
-90.000000
 51
-26.933677
  0
ARC
  8
1
 62
7
  6
CONTINUOUS
 10
98.771637
 20
101.275238
 40
1.000000
 50
90.000000
 51
153.066323
  0
ARC
  8
1
 62
7
  6
CONTINUOUS
 10
75.458039
 20
102.275238
 40
1.000000
 50
180.000000
 51
-143.130102
  0
ARC
  8
1
 62
7
  6
CONTINUOUS
 10
74.041807
 20
100.775238
 40
1.000000
 50
-153.066323
 51
-90.000000
  0
ARC
  8
1
 62
7
  6
CONTINUOUS
 10
71.544442
 20
101.275238
 40
1.000000
 50
26.933677
 51
90.000000
  0
LINE
  8
1
 62
7
  6
CONTINUOUS
 10
225.773125
 20
161.275238
 11
199.210166
 21
161.275238
  0
LINE
  8
1
 62
7
  6
CONTINUOUS
 10
199.210166
 20
161.275238
 11
186.535517
 21
143.445941
  0
LINE
  8
1
 62
7
  6
CONTINUOUS
 10
188.046241
 20
146.298168
 11
188.732975
 21
145.809976
  0
LINE
  8
1
 62
7
  6
CONTINUOUS
 10
188.732975
 20
145.809976
 11
186.535517
 21
143.445941
  0
LINE
  8
1
 62
7
  6
CONTINUOUS
 10
186.535517
 20
143.445941
 11
188.046241
 21
146.298168
  0
TEXT
  8
1
 62
7
  6
CONTINUOUS
 10
42.460444
 20
14.553899
 40
3.000000
 41
0.540000
  1
ATTACHMENT:CONNECTOR LEAD
  7
KANJI
 50
0.000000
 51
0.000000
  0
TEXT
  8
1
 62
7
  6
CONTINUOUS
 10
42.460444
 20
20.598361
 40
4.000000
 41
0.900000
  1
付属品：コネクターリード
  7
KANJI
 50
0.000000
 51
0.000000
  0
TEXT
  8
1
 62
7
  6
CONTINUOUS
 10
126.432012
 20
83.530984
 40
4.000000
 41
0.540000
  1
有効深サ(ＤＥＰＴＨ）　３．０ＭＩＮ
  7
KANJI
 50
0.000975
 51
0.000000
  0
TEXT
  8
1
 62
7
  6
CONTINUOUS
 10
199.363917
 20
162.407372
 40
5.000000
 41
0.720000
  1
ネ－ムプレ－ト
  7
KANJI
 50
0.000000
 51
0.000000
  0
TEXT
  8
1
 62
7
  6
CONTINUOUS
 10
199.966168
 20
156.346750
 40
3.200000
 41
0.720000
  1
ＮＡＭＥ　ＰＬＡＴＥ
  7
KANJI
 50
0.000000
 51
0.000000
  0
LINE
  8
128
 62
7
  6
CONTINUOUS
 10
55.658040
 20
106.275238
 11
55.658040
 21
137.275238
  0
LINE
  8
128
 62
7
  6
CONTINUOUS
 10
66.158040
 20
106.275238
 11
54.658040
 21
106.275238
  0
LINE
  8
128
 62
7
  6
CONTINUOUS
 10
66.158040
 20
137.275238
 11
54.658040
 21
137.275238
  0
LINE
  8
128
 62
7
  6
CONTINUOUS
 10
55.658040
 20
137.275238
 11
56.074040
 21
134.075238
  0
LINE
  8
128
 62
7
  6
CONTINUOUS
 10
56.074040
 20
134.075238
 11
55.242040
 21
134.075238
  0
LINE
  8
128
 62
7
  6
CONTINUOUS
 10
55.242040
 20
134.075238
 11
55.658040
 21
137.275238
  0
LINE
  8
128
 62
7
  6
CONTINUOUS
 10
55.658040
 20
106.275238
 11
55.242040
 21
109.475238
  0
LINE
  8
128
 62
7
  6
CONTINUOUS
 10
55.242040
 20
109.475238
 11
56.074040
 21
109.475238
  0
LINE
  8
128
 62
7
  6
CONTINUOUS
 10
56.074040
 20
109.475238
 11
55.658040
 21
106.275238
  0
TEXT
  8
128
 62
7
  6
CONTINUOUS
 10
54.058040
 20
115.667238
 40
3.200000
 41
0.900000
  1
31
  7
KANJI
 50
90.000000
 51
0.000000
  0
TEXT
  8
128
 62
7
  6
CONTINUOUS
 10
53.578040
 20
121.107238
 40
2.240000
 41
0.900000
  1
±0.2
  7
KANJI
 50
90.000000
 51
0.000000
  0
LINE
  8
128
 62
7
  6
CONTINUOUS
 10
65.658040
 20
161.275238
 11
104.658040
 21
161.275238
  0
LINE
  8
128
 62
7
  6
CONTINUOUS
 10
65.658040
 20
141.450038
 11
65.658040
 21
162.275238
  0
LINE
  8
128
 62
7
  6
CONTINUOUS
 10
104.658040
 20
141.450038
 11
104.658040
 21
162.275238
  0
LINE
  8
128
 62
7
  6
CONTINUOUS
 10
65.658040
 20
161.275238
 11
68.858040
 21
161.691238
  0
LINE
  8
128
 62
7
  6
CONTINUOUS
 10
68.858040
 20
161.691238
 11
68.858040
 21
160.859238
  0
LINE
  8
128
 62
7
  6
CONTINUOUS
 10
68.858040
 20
160.859238
 11
65.658040
 21
161.275238
  0
LINE
  8
128
 62
7
  6
CONTINUOUS
 10
104.658040
 20
161.275238
 11
101.458040
 21
160.859238
  0
LINE
  8
128
 62
7
  6
CONTINUOUS
 10
101.458040
 20
160.859238
 11
101.458040
 21
161.691238
  0
LINE
  8
128
 62
7
  6
CONTINUOUS
 10
101.458040
 20
161.691238
 11
104.658040
 21
161.275238
  0
TEXT
  8
128
 62
7
  6
CONTINUOUS
 10
82.758040
 20
162.875238
 40
3.200000
 41
0.900000
  1
39
  7
KANJI
 50
0.000000
 51
0.000000
  0
TEXT
  8
128
 62
7
  6
CONTINUOUS
 10
80.678040
 20
162.875238
 40
3.200000
 41
0.900000
  1
(
  7
KANJI
 50
0.000000
 51
0.000000
  0
TEXT
  8
128
 62
7
  6
CONTINUOUS
 10
89.158040
 20
162.875238
 40
3.200000
 41
0.900000
  1
)
  7
KANJI
 50
0.000000
 51
0.000000
  0
LINE
  8
128
 62
7
  6
CONTINUOUS
 10
45.658040
 20
102.275238
 11
45.658040
 21
141.275238
  0
LINE
  8
128
 62
7
  6
CONTINUOUS
 10
65.483190
 20
102.275238
 11
44.658040
 21
102.275238
  0
LINE
  8
128
 62
7
  6
CONTINUOUS
 10
65.483190
 20
141.275238
 11
44.658040
 21
141.275238
  0
LINE
  8
128
 62
7
  6
CONTINUOUS
 10
45.658040
 20
141.275238
 11
46.074040
 21
138.075238
  0
LINE
  8
128
 62
7
  6
CONTINUOUS
 10
46.074040
 20
138.075238
 11
45.242040
 21
138.075238
  0
LINE
  8
128
 62
7
  6
CONTINUOUS
 10
45.242040
 20
138.075238
 11
45.658040
 21
141.275238
  0
LINE
  8
128
 62
7
  6
CONTINUOUS
 10
45.658040
 20
102.275238
 11
45.242040
 21
105.475238
  0
LINE
  8
128
 62
7
  6
CONTINUOUS
 10
45.242040
 20
105.475238
 11
46.074040
 21
105.475238
  0
LINE
  8
128
 62
7
  6
CONTINUOUS
 10
46.074040
 20
105.475238
 11
45.658040
 21
102.275238
  0
TEXT
  8
128
 62
7
  6
CONTINUOUS
 10
44.058040
 20
119.375238
 40
3.200000
 41
0.900000
  1
39
  7
KANJI
 50
90.000000
 51
0.000000
  0
TEXT
  8
128
 62
7
  6
CONTINUOUS
 10
44.058040
 20
117.295238
 40
3.200000
 41
0.900000
  1
(
  7
KANJI
 50
90.000000
 51
0.000000
  0
TEXT
  8
128
 62
7
  6
CONTINUOUS
 10
44.058040
 20
125.775238
 40
3.200000
 41
0.900000
  1
)
  7
KANJI
 50
90.000000
 51
0.000000
  0
LINE
  8
128
 62
7
  6
CONTINUOUS
 10
69.658040
 20
151.275238
 11
100.658040
 21
151.275238
  0
LINE
  8
128
 62
7
  6
CONTINUOUS
 10
69.658040
 20
140.775238
 11
69.658040
 21
152.275238
  0
LINE
  8
128
 62
7
  6
CONTINUOUS
 10
100.658040
 20
140.775238
 11
100.658040
 21
152.275238
  0
LINE
  8
128
 62
7
  6
CONTINUOUS
 10
69.658040
 20
151.275238
 11
72.858040
 21
151.691238
  0
LINE
  8
128
 62
7
  6
CONTINUOUS
 10
72.858040
 20
151.691238
 11
72.858040
 21
150.859238
  0
LINE
  8
128
 62
7
  6
CONTINUOUS
 10
72.858040
 20
150.859238
 11
69.658040
 21
151.275238
  0
LINE
  8
128
 62
7
  6
CONTINUOUS
 10
100.658040
 20
151.275238
 11
97.458040
 21
150.859238
  0
LINE
  8
128
 62
7
  6
CONTINUOUS
 10
97.458040
 20
150.859238
 11
97.458040
 21
151.691238
  0
LINE
  8
128
 62
7
  6
CONTINUOUS
 10
97.458040
 20
151.691238
 11
100.658040
 21
151.275238
  0
TEXT
  8
128
 62
7
  6
CONTINUOUS
 10
79.050040
 20
152.875238
 40
3.200000
 41
0.900000
  1
31
  7
KANJI
 50
0.000000
 51
0.000000
  0
TEXT
  8
128
 62
7
  6
CONTINUOUS
 10
84.490040
 20
153.355238
 40
2.240000
 41
0.900000
  1
±0.2
  7
KANJI
 50
0.000000
 51
0.000000
  0
LINE
  8
128
 62
7
  6
CONTINUOUS
 10
132.135517
 20
110.775238
 11
132.135517
 21
132.775238
  0
LINE
  8
128
 62
7
  6
CONTINUOUS
 10
165.635517
 20
110.775238
 11
131.135517
 21
110.775238
  0
LINE
  8
128
 62
7
  6
CONTINUOUS
 10
165.635517
 20
132.775238
 11
131.135517
 21
132.775238
  0
LINE
  8
128
 62
7
  6
CONTINUOUS
 10
132.135517
 20
132.775238
 11
132.551517
 21
129.575238
  0
LINE
  8
128
 62
7
  6
CONTINUOUS
 10
132.551517
 20
129.575238
 11
131.719517
 21
129.575238
  0
LINE
  8
128
 62
7
  6
CONTINUOUS
 10
131.719517
 20
129.575238
 11
132.135517
 21
132.775238
  0
LINE
  8
128
 62
7
  6
CONTINUOUS
 10
132.135517
 20
110.775238
 11
131.719517
 21
113.975238
  0
LINE
  8
128
 62
7
  6
CONTINUOUS
 10
131.719517
 20
113.975238
 11
132.551517
 21
113.975238
  0
LINE
  8
128
 62
7
  6
CONTINUOUS
 10
132.551517
 20
113.975238
 11
132.135517
 21
110.775238
  0
TEXT
  8
128
 62
7
  6
CONTINUOUS
 10
129.335517
 20
116.547238
 40
3.200000
 41
0.900000
  1
22
  7
KANJI
 50
90.000000
 51
0.000000
  0
TEXT
  8
128
 62
7
  6
CONTINUOUS
 10
127.175517
 20
124.739238
 40
2.240000
 41
0.900000
  1
0
  7
KANJI
 50
90.000000
 51
0.000000
  0
TEXT
  8
128
 62
7
  6
CONTINUOUS
 10
130.535517
 20
122.947238
 40
2.240000
 41
0.900000
  1
-0.05
  7
KANJI
 50
90.000000
 51
0.000000
  0
TEXT
  8
128
 62
7
  6
CONTINUOUS
 10
129.335517
 20
112.707238
 40
3.200000
 41
0.900000
  1
φ
  7
KANJI
 50
90.000000
 51
0.000000
  0
LINE
  8
128
 62
7
  6
CONTINUOUS
 10
175.035517
 20
161.275238
 11
168.635517
 21
161.275238
  0
LINE
  8
128
 62
7
  6
CONTINUOUS
 10
166.635517
 20
161.275238
 11
168.635517
 21
161.275238
  0
LINE
  8
128
 62
7
  6
CONTINUOUS
 10
166.635517
 20
161.275238
 11
154.810550
 21
161.275238
  0
LINE
  8
128
 62
7
  6
CONTINUOUS
 10
166.635517
 20
133.775238
 11
166.635517
 21
162.275238
  0
LINE
  8
128
 62
7
  6
CONTINUOUS
 10
168.635517
 20
142.275238
 11
168.635517
 21
162.275238
  0
LINE
  8
128
 62
7
  6
CONTINUOUS
 10
166.635517
 20
161.275238
 11
163.435517
 21
160.859238
  0
LINE
  8
128
 62
7
  6
CONTINUOUS
 10
163.435517
 20
160.859238
 11
163.435517
 21
161.691238
  0
LINE
  8
128
 62
7
  6
CONTINUOUS
 10
163.435517
 20
161.691238
 11
166.635517
 21
161.275238
  0
LINE
  8
128
 62
7
  6
CONTINUOUS
 10
168.635517
 20
161.275238
 11
171.835517
 21
161.691238
  0
LINE
  8
128
 62
7
  6
CONTINUOUS
 10
171.835517
 20
161.691238
 11
171.835517
 21
160.859238
  0
LINE
  8
128
 62
7
  6
CONTINUOUS
 10
171.835517
 20
160.859238
 11
168.635517
 21
161.275238
  0
TEXT
  8
128
 62
7
  6
CONTINUOUS
 10
154.810550
 20
162.875238
 40
3.200000
 41
0.900000
  1
2
  7
KANJI
 50
0.000000
 51
0.000000
  0
TEXT
  8
128
 62
7
  6
CONTINUOUS
 10
158.330550
 20
163.355238
 40
2.240000
 41
0.900000
  1
±0.2
  7
KANJI
 50
0.000000
 51
0.000000
  0
LINE
  8
128
 62
7
  6
CONTINUOUS
 10
168.635517
 20
171.275238
 11
195.635517
 21
171.275238
  0
LINE
  8
128
 62
7
  6
CONTINUOUS
 10
168.635517
 20
142.275238
 11
168.635517
 21
172.275238
  0
LINE
  8
128
 62
7
  6
CONTINUOUS
 10
195.635517
 20
141.275238
 11
195.635517
 21
172.275238
  0
LINE
  8
128
 62
7
  6
CONTINUOUS
 10
195.635517
 20
171.275238
 11
192.435517
 21
170.859238
  0
LINE
  8
128
 62
7
  6
CONTINUOUS
 10
192.435517
 20
170.859238
 11
192.435517
 21
171.691238
  0
LINE
  8
128
 62
7
  6
CONTINUOUS
 10
192.435517
 20
171.691238
 11
195.635517
 21
171.275238
  0
LINE
  8
128
 62
7
  6
CONTINUOUS
 10
168.635517
 20
171.275238
 11
171.835517
 21
171.691238
  0
LINE
  8
128
 62
7
  6
CONTINUOUS
 10
171.835517
 20
171.691238
 11
171.835517
 21
170.859238
  0
LINE
  8
128
 62
7
  6
CONTINUOUS
 10
171.835517
 20
170.859238
 11
168.635517
 21
171.275238
  0
TEXT
  8
128
 62
7
  6
CONTINUOUS
 10
179.466878
 20
172.875238
 40
3.200000
 41
0.900000
  1
27
  7
KANJI
 50
0.000000
 51
0.000000
  0
TEXT
  8
128
 62
7
  6
CONTINUOUS
 10
177.386878
 20
172.875238
 40
3.200000
 41
0.900000
  1
(
  7
KANJI
 50
0.000000
 51
0.000000
  0
TEXT
  8
128
 62
7
  6
CONTINUOUS
 10
185.866878
 20
172.875238
 40
3.200000
 41
0.900000
  1
)
  7
KANJI
 50
0.000000
 51
0.000000
  0
LINE
  8
1
 62
7
  6
CONTINUOUS
 10
36.789591
 20
69.709863
 11
101.024664
 21
69.709863
  0
LINE
  8
1
 62
7
  6
CONTINUOUS
 10
36.789591
 20
51.609863
 11
36.789591
 21
71.209863
  0
LINE
  8
1
 62
7
  6
CONTINUOUS
 10
101.024664
 20
50.434863
 11
101.024664
 21
71.209863
  0
LINE
  8
1
 62
7
  6
CONTINUOUS
 10
36.789591
 20
69.709863
 11
39.989591
 21
70.125863
  0
LINE
  8
1
 62
7
  6
CONTINUOUS
 10
39.989591
 20
70.125863
 11
39.989591
 21
69.293863
  0
LINE
  8
1
 62
7
  6
CONTINUOUS
 10
39.989591
 20
69.293863
 11
36.789591
 21
69.709863
  0
LINE
  8
1
 62
7
  6
CONTINUOUS
 10
101.024664
 20
69.709863
 11
97.824664
 21
69.293863
  0
LINE
  8
1
 62
7
  6
CONTINUOUS
 10
97.824664
 20
69.293863
 11
97.824664
 21
70.125863
  0
LINE
  8
1
 62
7
  6
CONTINUOUS
 10
97.824664
 20
70.125863
 11
101.024664
 21
69.709863
  0
TEXT
  8
1
 62
7
  6
CONTINUOUS
 10
61.136504
 20
72.509863
 40
3.200000
 41
0.900000
  1
200
  7
KANJI
 50
0.000000
 51
0.000000
  0
TEXT
  8
1
 62
7
  6
CONTINUOUS
 10
70.416504
 20
74.589863
 40
1.920000
 41
0.900000
  1
+40
  7
KANJI
 50
0.000000
 51
0.000000
  0
TEXT
  8
1
 62
7
  6
CONTINUOUS
 10
72.144504
 20
71.709863
 40
1.920000
 41
0.900000
  1
 0
  7
KANJI
 50
0.000000
 51
0.000000
  0
LINE
  8
1
 62
7
  6
CONTINUOUS
 10
107.424664
 20
59.709863
 11
101.024664
 21
59.709863
  0
LINE
  8
1
 62
7
  6
CONTINUOUS
 10
97.524664
 20
59.709863
 11
101.024664
 21
59.709863
  0
LINE
  8
1
 62
7
  6
CONTINUOUS
 10
97.524664
 20
59.709863
 11
86.103162
 21
59.709863
  0
LINE
  8
1
 62
7
  6
CONTINUOUS
 10
97.524664
 20
50.709863
 11
97.524664
 21
61.209863
  0
LINE
  8
1
 62
7
  6
CONTINUOUS
 10
101.024664
 20
50.434863
 11
101.024664
 21
61.209863
  0
LINE
  8
1
 62
7
  6
CONTINUOUS
 10
97.524664
 20
59.709863
 11
94.324664
 21
59.293863
  0
LINE
  8
1
 62
7
  6
CONTINUOUS
 10
94.324664
 20
59.293863
 11
94.324664
 21
60.125863
  0
LINE
  8
1
 62
7
  6
CONTINUOUS
 10
94.324664
 20
60.125863
 11
97.524664
 21
59.709863
  0
LINE
  8
1
 62
7
  6
CONTINUOUS
 10
101.024664
 20
59.709863
 11
104.224664
 21
60.125863
  0
LINE
  8
1
 62
7
  6
CONTINUOUS
 10
104.224664
 20
60.125863
 11
104.224664
 21
59.293863
  0
LINE
  8
1
 62
7
  6
CONTINUOUS
 10
104.224664
 20
59.293863
 11
101.024664
 21
59.709863
  0
TEXT
  8
1
 62
7
  6
CONTINUOUS
 10
88.183162
 20
61.709863
 40
3.200000
 41
0.900000
  1
3.5
  7
KANJI
 50
0.000000
 51
0.000000
  0
TEXT
  8
1
 62
7
  6
CONTINUOUS
 10
86.103162
 20
61.709863
 40
3.200000
 41
0.900000
  1
(
  7
KANJI
 50
0.000000
 51
0.000000
  0
TEXT
  8
1
 62
7
  6
CONTINUOUS
 10
95.623162
 20
61.709863
 40
3.200000
 41
0.900000
  1
)
  7
KANJI
 50
0.000000
 51
0.000000
  0
LINE
  8
1
 62
7
  6
CONTINUOUS
 10
142.135517
 20
112.875238
 11
142.135517
 21
119.275238
  0
LINE
  8
1
 62
7
  6
CONTINUOUS
 10
142.135517
 20
119.275238
 11
142.135517
 21
124.275238
  0
LINE
  8
1
 62
7
  6
CONTINUOUS
 10
142.135517
 20
124.275238
 11
142.135517
 21
149.596606
  0
LINE
  8
1
 62
7
  6
CONTINUOUS
 10
151.848582
 20
119.275238
 11
140.635517
 21
119.275238
  0
LINE
  8
1
 62
7
  6
CONTINUOUS
 10
151.848582
 20
124.275238
 11
140.635517
 21
124.275238
  0
LINE
  8
1
 62
7
  6
CONTINUOUS
 10
142.135517
 20
124.275238
 11
141.719517
 21
127.475238
  0
LINE
  8
1
 62
7
  6
CONTINUOUS
 10
141.719517
 20
127.475238
 11
142.551517
 21
127.475238
  0
LINE
  8
1
 62
7
  6
CONTINUOUS
 10
142.551517
 20
127.475238
 11
142.135517
 21
124.275238
  0
LINE
  8
1
 62
7
  6
CONTINUOUS
 10
142.135517
 20
119.275238
 11
142.551517
 21
116.075238
  0
LINE
  8
1
 62
7
  6
CONTINUOUS
 10
142.551517
 20
116.075238
 11
141.719517
 21
116.075238
  0
LINE
  8
1
 62
7
  6
CONTINUOUS
 10
141.719517
 20
116.075238
 11
142.135517
 21
119.275238
  0
TEXT
  8
1
 62
7
  6
CONTINUOUS
 10
139.335517
 20
138.732606
 40
3.200000
 41
0.900000
  1
5
  7
KANJI
 50
90.000000
 51
0.000000
  0
TEXT
  8
1
 62
7
  6
CONTINUOUS
 10
137.255517
 20
142.252606
 40
1.920000
 41
0.900000
  1
 0
  7
KANJI
 50
90.000000
 51
0.000000
  0
TEXT
  8
1
 62
7
  6
CONTINUOUS
 10
140.135517
 20
142.252606
 40
1.920000
 41
0.900000
  1
-0.011
  7
KANJI
 50
90.000000
 51
0.000000
  0
TEXT
  8
1
 62
7
  6
CONTINUOUS
 10
139.335517
 20
135.088161
 40
3.200000
 41
0.900000
  1
φ
  7
KANJI
 50
90.000000
 51
0.000000
  0
LINE
  8
1
 62
7
  6
CONTINUOUS
 10
152.135517
 20
171.275238
 11
168.635517
 21
171.275238
  0
LINE
  8
1
 62
7
  6
CONTINUOUS
 10
152.135517
 20
125.062681
 11
152.135517
 21
172.775238
  0
LINE
  8
1
 62
7
  6
CONTINUOUS
 10
168.635517
 20
142.275238
 11
168.635517
 21
172.775238
  0
LINE
  8
1
 62
7
  6
CONTINUOUS
 10
168.635517
 20
171.275238
 11
165.435517
 21
170.859238
  0
LINE
  8
1
 62
7
  6
CONTINUOUS
 10
165.435517
 20
170.859238
 11
165.435517
 21
171.691238
  0
LINE
  8
1
 62
7
  6
CONTINUOUS
 10
165.435517
 20
171.691238
 11
168.635517
 21
171.275238
  0
LINE
  8
1
 62
7
  6
CONTINUOUS
 10
152.135517
 20
171.275238
 11
155.335517
 21
171.691238
  0
LINE
  8
1
 62
7
  6
CONTINUOUS
 10
155.335517
 20
171.691238
 11
155.335517
 21
170.859238
  0
LINE
  8
1
 62
7
  6
CONTINUOUS
 10
155.335517
 20
170.859238
 11
152.135517
 21
171.275238
  0
TEXT
  8
1
 62
7
  6
CONTINUOUS
 10
153.002986
 20
173.275238
 40
3.200000
 41
0.900000
  1
16.5
  7
KANJI
 50
0.000000
 51
0.000000
  0
TEXT
  8
1
 62
7
  6
CONTINUOUS
 10
162.362986
 20
173.915238
 40
1.920000
 41
0.900000
  1
±0.5
  7
KANJI
 50
0.000000
 51
0.000000
  0
LINE
  8
1
 62
7
  6
CONTINUOUS
 10
45.658040
 20
98.175238
 11
45.658040
 21
84.587217
  0
LINE
  8
1
 62
7
  6
CONTINUOUS
 10
45.658040
 20
98.175238
 11
45.658040
 21
102.275238
  0
LINE
  8
1
 62
7
  6
CONTINUOUS
 10
45.658040
 20
108.675238
 11
45.658040
 21
102.275238
  0
LINE
  8
1
 62
7
  6
CONTINUOUS
 10
65.483190
 20
102.275238
 11
44.158040
 21
102.275238
  0
LINE
  8
1
 62
7
  6
CONTINUOUS
 10
75.158040
 20
98.175238
 11
44.158040
 21
98.175238
  0
LINE
  8
1
 62
7
  6
CONTINUOUS
 10
45.658040
 20
102.275238
 11
45.242040
 21
105.475238
  0
LINE
  8
1
 62
7
  6
CONTINUOUS
 10
45.242040
 20
105.475238
 11
46.074040
 21
105.475238
  0
LINE
  8
1
 62
7
  6
CONTINUOUS
 10
46.074040
 20
105.475238
 11
45.658040
 21
102.275238
  0
LINE
  8
1
 62
7
  6
CONTINUOUS
 10
45.658040
 20
98.175238
 11
46.074040
 21
94.975238
  0
LINE
  8
1
 62
7
  6
CONTINUOUS
 10
46.074040
 20
94.975238
 11
45.242040
 21
94.975238
  0
LINE
  8
1
 62
7
  6
CONTINUOUS
 10
45.242040
 20
94.975238
 11
45.658040
 21
98.175238
  0
TEXT
  8
1
 62
7
  6
CONTINUOUS
 10
43.658040
 20
89.867217
 40
3.200000
 41
0.900000
  1
4.1
  7
KANJI
 50
90.000000
 51
0.000000
  0
TEXT
  8
1
 62
7
  6
CONTINUOUS
 10
43.658040
 20
84.587217
 40
3.200000
 41
0.900000
  1
※(
  7
KANJI
 50
90.000000
 51
0.000000
  0
TEXT
  8
1
 62
7
  6
CONTINUOUS
 10
43.658040
 20
96.347217
 40
3.200000
 41
0.900000
  1
)
  7
KANJI
 50
90.000000
 51
0.000000
  0
LINE
  8
1
 62
7
  6
CONTINUOUS
 10
114.658040
 20
102.275238
 11
114.658040
 21
112.149440
  0
LINE
  8
1
 62
7
  6
CONTINUOUS
 10
114.658040
 20
99.275238
 11
114.658040
 21
102.275238
  0
LINE
  8
1
 62
7
  6
CONTINUOUS
 10
114.658040
 20
92.875238
 11
114.658040
 21
99.275238
  0
LINE
  8
1
 62
7
  6
CONTINUOUS
 10
104.832840
 20
102.275238
 11
116.158040
 21
102.275238
  0
LINE
  8
1
 62
7
  6
CONTINUOUS
 10
96.658040
 20
99.275238
 11
116.158040
 21
99.275238
  0
LINE
  8
1
 62
7
  6
CONTINUOUS
 10
114.658040
 20
102.275238
 11
114.242040
 21
105.475238
  0
LINE
  8
1
 62
7
  6
CONTINUOUS
 10
114.242040
 20
105.475238
 11
115.074040
 21
105.475238
  0
LINE
  8
1
 62
7
  6
CONTINUOUS
 10
115.074040
 20
105.475238
 11
114.658040
 21
102.275238
  0
LINE
  8
1
 62
7
  6
CONTINUOUS
 10
114.658040
 20
99.275238
 11
115.074040
 21
96.075238
  0
LINE
  8
1
 62
7
  6
CONTINUOUS
 10
115.074040
 20
96.075238
 11
114.242040
 21
96.075238
  0
LINE
  8
1
 62
7
  6
CONTINUOUS
 10
114.242040
 20
96.075238
 11
114.658040
 21
99.275238
  0
TEXT
  8
1
 62
7
  6
CONTINUOUS
 10
112.397320
 20
108.149440
 40
3.200000
 41
0.900000
  1
3
  7
KANJI
 50
90.000000
 51
0.000000
  0
TEXT
  8
1
 62
7
  6
CONTINUOUS
 10
112.397320
 20
106.069440
 40
3.200000
 41
0.900000
  1
(
  7
KANJI
 50
90.000000
 51
0.000000
  0
TEXT
  8
1
 62
7
  6
CONTINUOUS
 10
112.397320
 20
111.669440
 40
3.200000
 41
0.900000
  1
)
  7
KANJI
 50
90.000000
 51
0.000000
  0
LINE
  8
1
 62
7
  6
CONTINUOUS
 10
181.793092
 20
170.047148
 11
181.793092
 21
144.047148
  0
LINE
  8
1
 62
7
  6
CONTINUOUS
 10
175.793092
 20
144.047148
 11
175.793092
 21
170.047148
  0
LINE
  8
1
 62
7
  6
CONTINUOUS
 10
175.793092
 20
170.047148
 11
181.793092
 21
170.047148
  0
LINE
  8
1
 62
7
  6
CONTINUOUS
 10
178.793092
 20
145.547148
 11
178.793092
 21
148.047148
  0
LINE
  8
1
 62
7
  6
CONTINUOUS
 10
181.293092
 20
147.047148
 11
176.293092
 21
147.047148
  0
LINE
  8
1
 62
7
  6
CONTINUOUS
 10
176.293092
 20
147.047148
 11
178.793092
 21
145.547148
  0
LINE
  8
1
 62
7
  6
CONTINUOUS
 10
175.793092
 20
150.047148
 11
181.793092
 21
150.047148
  0
LINE
  8
1
 62
7
  6
CONTINUOUS
 10
181.793092
 20
144.047148
 11
175.793092
 21
144.047148
  0
TEXT
  8
1
 62
7
  6
CONTINUOUS
 10
187.219911
 20
146.267437
 40
5.000000
 41
0.900000
  1
(   )
  7
KANJI
 50
90.000000
 51
0.000000
  0
TEXT
  8
1
 62
7
  6
CONTINUOUS
 10
184.300264
 20
149.784518
 40
2.000000
 41
0.900000
  1
DIRECTION
  7
KANJI
 50
90.000000
 51
0.000000
  0
TEXT
  8
1
 62
7
  6
CONTINUOUS
 10
187.300264
 20
149.784518
 40
2.000000
 41
0.900000
  1
OF LETTER
  7
KANJI
 50
90.000000
 51
0.000000
  0
TEXT
  8
1
 62
7
  6
CONTINUOUS
 10
180.793092
 20
151.093894
 40
4.000000
 41
0.900000
  1
文字ノ向キ
  7
KANJI
 50
90.000000
 51
0.000000
  0
LINE
  8
1
 62
7
  6
CONTINUOUS
 10
101.883578
 20
105.410335
 11
124.584408
 21
89.389607
  0
LINE
  8
1
 62
7
  6
CONTINUOUS
 10
124.584408
 20
89.389607
 11
150.984408
 21
89.389607
  0
LINE
  8
1
 62
7
  6
CONTINUOUS
 10
101.883578
 20
105.410335
 11
104.737925
 21
103.905092
  0
LINE
  8
1
 62
7
  6
CONTINUOUS
 10
104.737925
 20
103.905092
 11
104.258192
 21
103.225327
  0
LINE
  8
1
 62
7
  6
CONTINUOUS
 10
104.258192
 20
103.225327
 11
101.883578
 21
105.410335
  0
TEXT
  8
1
 62
7
  6
CONTINUOUS
 10
139.064408
 20
91.389607
 40
3.200000
 41
0.900000
  1
3×0.5
  7
KANJI
 50
0.000000
 51
0.000000
  0
TEXT
  8
1
 62
7
  6
CONTINUOUS
 10
129.784408
 20
91.389607
 40
3.200000
 41
0.900000
  1
4-M
  7
KANJI
 50
0.000000
 51
0.000000
  0
ENDSEC
  0
EOF
