  0
SECTION
  2
HEADER
  9
$ACADVER
  1
AC1003
  9
$INSBASE
 10
0.000000
 20
0.000000
  9
$EXTMIN
 10
0.000000
 20
0.000000
  9
$EXTMAX
 10
420.000000
 20
297.000000
  9
$LIMMIN
 10
0.000000
 20
0.000000
  9
$LIMMAX
 10
420.000000
 20
297.000000
  9
$VIEWCTR
 10
210.000000
 20
148.500000
  9
$VIEWSIZE
 40
297.000000
  9
$PEXTMIN
 10
0.000000
 20
0.000000
 30
0.000000
  9
$PEXTMAX
 10
420.000000
 20
297.000000
 30
0.000000
  9
$SNAPMODE
 70
     0
  9
$SNAPUNIT
 10
1.000000
 20
1.000000
  9
$SNAPBASE
 10
0.000000
 20
0.000000
  9
$SNAPANG
 50
0.000000
  9
$SNAPISOPAIR
 70
     0
  9
$SNAPSTYLE
 70
     0
  9
$GRIDMODE
 70
     0
  9
$GRIDUNIT
 10
0.000000
 20
0.000000
  9
$ORTHOMODE
 70
     0
  9
$REGENMODE
 70
     1
  9
$FILLMODE
 70
     1
  9
$QTEXTMODE
 70
     0
  9
$DRAGMODE
 70
     2
  9
$LTSCALE
 40
0.250000
  9
$OSMODE
 70
     0
  9
$ATTMODE
 70
     1
  9
$TEXTSIZE
 40
0.200000
  9
$TRACEWID
 40
0.050000
  9
$TEXTSTYLE
  7
STANDARD
  9
$CLAYER
  8
0
  9
$CELTYPE
  6
BYLAYER
  9
$CECOLOR
 62
   256
  9
$DIMSCALE
 40
1.000000
  9
$DIMASZ
 40
1.000000
  9
$DIMEXO
 40
0.000000
  9
$DIMDLI
 40
0.500000
  9
$DIMRND
 40
0.000000
  9
$DIMDLE
 40
0.000000
  9
$DIMEXE
 40
0.000000
  9
$DIMTP
 40
0.000000
  9
$DIMTM
 40
0.000000
  9
$DIMTXT
 40
0.180000
  9
$DIMCEN
 40
0.000000
  9
$DIMTSZ
 40
0.000000
  9
$DIMTOL
 70
     0
  9
$DIMLIM
 70
     0
  9
$DIMTIH
 70
     1
  9
$DIMTOH
 70
     1
  9
$DIMSE1
 70
     0
  9
$DIMSE2
 70
     0
  9
$DIMTAD
 70
     0
  9
$DIMZIN
 70
     0
  9
$DIMBLK
  1

  9
$DIMASO
 70
     0
  9
$DIMSHO
 70
     0
  9
$DIMPOST
  1

  9
$DIMAPOST
  1

  9
$DIMALT
 70
     0
  9
$DIMALTD
 70
     0
  9
$DIMALTF
 40
25.400000
  9
$DIMLFAC
 40
1.000000
  9
$DIMTOFL
 70
     0
  9
$DIMTVP
 40
0.000000
  9
$DIMTIX
 70
     0
  9
$DIMSOXD
 70
     0
  9
$DIMSAH
 70
     0
  9
$DIMBLKL
  1

  9
$DIMBLKR
  1

  9
$LUNITS
 70
     2
  9
$LUPREC
 70
     2
  9
$AXISMODE
 70
     0
  9
$AXISUNIT
 10
1.000000
 20
1.000000
  9
$SKETCHINC
 40
0.000000
  9
$FILLETRAD
 40
0.000000
  9
$AUNITS
 70
     1
  9
$AUPREC
 70
     2
  9
$MENU
  1
ACAD
  9
$ELEVATION
 40
0.000000
  9
$THICKNESS
 40
0.000000
  9
$VIEWDIR
 10
0.000000
 20
0.000000
 30
1.000000
  9
$LIMCHECK
 70
     1
  9
$BLIPMODE
 70
     1
  9
$CHAMFERA
 40
0.000000
  9
$CHAMFERB
 40
0.000000
  9
$FASTZOOM
 70
     1
  9
$SKPOLY
 70
     0
  9
$TDCREATE
 40
0.000000
  9
$TDUPDATE
 40
0.000000
  9
$TDINDWG
 40
0.000000
  9
$TDUSRTIMER
 40
0.000000
  9
$USRTIMER
 70
     1
  9
$ANGBASE
 50
0.000000
  9
$ANGDIR
 70
     0
  9
$PDMODE
 70
     0
  9
$PDSIZE
 40
0.000000
  9
$PLINEWID
 40
0.000000
  9
$COORDS
 70
     2
  9
$USERI1
 70
     0
  9
$USERI2
 70
     0
  9
$USERI3
 70
     0
  9
$USERI4
 70
     0
  9
$USERI5
 70
     0
  9
$USERR1
 40
0.000000
  9
$USERR2
 40
0.000000
  9
$USERR3
 40
0.000000
  9
$USERR4
 40
0.000000
  9
$USERR5
 40
0.000000
  0
ENDSEC
  0
SECTION
  2
TABLES
  0
TABLE
  2
LTYPE
 70
     5
  0
LTYPE
  2
CONTINUOUS
 70
    64
  3
Solid line
 72
    65
 73
     0
 40
0.0
  0
LTYPE
  2
HIDDEN
 70
    64
  3
------------------------
 72
    65
 73
     2
 40
12.6
 49
8.4
 49
-4.2
  0
LTYPE
  2
DOT
 70
    64
  3
････････････････････････
 72
    65
 73
     2
 40
8.0
 49
6.0
 49
-2.0
  0
LTYPE
  2
DASHDOT
 70
    64
  3
--･--･--･--･--･--･--･--
 72
    65
 73
     4
 40
50.5
 49
30.0
 49
-9.0
 49
2.5
 49
-9.0
  0
LTYPE
  2
DIVIDE
 70
    64
  3
--･･--･･--･･--･･--･･--
 72
    65
 73
     6
 40
58.0
 49
30.0
 49
-9.0
 49
2.5
 49
-5.0
 49
2.5
 49
-9.0
  0
ENDTAB
  0
TABLE
  2
LAYER
 70
4
  0
LAYER
  2
1
 70
64
 62
7
  6
CONTINUOUS
  0
LAYER
  2
2
 70
64
 62
134
  6
CONTINUOUS
  0
LAYER
  2
4
 70
64
 62
54
  6
CONTINUOUS
  0
LAYER
  2
128
 70
64
 62
7
  6
CONTINUOUS
  0
ENDTAB
  0
TABLE
  2
STYLE
 70
     2
  0
STYLE
  2
STANDARD
 70
    64
 40
0.0
 41
1.0
 50
0.0
 71
     0
 42
0.2
  3
TXT
  4

  0
STYLE
  2
KANJI
 70
    64
 40
0.0
 41
1.0
 50
0.0
 71
     0
 42
0.2
  3
TXT
  4
BIGFONT
  0
ENDTAB
  0
TABLE
  2
VIEW
 70
     0
  0
ENDTAB
  0
ENDSEC
  0
SECTION
  2
BLOCKS
  0
ENDSEC
  0
SECTION
  2
ENTITIES
  0
LINE
  8
1
 62
7
  6
CONTINUOUS
 10
288.799068
 20
143.134475
 11
288.799068
 21
146.834475
  0
LINE
  8
1
 62
7
  6
CONTINUOUS
 10
287.299068
 20
146.834475
 11
287.299068
 21
143.134475
  0
LINE
  8
1
 62
7
  6
CONTINUOUS
 10
288.799068
 20
182.134475
 11
288.799068
 21
178.434475
  0
LINE
  8
1
 62
7
  6
CONTINUOUS
 10
287.299068
 20
178.434475
 11
287.299068
 21
182.134475
  0
LINE
  8
1
 62
7
  6
CONTINUOUS
 10
148.800435
 20
60.457599
 11
196.521579
 21
60.457599
  0
LINE
  8
1
 62
7
  6
CONTINUOUS
 10
202.421591
 20
143.134475
 11
202.421591
 21
140.134475
  0
LINE
  8
1
 62
7
  6
CONTINUOUS
 10
201.021591
 20
140.134475
 11
201.021591
 21
143.134475
  0
LINE
  8
1
 62
7
  6
CONTINUOUS
 10
200.921591
 20
143.134475
 11
200.921591
 21
140.134475
  0
LINE
  8
1
 62
7
  6
CONTINUOUS
 10
202.621591
 20
140.634475
 11
202.621591
 21
143.134475
  0
LINE
  8
1
 62
7
  6
CONTINUOUS
 10
202.621591
 20
142.134475
 11
202.421591
 21
142.134475
  0
LINE
  8
1
 62
7
  6
CONTINUOUS
 10
204.643656
 20
142.587434
 11
203.929354
 21
141.181517
  0
LINE
  8
1
 62
7
  6
CONTINUOUS
 10
203.037823
 20
140.634475
 11
202.421591
 21
140.634475
  0
LINE
  8
1
 62
7
  6
CONTINUOUS
 10
200.921591
 20
140.134475
 11
182.921591
 21
140.134475
  0
LINE
  8
1
 62
7
  6
CONTINUOUS
 10
181.421591
 20
140.634475
 11
180.805358
 21
140.634475
  0
LINE
  8
1
 62
7
  6
CONTINUOUS
 10
181.421591
 20
140.134475
 11
181.421591
 21
143.134475
  0
LINE
  8
1
 62
7
  6
CONTINUOUS
 10
182.821591
 20
140.134475
 11
181.421591
 21
140.134475
  0
LINE
  8
1
 62
7
  6
CONTINUOUS
 10
182.821591
 20
143.134475
 11
182.821591
 21
140.134475
  0
LINE
  8
1
 62
7
  6
CONTINUOUS
 10
182.921591
 20
140.134475
 11
182.921591
 21
143.134475
  0
LINE
  8
1
 62
7
  6
CONTINUOUS
 10
181.221591
 20
143.134475
 11
181.221591
 21
140.634475
  0
LINE
  8
1
 62
7
  6
CONTINUOUS
 10
181.221591
 20
142.134475
 11
181.421591
 21
142.134475
  0
LINE
  8
1
 62
7
  6
CONTINUOUS
 10
179.199525
 20
142.587434
 11
179.913827
 21
141.181517
  0
LINE
  8
1
 62
7
  6
CONTINUOUS
 10
181.122146
 20
140.634475
 11
180.805358
 21
140.634475
  0
LINE
  8
1
 62
7
  6
CONTINUOUS
 10
294.517259
 20
147.134461
 11
302.269136
 21
147.134476
  0
LINE
  8
1
 62
7
  6
CONTINUOUS
 10
294.517259
 20
178.134475
 11
302.269136
 21
178.134475
  0
LINE
  8
1
 62
7
  6
HIDDEN
 10
193.921591
 20
139.034475
 11
193.921591
 21
130.134475
  0
LINE
  8
1
 62
7
  6
HIDDEN
 10
189.921591
 20
139.034475
 11
189.921591
 21
130.134475
  0
LINE
  8
1
 62
7
  6
CONTINUOUS
 10
263.012133
 20
160.134475
 11
276.799068
 21
160.134475
  0
LINE
  8
4
 62
54
  6
CONTINUOUS
 10
289.999068
 20
174.634475
 11
289.999068
 21
178.434475
  0
LINE
  8
4
 62
54
  6
CONTINUOUS
 10
289.199068
 20
174.634475
 11
289.199068
 21
178.434475
  0
LINE
  8
4
 62
54
  6
CONTINUOUS
 10
288.399068
 20
174.634475
 11
288.399068
 21
182.134475
  0
LINE
  8
4
 62
54
  6
CONTINUOUS
 10
287.599068
 20
174.634475
 11
287.599068
 21
182.134475
  0
LINE
  8
4
 62
54
  6
CONTINUOUS
 10
286.799068
 20
174.634475
 11
286.799068
 21
178.434475
  0
LINE
  8
4
 62
54
  6
CONTINUOUS
 10
285.999068
 20
174.634475
 11
285.999068
 21
175.459400
  0
LINE
  8
4
 62
54
  6
CONTINUOUS
 10
289.899068
 20
150.634475
 11
289.899068
 21
146.834475
  0
LINE
  8
4
 62
54
  6
CONTINUOUS
 10
285.899068
 20
150.634475
 11
285.899068
 21
146.834475
  0
LINE
  8
4
 62
54
  6
CONTINUOUS
 10
286.699068
 20
150.634475
 11
286.699068
 21
146.834475
  0
LINE
  8
4
 62
54
  6
CONTINUOUS
 10
287.499068
 20
150.634475
 11
287.499068
 21
143.134475
  0
LINE
  8
4
 62
54
  6
CONTINUOUS
 10
289.099068
 20
150.634475
 11
289.099068
 21
146.834475
  0
LINE
  8
4
 62
54
  6
CONTINUOUS
 10
288.299068
 20
150.634475
 11
288.299068
 21
143.134475
  0
LINE
  8
2
 62
134
  6
CONTINUOUS
 10
256.769268
 20
162.634475
 11
303.439898
 21
162.634475
  0
LINE
  8
2
 62
134
  6
CONTINUOUS
 10
207.421591
 20
175.634475
 11
207.421591
 21
180.634475
  0
LINE
  8
2
 62
134
  6
CONTINUOUS
 10
204.921591
 20
178.134475
 11
209.921591
 21
178.134475
  0
LINE
  8
2
 62
134
  6
CONTINUOUS
 10
176.421591
 20
175.634475
 11
176.421591
 21
180.634475
  0
LINE
  8
2
 62
134
  6
CONTINUOUS
 10
178.921591
 20
178.134475
 11
173.921591
 21
178.134475
  0
LINE
  8
2
 62
134
  6
CONTINUOUS
 10
207.421591
 20
149.634475
 11
207.421591
 21
144.634475
  0
LINE
  8
2
 62
134
  6
CONTINUOUS
 10
204.921591
 20
147.134475
 11
209.921591
 21
147.134475
  0
LINE
  8
2
 62
134
  6
CONTINUOUS
 10
176.421591
 20
149.634475
 11
176.421591
 21
144.634475
  0
LINE
  8
2
 62
134
  6
CONTINUOUS
 10
178.921591
 20
147.134475
 11
173.921591
 21
147.134475
  0
LINE
  8
2
 62
134
  6
CONTINUOUS
 10
167.421591
 20
162.634475
 11
216.421591
 21
162.634475
  0
LINE
  8
2
 62
134
  6
CONTINUOUS
 10
191.921591
 20
187.134475
 11
191.921591
 21
136.934475
  0
LINE
  8
1
 62
7
  6
CONTINUOUS
 10
173.246741
 20
182.134475
 11
210.596391
 21
182.134475
  0
LINE
  8
1
 62
7
  6
CONTINUOUS
 10
173.246741
 20
143.134475
 11
210.596391
 21
143.134475
  0
LINE
  8
1
 62
7
  6
CONTINUOUS
 10
211.421591
 20
181.309275
 11
211.421591
 21
143.959575
  0
LINE
  8
1
 62
7
  6
CONTINUOUS
 10
172.421591
 20
181.309275
 11
172.421591
 21
143.959575
  0
LINE
  8
1
 62
7
  6
HIDDEN
 10
190.921591
 20
139.034475
 11
190.921591
 21
130.134475
  0
LINE
  8
1
 62
7
  6
HIDDEN
 10
192.921591
 20
139.034475
 11
192.921591
 21
130.134475
  0
LINE
  8
4
 62
54
  6
CONTINUOUS
 10
285.199068
 20
176.284575
 11
285.199068
 21
178.434475
  0
LINE
  8
4
 62
54
  6
CONTINUOUS
 10
290.699068
 20
148.984375
 11
290.699068
 21
146.834475
  0
LINE
  8
1
 62
7
  6
CONTINUOUS
 10
299.199068
 20
181.134475
 11
299.199068
 21
141.634475
  0
LINE
  8
1
 62
7
  6
CONTINUOUS
 10
290.799068
 20
146.834475
 11
284.799068
 21
146.834475
  0
LINE
  8
1
 62
7
  6
CONTINUOUS
 10
296.999068
 20
144.384475
 11
296.999068
 21
149.884475
  0
LINE
  8
1
 62
7
  6
CONTINUOUS
 10
296.999068
 20
175.384475
 11
296.999068
 21
180.884475
  0
LINE
  8
1
 62
7
  6
CONTINUOUS
 10
296.999068
 20
180.884475
 11
297.738169
 21
180.884474
  0
LINE
  8
1
 62
7
  6
CONTINUOUS
 10
296.999068
 20
175.384475
 11
297.738169
 21
175.384475
  0
LINE
  8
1
 62
7
  6
CONTINUOUS
 10
290.799068
 20
178.434475
 11
288.799068
 21
178.434475
  0
LINE
  8
1
 62
7
  6
CONTINUOUS
 10
290.799068
 20
178.434475
 11
290.799068
 21
146.834475
  0
LINE
  8
1
 62
7
  6
CONTINUOUS
 10
278.799068
 20
173.134475
 11
278.799068
 21
151.134475
  0
LINE
  8
1
 62
7
  6
CONTINUOUS
 10
295.999069
 20
143.134475
 11
278.799068
 21
143.134475
  0
LINE
  8
1
 62
7
  6
CONTINUOUS
 10
278.799068
 20
143.134475
 11
278.799068
 21
151.134475
  0
LINE
  8
1
 62
7
  6
CONTINUOUS
 10
278.799068
 20
182.134475
 11
278.799068
 21
173.134475
  0
LINE
  8
1
 62
7
  6
CONTINUOUS
 10
298.199068
 20
182.134475
 11
278.799068
 21
182.134475
  0
LINE
  8
1
 62
7
  6
CONTINUOUS
 10
276.799068
 20
173.634475
 11
276.799068
 21
151.634475
  0
LINE
  8
1
 62
7
  6
CONTINUOUS
 10
276.799068
 20
173.634475
 11
278.799068
 21
173.634475
  0
LINE
  8
1
 62
7
  6
CONTINUOUS
 10
276.799068
 20
151.634475
 11
278.799068
 21
151.634475
  0
LINE
  8
1
 62
7
  6
CONTINUOUS
 10
285.799068
 20
178.434475
 11
284.799068
 21
178.434475
  0
LINE
  8
1
 62
7
  6
CONTINUOUS
 10
296.999068
 20
181.134475
 11
296.999068
 21
175.511778
  0
LINE
  8
1
 62
7
  6
CONTINUOUS
 10
297.499068
 20
174.645775
 11
298.699063
 21
173.952903
  0
LINE
  8
1
 62
7
  6
CONTINUOUS
 10
296.999068
 20
144.134475
 11
296.999058
 21
149.757178
  0
LINE
  8
1
 62
7
  6
CONTINUOUS
 10
297.499068
 20
150.623175
 11
298.699054
 21
151.316063
  0
LINE
  8
1
 62
7
  6
CONTINUOUS
 10
296.999068
 20
175.384475
 11
296.999068
 21
180.884475
  0
LINE
  8
1
 62
7
  6
CONTINUOUS
 10
296.999068
 20
144.384475
 11
296.999068
 21
149.884475
  0
LINE
  8
1
 62
7
  6
CONTINUOUS
 10
284.799068
 20
146.834475
 11
284.799068
 21
178.434475
  0
LINE
  8
1
 62
7
  6
CONTINUOUS
 10
276.799068
 20
165.134475
 11
263.012133
 21
165.134475
  0
LINE
  8
1
 62
7
  6
CONTINUOUS
 10
285.799068
 20
178.434475
 11
288.799068
 21
178.434475
  0
LINE
  8
1
 62
7
  6
CONTINUOUS
 10
282.299068
 20
184.305179
 11
293.299068
 21
184.305179
  0
LINE
  8
1
 62
7
  6
CONTINUOUS
 10
180.338349
 20
184.305179
 11
202.341687
 21
184.305179
  0
LINE
  8
1
 62
7
  6
CONTINUOUS
 10
285.999068
 20
175.459400
 11
285.999068
 21
174.634475
  0
LINE
  8
1
 62
7
  6
CONTINUOUS
 10
287.599068
 20
178.434475
 11
287.599068
 21
171.514733
  0
LINE
  8
1
 62
7
  6
CONTINUOUS
 10
289.199068
 20
178.434475
 11
289.199068
 21
168.154811
  0
LINE
  8
1
 62
7
  6
CONTINUOUS
 10
286.699068
 20
146.834475
 11
286.699068
 21
158.697073
  0
LINE
  8
1
 62
7
  6
CONTINUOUS
 10
288.299068
 20
146.834475
 11
288.299068
 21
154.809507
  0
LINE
  8
1
 62
7
  6
CONTINUOUS
 10
287.499068
 20
146.834475
 11
287.499068
 21
150.634475
  0
LINE
  8
4
 62
54
  6
CONTINUOUS
 10
285.999068
 20
175.459400
 11
285.999068
 21
178.434475
  0
LINE
  8
1
 62
7
  6
CONTINUOUS
 10
285.899068
 20
160.640855
 11
285.899068
 21
148.888695
  0
LINE
  8
1
 62
7
  6
CONTINUOUS
 10
287.499068
 20
156.753290
 11
287.499068
 21
146.834475
  0
LINE
  8
1
 62
7
  6
CONTINUOUS
 10
289.099068
 20
152.865724
 11
289.099068
 21
146.834475
  0
LINE
  8
1
 62
7
  6
CONTINUOUS
 10
286.799068
 20
173.194693
 11
286.799068
 21
178.434475
  0
LINE
  8
1
 62
7
  6
CONTINUOUS
 10
288.399068
 20
169.834772
 11
288.399068
 21
178.434475
  0
LINE
  8
1
 62
7
  6
CONTINUOUS
 10
289.999068
 20
166.474850
 11
289.999068
 21
178.434475
  0
LINE
  8
1
 62
7
  6
CONTINUOUS
 10
262.299068
 20
164.921919
 11
262.299068
 21
160.347032
  0
LINE
  8
1
 62
7
  6
CONTINUOUS
 10
262.299068
 20
160.347032
 11
263.012133
 21
160.134475
  0
LINE
  8
1
 62
7
  6
CONTINUOUS
 10
296.999068
 20
149.884475
 11
297.738169
 21
149.884474
  0
LINE
  8
1
 62
7
  6
CONTINUOUS
 10
296.999068
 20
144.384475
 11
297.738169
 21
144.384475
  0
LINE
  8
1
 62
7
  6
CONTINUOUS
 10
263.012133
 20
160.134475
 11
263.012133
 21
165.134475
  0
LINE
  8
1
 62
7
  6
CONTINUOUS
 10
289.199068
 20
177.824255
 11
289.199068
 21
178.434475
  0
LINE
  8
1
 62
7
  6
CONTINUOUS
 10
290.799068
 20
143.134475
 11
290.799068
 21
140.134475
  0
LINE
  8
1
 62
7
  6
CONTINUOUS
 10
290.799068
 20
140.134475
 11
294.999068
 21
140.134475
  0
LINE
  8
1
 62
7
  6
CONTINUOUS
 10
294.999068
 20
140.134475
 11
294.999068
 21
140.634475
  0
LINE
  8
1
 62
7
  6
CONTINUOUS
 10
290.799068
 20
140.634475
 11
298.199068
 21
140.634475
  0
LINE
  8
1
 62
7
  6
CONTINUOUS
 10
201.021591
 20
140.134475
 11
202.421591
 21
140.134475
  0
LINE
  8
1
 62
7
  6
HIDDEN
 10
196.921591
 20
139.034475
 11
196.921591
 21
130.134475
  0
LINE
  8
1
 62
7
  6
HIDDEN
 10
195.921591
 20
139.034475
 11
195.921591
 21
130.134475
  0
LINE
  8
1
 62
7
  6
HIDDEN
 10
186.921591
 20
139.034475
 11
186.921591
 21
130.134475
  0
LINE
  8
1
 62
7
  6
HIDDEN
 10
187.921591
 20
139.034475
 11
187.921591
 21
130.134475
  0
LINE
  8
1
 62
7
  6
HIDDEN
 10
200.921591
 20
140.134475
 11
200.921591
 21
139.034475
  0
LINE
  8
1
 62
7
  6
HIDDEN
 10
200.921591
 20
139.034475
 11
182.921591
 21
139.034475
  0
LINE
  8
1
 62
7
  6
HIDDEN
 10
182.921591
 20
139.034475
 11
182.921591
 21
140.134475
  0
LINE
  8
1
 62
7
  6
CONTINUOUS
 10
263.012133
 20
165.134475
 11
262.299068
 21
164.921919
  0
LINE
  8
1
 62
7
  6
CONTINUOUS
 10
143.659140
 20
86.469101
 11
173.009140
 21
86.469101
  0
LINE
  8
1
 62
7
  6
CONTINUOUS
 10
143.659140
 20
87.569101
 11
173.009140
 21
87.569101
  0
LINE
  8
1
 62
7
  6
CONTINUOUS
 10
172.903142
 20
72.937094
 11
172.903142
 21
92.129101
  0
LINE
  8
1
 62
7
  6
CONTINUOUS
 10
173.903142
 20
72.937094
 11
173.903142
 21
92.129101
  0
LINE
  8
1
 62
7
  6
CONTINUOUS
 10
143.553142
 20
90.569101
 11
143.253142
 21
90.569101
  0
LINE
  8
1
 62
7
  6
CONTINUOUS
 10
143.553142
 20
74.469101
 11
143.253142
 21
74.469101
  0
LINE
  8
1
 62
7
  6
CONTINUOUS
 10
143.553142
 20
91.469101
 11
143.553142
 21
90.569101
  0
LINE
  8
1
 62
7
  6
CONTINUOUS
 10
143.253142
 20
91.469101
 11
143.553142
 21
91.469101
  0
LINE
  8
1
 62
7
  6
CONTINUOUS
 10
143.553142
 20
73.569101
 11
143.253142
 21
73.569101
  0
LINE
  8
1
 62
7
  6
CONTINUOUS
 10
143.553142
 20
74.469101
 11
143.553142
 21
73.569101
  0
LINE
  8
1
 62
7
  6
CONTINUOUS
 10
143.553142
 20
75.969101
 11
143.253142
 21
75.969101
  0
LINE
  8
1
 62
7
  6
CONTINUOUS
 10
143.553142
 20
75.569101
 11
143.553142
 21
75.969101
  0
LINE
  8
1
 62
7
  6
CONTINUOUS
 10
143.253142
 20
75.569101
 11
143.553142
 21
75.569101
  0
LINE
  8
1
 62
7
  6
CONTINUOUS
 10
143.553142
 20
77.469101
 11
143.253142
 21
77.469101
  0
LINE
  8
1
 62
7
  6
CONTINUOUS
 10
143.553142
 20
77.069101
 11
143.553142
 21
77.469101
  0
LINE
  8
1
 62
7
  6
CONTINUOUS
 10
143.253142
 20
77.069101
 11
143.553142
 21
77.069101
  0
LINE
  8
1
 62
7
  6
CONTINUOUS
 10
143.553142
 20
78.969101
 11
143.253142
 21
78.969101
  0
LINE
  8
1
 62
7
  6
CONTINUOUS
 10
143.553142
 20
78.569101
 11
143.553142
 21
78.969101
  0
LINE
  8
1
 62
7
  6
CONTINUOUS
 10
143.253142
 20
78.569101
 11
143.553142
 21
78.569101
  0
LINE
  8
1
 62
7
  6
CONTINUOUS
 10
143.553142
 20
80.469101
 11
143.253142
 21
80.469101
  0
LINE
  8
1
 62
7
  6
CONTINUOUS
 10
143.553142
 20
80.069101
 11
143.553142
 21
80.469101
  0
LINE
  8
1
 62
7
  6
CONTINUOUS
 10
143.253142
 20
80.069101
 11
143.553142
 21
80.069101
  0
LINE
  8
1
 62
7
  6
CONTINUOUS
 10
143.553142
 20
81.969101
 11
143.253142
 21
81.969101
  0
LINE
  8
1
 62
7
  6
CONTINUOUS
 10
143.553142
 20
81.569101
 11
143.553142
 21
81.969101
  0
LINE
  8
1
 62
7
  6
CONTINUOUS
 10
143.253142
 20
81.569101
 11
143.553142
 21
81.569101
  0
LINE
  8
1
 62
7
  6
CONTINUOUS
 10
143.553142
 20
83.469101
 11
143.253142
 21
83.469101
  0
LINE
  8
1
 62
7
  6
CONTINUOUS
 10
143.553142
 20
83.069101
 11
143.553142
 21
83.469101
  0
LINE
  8
1
 62
7
  6
CONTINUOUS
 10
143.253142
 20
83.069101
 11
143.553142
 21
83.069101
  0
LINE
  8
1
 62
7
  6
CONTINUOUS
 10
143.553142
 20
84.969101
 11
143.253142
 21
84.969101
  0
LINE
  8
1
 62
7
  6
CONTINUOUS
 10
143.553142
 20
84.569101
 11
143.553142
 21
84.969101
  0
LINE
  8
1
 62
7
  6
CONTINUOUS
 10
143.253142
 20
84.569101
 11
143.553142
 21
84.569101
  0
LINE
  8
1
 62
7
  6
CONTINUOUS
 10
143.553142
 20
86.469101
 11
143.253142
 21
86.469101
  0
LINE
  8
1
 62
7
  6
CONTINUOUS
 10
143.553142
 20
86.069101
 11
143.553142
 21
86.469101
  0
LINE
  8
1
 62
7
  6
CONTINUOUS
 10
143.253142
 20
86.069101
 11
143.553142
 21
86.069101
  0
LINE
  8
1
 62
7
  6
CONTINUOUS
 10
143.553142
 20
87.969101
 11
143.253142
 21
87.969101
  0
LINE
  8
1
 62
7
  6
CONTINUOUS
 10
143.553142
 20
87.569101
 11
143.553142
 21
87.969101
  0
LINE
  8
1
 62
7
  6
CONTINUOUS
 10
143.253142
 20
87.569101
 11
143.553142
 21
87.569101
  0
LINE
  8
1
 62
7
  6
CONTINUOUS
 10
143.553142
 20
89.469101
 11
143.253142
 21
89.469101
  0
LINE
  8
1
 62
7
  6
CONTINUOUS
 10
143.553142
 20
89.069101
 11
143.553142
 21
89.469101
  0
LINE
  8
1
 62
7
  6
CONTINUOUS
 10
143.253142
 20
89.069101
 11
143.553142
 21
89.069101
  0
LINE
  8
1
 62
7
  6
CONTINUOUS
 10
143.253142
 20
73.569101
 11
143.253142
 21
91.469101
  0
LINE
  8
1
 62
7
  6
CONTINUOUS
 10
138.753142
 20
90.969101
 11
140.304048
 21
90.969101
  0
LINE
  8
1
 62
7
  6
CONTINUOUS
 10
138.753142
 20
74.069101
 11
138.753142
 21
90.969101
  0
LINE
  8
1
 62
7
  6
CONTINUOUS
 10
140.304048
 20
74.069101
 11
138.753142
 21
74.069101
  0
LINE
  8
1
 62
7
  6
CONTINUOUS
 10
140.304048
 20
90.969101
 11
142.564467
 21
90.969101
  0
LINE
  8
1
 62
7
  6
CONTINUOUS
 10
143.253142
 20
90.019101
 11
142.564467
 21
90.019101
  0
LINE
  8
1
 62
7
  6
CONTINUOUS
 10
142.564467
 20
75.019101
 11
143.253142
 21
75.019101
  0
LINE
  8
1
 62
7
  6
CONTINUOUS
 10
142.564467
 20
90.969101
 11
142.953142
 21
91.469101
  0
LINE
  8
1
 62
7
  6
CONTINUOUS
 10
142.953142
 20
91.469101
 11
143.253142
 21
91.469101
  0
LINE
  8
1
 62
7
  6
CONTINUOUS
 10
140.304048
 20
90.969101
 11
140.304048
 21
91.469101
  0
LINE
  8
1
 62
7
  6
CONTINUOUS
 10
140.304048
 20
91.469101
 11
142.953142
 21
91.469101
  0
LINE
  8
1
 62
7
  6
CONTINUOUS
 10
140.304048
 20
73.569101
 11
140.304048
 21
74.069101
  0
LINE
  8
1
 62
7
  6
CONTINUOUS
 10
142.953142
 20
73.569101
 11
140.304048
 21
73.569101
  0
LINE
  8
1
 62
7
  6
CONTINUOUS
 10
142.564467
 20
74.069101
 11
140.304048
 21
74.069101
  0
LINE
  8
1
 62
7
  6
CONTINUOUS
 10
142.953142
 20
73.569101
 11
142.564467
 21
74.069101
  0
LINE
  8
1
 62
7
  6
CONTINUOUS
 10
143.253142
 20
73.569101
 11
142.953142
 21
73.569101
  0
LINE
  8
1
 62
7
  6
CONTINUOUS
 10
142.564467
 20
90.019101
 11
142.564467
 21
75.019101
  0
LINE
  8
1
 62
7
  6
CONTINUOUS
 10
143.659140
 20
78.569101
 11
173.009140
 21
78.569101
  0
LINE
  8
1
 62
7
  6
CONTINUOUS
 10
143.659140
 20
77.469101
 11
173.009140
 21
77.469101
  0
LINE
  8
1
 62
7
  6
CONTINUOUS
 10
143.659140
 20
81.569101
 11
173.009140
 21
81.569101
  0
LINE
  8
1
 62
7
  6
CONTINUOUS
 10
143.659140
 20
80.469101
 11
173.009140
 21
80.469101
  0
LINE
  8
1
 62
7
  6
CONTINUOUS
 10
143.659140
 20
84.569101
 11
173.009140
 21
84.569101
  0
LINE
  8
1
 62
7
  6
CONTINUOUS
 10
143.659140
 20
83.469101
 11
173.009140
 21
83.469101
  0
LINE
  8
1
 62
7
  6
CONTINUOUS
 10
174.009140
 20
78.569101
 11
204.394213
 21
78.569101
  0
LINE
  8
1
 62
7
  6
CONTINUOUS
 10
174.009140
 20
77.469101
 11
204.394213
 21
77.469101
  0
LINE
  8
1
 62
7
  6
CONTINUOUS
 10
174.009140
 20
80.469101
 11
204.394213
 21
80.469101
  0
LINE
  8
1
 62
7
  6
CONTINUOUS
 10
174.009140
 20
81.569101
 11
204.394213
 21
81.569101
  0
LINE
  8
1
 62
7
  6
CONTINUOUS
 10
174.009140
 20
83.469101
 11
204.394213
 21
83.469101
  0
LINE
  8
1
 62
7
  6
CONTINUOUS
 10
174.009140
 20
84.569101
 11
204.394213
 21
84.569101
  0
LINE
  8
1
 62
7
  6
CONTINUOUS
 10
174.009140
 20
86.469101
 11
204.394213
 21
86.469101
  0
LINE
  8
1
 62
7
  6
CONTINUOUS
 10
174.009140
 20
87.569101
 11
204.394213
 21
87.569101
  0
LINE
  8
1
 62
7
  6
CONTINUOUS
 10
204.394213
 20
77.469101
 11
204.394213
 21
78.569101
  0
LINE
  8
1
 62
7
  6
CONTINUOUS
 10
204.394213
 20
78.294101
 11
207.894213
 21
78.294101
  0
LINE
  8
1
 62
7
  6
CONTINUOUS
 10
204.394213
 20
78.019101
 11
207.894213
 21
78.019101
  0
LINE
  8
1
 62
7
  6
CONTINUOUS
 10
204.394213
 20
77.744101
 11
207.894213
 21
77.744101
  0
LINE
  8
1
 62
7
  6
CONTINUOUS
 10
204.394213
 20
80.469101
 11
204.394213
 21
81.569101
  0
LINE
  8
1
 62
7
  6
CONTINUOUS
 10
204.394213
 20
81.294101
 11
207.894213
 21
81.294101
  0
LINE
  8
1
 62
7
  6
CONTINUOUS
 10
204.394213
 20
81.019101
 11
207.894213
 21
81.019101
  0
LINE
  8
1
 62
7
  6
CONTINUOUS
 10
204.394213
 20
80.744101
 11
207.894213
 21
80.744101
  0
LINE
  8
1
 62
7
  6
CONTINUOUS
 10
204.394213
 20
83.469101
 11
204.394213
 21
84.569101
  0
LINE
  8
1
 62
7
  6
CONTINUOUS
 10
204.394213
 20
84.294101
 11
207.894213
 21
84.294101
  0
LINE
  8
1
 62
7
  6
CONTINUOUS
 10
204.394213
 20
84.019101
 11
207.894213
 21
84.019101
  0
LINE
  8
1
 62
7
  6
CONTINUOUS
 10
204.394213
 20
83.744101
 11
207.894213
 21
83.744101
  0
LINE
  8
1
 62
7
  6
CONTINUOUS
 10
204.394213
 20
86.469101
 11
204.394213
 21
87.569101
  0
LINE
  8
1
 62
7
  6
CONTINUOUS
 10
204.394213
 20
87.294101
 11
207.894213
 21
87.294101
  0
LINE
  8
1
 62
7
  6
CONTINUOUS
 10
204.394213
 20
87.019101
 11
207.894213
 21
87.019101
  0
LINE
  8
1
 62
7
  6
CONTINUOUS
 10
204.394213
 20
86.744101
 11
207.894213
 21
86.744101
  0
LINE
  8
1
 62
7
  6
CONTINUOUS
 10
139.053142
 20
90.969101
 11
139.053142
 21
74.069101
  0
ARC
  8
1
 62
7
  6
CONTINUOUS
 10
191.921591
 20
162.634475
 40
27.000035
 50
-136.238180
 51
-133.761744
  0
ARC
  8
1
 62
7
  6
CONTINUOUS
 10
191.921591
 20
162.634475
 40
26.999966
 50
-46.238333
 51
-43.761820
  0
ARC
  8
1
 62
7
  6
CONTINUOUS
 10
191.921591
 20
162.634475
 40
26.999966
 50
43.761667
 51
46.238333
  0
ARC
  8
1
 62
7
  6
CONTINUOUS
 10
191.921591
 20
162.634475
 40
27.000000
 50
133.761744
 51
136.238333
  0
ARC
  8
1
 62
7
  6
CONTINUOUS
 10
291.999068
 20
178.134475
 40
6.999981
 50
-16.957866
 51
16.957749
  0
ARC
  8
1
 62
7
  6
CONTINUOUS
 10
297.738168
 20
179.884475
 40
0.999999
 50
16.957327
 51
89.999943
  0
ARC
  8
1
 62
7
  6
CONTINUOUS
 10
297.738168
 20
176.384475
 40
1.000000
 50
-89.999943
 51
-16.958144
  0
ARC
  8
1
 62
7
  6
CONTINUOUS
 10
298.199068
 20
181.134475
 40
1.000000
 50
0.000000
 51
90.000000
  0
ARC
  8
1
 62
7
  6
CONTINUOUS
 10
295.999068
 20
181.134475
 40
1.000000
 50
0.000000
 51
89.999943
  0
ARC
  8
1
 62
7
  6
CONTINUOUS
 10
297.999068
 20
175.511775
 40
1.000000
 50
179.999828
 51
-120.000728
  0
ARC
  8
1
 62
7
  6
CONTINUOUS
 10
298.199068
 20
173.086875
 40
1.000000
 50
0.000000
 51
60.000322
  0
ARC
  8
1
 62
7
  6
CONTINUOUS
 10
298.199068
 20
141.634475
 40
1.000000
 50
-90.000000
 51
0.000000
  0
ARC
  8
1
 62
7
  6
CONTINUOUS
 10
295.999068
 20
144.134475
 40
1.000000
 50
-89.999943
 51
0.000000
  0
ARC
  8
1
 62
7
  6
CONTINUOUS
 10
297.999068
 20
149.757175
 40
0.999978
 50
120.000728
 51
179.999828
  0
ARC
  8
1
 62
7
  6
CONTINUOUS
 10
298.199068
 20
152.182075
 40
0.999981
 50
-60.000311
 51
0.000000
  0
ARC
  8
1
 62
7
  6
CONTINUOUS
 10
297.738168
 20
145.384475
 40
1.000000
 50
-89.999943
 51
-16.958144
  0
ARC
  8
1
 62
7
  6
CONTINUOUS
 10
291.999068
 20
147.134475
 40
6.999981
 50
-16.957866
 51
16.957749
  0
ARC
  8
1
 62
7
  6
CONTINUOUS
 10
297.738168
 20
145.384475
 40
1.000000
 50
-89.999943
 51
-16.958144
  0
ARC
  8
1
 62
7
  6
CONTINUOUS
 10
297.738168
 20
148.884475
 40
0.999999
 50
16.957327
 51
89.999943
  0
ARC
  8
1
 62
7
  6
CONTINUOUS
 10
297.738168
 20
145.384475
 40
1.000000
 50
-89.999943
 51
-16.958144
  0
CIRCLE
  8
1
 62
7
  6
CONTINUOUS
 10
191.921591
 20
162.634475
 40
12.500000
  0
CIRCLE
  8
1
 62
7
  6
CONTINUOUS
 10
191.921591
 20
162.634475
 40
11.000000
  0
CIRCLE
  8
1
 62
7
  6
CONTINUOUS
 10
191.921591
 20
162.634475
 40
3.000000
  0
CIRCLE
  8
4
 62
54
  6
CONTINUOUS
 10
207.421591
 20
178.134475
 40
1.000000
  0
CIRCLE
  8
4
 62
54
  6
CONTINUOUS
 10
176.421591
 20
178.134475
 40
1.000000
  0
CIRCLE
  8
4
 62
54
  6
CONTINUOUS
 10
207.421591
 20
147.134475
 40
1.000000
  0
CIRCLE
  8
4
 62
54
  6
CONTINUOUS
 10
176.421591
 20
147.134475
 40
1.000000
  0
CIRCLE
  8
1
 62
7
  6
CONTINUOUS
 10
207.421591
 20
178.134475
 40
1.500000
  0
CIRCLE
  8
1
 62
7
  6
CONTINUOUS
 10
176.421591
 20
178.134475
 40
1.500000
  0
CIRCLE
  8
1
 62
7
  6
CONTINUOUS
 10
207.421591
 20
147.134475
 40
1.500000
  0
CIRCLE
  8
1
 62
7
  6
CONTINUOUS
 10
176.421591
 20
147.134475
 40
1.500000
  0
CIRCLE
  8
1
 62
7
  6
CONTINUOUS
 10
191.921591
 20
162.634475
 40
2.500000
  0
ARC
  8
1
 62
7
  6
CONTINUOUS
 10
201.621591
 20
143.134475
 40
1.000000
 50
-36.869898
 51
0.000000
  0
ARC
  8
1
 62
7
  6
CONTINUOUS
 10
203.037823
 20
141.634475
 40
1.000000
 50
-90.000000
 51
-26.933677
  0
ARC
  8
1
 62
7
  6
CONTINUOUS
 10
205.535188
 20
142.134475
 40
1.000000
 50
90.000000
 51
153.066323
  0
ARC
  8
1
 62
7
  6
CONTINUOUS
 10
182.221591
 20
143.134475
 40
1.000000
 50
180.000000
 51
-143.130102
  0
ARC
  8
1
 62
7
  6
CONTINUOUS
 10
180.805358
 20
141.634475
 40
1.000000
 50
-153.066323
 51
-90.000000
  0
ARC
  8
1
 62
7
  6
CONTINUOUS
 10
178.307994
 20
142.134475
 40
1.000000
 50
26.933677
 51
90.000000
  0
LINE
  8
1
 62
7
  6
CONTINUOUS
 10
332.536677
 20
202.134475
 11
305.973717
 21
202.134475
  0
LINE
  8
1
 62
7
  6
CONTINUOUS
 10
305.973717
 20
202.134475
 11
293.299068
 21
184.305179
  0
LINE
  8
1
 62
7
  6
CONTINUOUS
 10
294.809793
 20
187.157405
 11
295.496526
 21
186.669214
  0
LINE
  8
1
 62
7
  6
CONTINUOUS
 10
295.496526
 20
186.669214
 11
293.299068
 21
184.305179
  0
LINE
  8
1
 62
7
  6
CONTINUOUS
 10
293.299068
 20
184.305179
 11
294.809793
 21
187.157405
  0
TEXT
  8
1
 62
7
  6
CONTINUOUS
 10
149.223995
 20
55.413137
 40
3.000000
 41
0.540000
  1
ATTACHMENT:CONNECTOR LEAD
  7
KANJI
 50
0.000000
 51
0.000000
  0
TEXT
  8
1
 62
7
  6
CONTINUOUS
 10
149.223995
 20
61.457599
 40
4.000000
 41
0.900000
  1
付属品：コネクターリード
  7
KANJI
 50
0.000000
 51
0.000000
  0
TEXT
  8
1
 62
7
  6
CONTINUOUS
 10
233.195564
 20
124.390222
 40
4.000000
 41
0.540000
  1
有効深サ(ＤＥＰＴＨ）　２．５ＭＩＮ
  7
KANJI
 50
0.000975
 51
0.000000
  0
TEXT
  8
1
 62
7
  6
CONTINUOUS
 10
306.127468
 20
203.266609
 40
5.000000
 41
0.720000
  1
ネ－ムプレ－ト
  7
KANJI
 50
0.000000
 51
0.000000
  0
TEXT
  8
1
 62
7
  6
CONTINUOUS
 10
306.729719
 20
197.205988
 40
3.200000
 41
0.720000
  1
ＮＡＭＥ　ＰＬＡＴＥ
  7
KANJI
 50
0.000000
 51
0.000000
  0
LINE
  8
128
 62
7
  6
CONTINUOUS
 10
162.421591
 20
147.134476
 11
162.421591
 21
178.134476
  0
LINE
  8
128
 62
7
  6
CONTINUOUS
 10
172.921591
 20
147.134476
 11
161.421591
 21
147.134476
  0
LINE
  8
128
 62
7
  6
CONTINUOUS
 10
172.921591
 20
178.134476
 11
161.421591
 21
178.134476
  0
LINE
  8
128
 62
7
  6
CONTINUOUS
 10
162.421591
 20
178.134476
 11
162.837591
 21
174.934476
  0
LINE
  8
128
 62
7
  6
CONTINUOUS
 10
162.837591
 20
174.934476
 11
162.005591
 21
174.934476
  0
LINE
  8
128
 62
7
  6
CONTINUOUS
 10
162.005591
 20
174.934476
 11
162.421591
 21
178.134476
  0
LINE
  8
128
 62
7
  6
CONTINUOUS
 10
162.421591
 20
147.134476
 11
162.005591
 21
150.334476
  0
LINE
  8
128
 62
7
  6
CONTINUOUS
 10
162.005591
 20
150.334476
 11
162.837591
 21
150.334476
  0
LINE
  8
128
 62
7
  6
CONTINUOUS
 10
162.837591
 20
150.334476
 11
162.421591
 21
147.134476
  0
TEXT
  8
128
 62
7
  6
CONTINUOUS
 10
160.821591
 20
156.526476
 40
3.200000
 41
0.900000
  1
31
  7
KANJI
 50
90.000000
 51
0.000000
  0
TEXT
  8
128
 62
7
  6
CONTINUOUS
 10
160.341591
 20
161.966476
 40
2.240000
 41
0.900000
  1
±0.2
  7
KANJI
 50
90.000000
 51
0.000000
  0
LINE
  8
128
 62
7
  6
CONTINUOUS
 10
172.421591
 20
202.134476
 11
211.421591
 21
202.134476
  0
LINE
  8
128
 62
7
  6
CONTINUOUS
 10
172.421591
 20
182.309276
 11
172.421591
 21
203.134476
  0
LINE
  8
128
 62
7
  6
CONTINUOUS
 10
211.421591
 20
182.309276
 11
211.421591
 21
203.134476
  0
LINE
  8
128
 62
7
  6
CONTINUOUS
 10
172.421591
 20
202.134476
 11
175.621591
 21
202.550476
  0
LINE
  8
128
 62
7
  6
CONTINUOUS
 10
175.621591
 20
202.550476
 11
175.621591
 21
201.718476
  0
LINE
  8
128
 62
7
  6
CONTINUOUS
 10
175.621591
 20
201.718476
 11
172.421591
 21
202.134476
  0
LINE
  8
128
 62
7
  6
CONTINUOUS
 10
211.421591
 20
202.134476
 11
208.221591
 21
201.718476
  0
LINE
  8
128
 62
7
  6
CONTINUOUS
 10
208.221591
 20
201.718476
 11
208.221591
 21
202.550476
  0
LINE
  8
128
 62
7
  6
CONTINUOUS
 10
208.221591
 20
202.550476
 11
211.421591
 21
202.134476
  0
TEXT
  8
128
 62
7
  6
CONTINUOUS
 10
189.521591
 20
203.734476
 40
3.200000
 41
0.900000
  1
39
  7
KANJI
 50
0.000000
 51
0.000000
  0
TEXT
  8
128
 62
7
  6
CONTINUOUS
 10
187.441591
 20
203.734476
 40
3.200000
 41
0.900000
  1
(
  7
KANJI
 50
0.000000
 51
0.000000
  0
TEXT
  8
128
 62
7
  6
CONTINUOUS
 10
195.921591
 20
203.734476
 40
3.200000
 41
0.900000
  1
)
  7
KANJI
 50
0.000000
 51
0.000000
  0
LINE
  8
128
 62
7
  6
CONTINUOUS
 10
152.421591
 20
143.134476
 11
152.421591
 21
182.134476
  0
LINE
  8
128
 62
7
  6
CONTINUOUS
 10
172.246741
 20
143.134476
 11
151.421591
 21
143.134476
  0
LINE
  8
128
 62
7
  6
CONTINUOUS
 10
172.246741
 20
182.134476
 11
151.421591
 21
182.134476
  0
LINE
  8
128
 62
7
  6
CONTINUOUS
 10
152.421591
 20
182.134476
 11
152.837591
 21
178.934476
  0
LINE
  8
128
 62
7
  6
CONTINUOUS
 10
152.837591
 20
178.934476
 11
152.005591
 21
178.934476
  0
LINE
  8
128
 62
7
  6
CONTINUOUS
 10
152.005591
 20
178.934476
 11
152.421591
 21
182.134476
  0
LINE
  8
128
 62
7
  6
CONTINUOUS
 10
152.421591
 20
143.134476
 11
152.005591
 21
146.334476
  0
LINE
  8
128
 62
7
  6
CONTINUOUS
 10
152.005591
 20
146.334476
 11
152.837591
 21
146.334476
  0
LINE
  8
128
 62
7
  6
CONTINUOUS
 10
152.837591
 20
146.334476
 11
152.421591
 21
143.134476
  0
TEXT
  8
128
 62
7
  6
CONTINUOUS
 10
150.821591
 20
160.234476
 40
3.200000
 41
0.900000
  1
39
  7
KANJI
 50
90.000000
 51
0.000000
  0
TEXT
  8
128
 62
7
  6
CONTINUOUS
 10
150.821591
 20
158.154476
 40
3.200000
 41
0.900000
  1
(
  7
KANJI
 50
90.000000
 51
0.000000
  0
TEXT
  8
128
 62
7
  6
CONTINUOUS
 10
150.821591
 20
166.634476
 40
3.200000
 41
0.900000
  1
)
  7
KANJI
 50
90.000000
 51
0.000000
  0
LINE
  8
128
 62
7
  6
CONTINUOUS
 10
176.421591
 20
192.134476
 11
207.421591
 21
192.134476
  0
LINE
  8
128
 62
7
  6
CONTINUOUS
 10
176.421591
 20
181.634476
 11
176.421591
 21
193.134476
  0
LINE
  8
128
 62
7
  6
CONTINUOUS
 10
207.421591
 20
181.634476
 11
207.421591
 21
193.134476
  0
LINE
  8
128
 62
7
  6
CONTINUOUS
 10
176.421591
 20
192.134476
 11
179.621591
 21
192.550476
  0
LINE
  8
128
 62
7
  6
CONTINUOUS
 10
179.621591
 20
192.550476
 11
179.621591
 21
191.718476
  0
LINE
  8
128
 62
7
  6
CONTINUOUS
 10
179.621591
 20
191.718476
 11
176.421591
 21
192.134476
  0
LINE
  8
128
 62
7
  6
CONTINUOUS
 10
207.421591
 20
192.134476
 11
204.221591
 21
191.718476
  0
LINE
  8
128
 62
7
  6
CONTINUOUS
 10
204.221591
 20
191.718476
 11
204.221591
 21
192.550476
  0
LINE
  8
128
 62
7
  6
CONTINUOUS
 10
204.221591
 20
192.550476
 11
207.421591
 21
192.134476
  0
TEXT
  8
128
 62
7
  6
CONTINUOUS
 10
185.813591
 20
193.734476
 40
3.200000
 41
0.900000
  1
31
  7
KANJI
 50
0.000000
 51
0.000000
  0
TEXT
  8
128
 62
7
  6
CONTINUOUS
 10
191.253591
 20
194.214476
 40
2.240000
 41
0.900000
  1
±0.2
  7
KANJI
 50
0.000000
 51
0.000000
  0
LINE
  8
128
 62
7
  6
CONTINUOUS
 10
239.299068
 20
151.634476
 11
239.299068
 21
173.634476
  0
LINE
  8
128
 62
7
  6
CONTINUOUS
 10
275.799068
 20
173.634476
 11
238.299068
 21
173.634476
  0
LINE
  8
128
 62
7
  6
CONTINUOUS
 10
275.799068
 20
151.634476
 11
238.299068
 21
151.634476
  0
LINE
  8
128
 62
7
  6
CONTINUOUS
 10
239.299068
 20
173.634476
 11
239.715068
 21
170.434476
  0
LINE
  8
128
 62
7
  6
CONTINUOUS
 10
239.715068
 20
170.434476
 11
238.883068
 21
170.434476
  0
LINE
  8
128
 62
7
  6
CONTINUOUS
 10
238.883068
 20
170.434476
 11
239.299068
 21
173.634476
  0
LINE
  8
128
 62
7
  6
CONTINUOUS
 10
239.299068
 20
151.634476
 11
238.883068
 21
154.834476
  0
LINE
  8
128
 62
7
  6
CONTINUOUS
 10
238.883068
 20
154.834476
 11
239.715068
 21
154.834476
  0
LINE
  8
128
 62
7
  6
CONTINUOUS
 10
239.715068
 20
154.834476
 11
239.299068
 21
151.634476
  0
TEXT
  8
128
 62
7
  6
CONTINUOUS
 10
236.499068
 20
157.406476
 40
3.200000
 41
0.900000
  1
22
  7
KANJI
 50
90.000000
 51
0.000000
  0
TEXT
  8
128
 62
7
  6
CONTINUOUS
 10
234.339068
 20
165.598476
 40
2.240000
 41
0.900000
  1
0
  7
KANJI
 50
90.000000
 51
0.000000
  0
TEXT
  8
128
 62
7
  6
CONTINUOUS
 10
237.699068
 20
163.806476
 40
2.240000
 41
0.900000
  1
-0.05
  7
KANJI
 50
90.000000
 51
0.000000
  0
TEXT
  8
128
 62
7
  6
CONTINUOUS
 10
236.499068
 20
153.566476
 40
3.200000
 41
0.900000
  1
φ
  7
KANJI
 50
90.000000
 51
0.000000
  0
LINE
  8
128
 62
7
  6
CONTINUOUS
 10
276.799068
 20
202.134476
 11
264.974101
 21
202.134476
  0
LINE
  8
128
 62
7
  6
CONTINUOUS
 10
276.799068
 20
202.134476
 11
278.799068
 21
202.134476
  0
LINE
  8
128
 62
7
  6
CONTINUOUS
 10
285.199068
 20
202.134476
 11
278.799068
 21
202.134476
  0
LINE
  8
128
 62
7
  6
CONTINUOUS
 10
278.799068
 20
183.134476
 11
278.799068
 21
203.134476
  0
LINE
  8
128
 62
7
  6
CONTINUOUS
 10
276.799068
 20
174.634476
 11
276.799068
 21
203.134476
  0
LINE
  8
128
 62
7
  6
CONTINUOUS
 10
276.799068
 20
202.134476
 11
273.599068
 21
201.718476
  0
LINE
  8
128
 62
7
  6
CONTINUOUS
 10
273.599068
 20
201.718476
 11
273.599068
 21
202.550476
  0
LINE
  8
128
 62
7
  6
CONTINUOUS
 10
273.599068
 20
202.550476
 11
276.799068
 21
202.134476
  0
LINE
  8
128
 62
7
  6
CONTINUOUS
 10
278.799068
 20
202.134476
 11
281.999068
 21
202.550476
  0
LINE
  8
128
 62
7
  6
CONTINUOUS
 10
281.999068
 20
202.550476
 11
281.999068
 21
201.718476
  0
LINE
  8
128
 62
7
  6
CONTINUOUS
 10
281.999068
 20
201.718476
 11
278.799068
 21
202.134476
  0
TEXT
  8
128
 62
7
  6
CONTINUOUS
 10
264.974101
 20
203.734476
 40
3.200000
 41
0.900000
  1
2
  7
KANJI
 50
0.000000
 51
0.000000
  0
TEXT
  8
128
 62
7
  6
CONTINUOUS
 10
268.494101
 20
204.214476
 40
2.240000
 41
0.900000
  1
±0.2
  7
KANJI
 50
0.000000
 51
0.000000
  0
LINE
  8
128
 62
7
  6
CONTINUOUS
 10
278.799068
 20
212.134476
 11
299.199068
 21
212.134476
  0
LINE
  8
128
 62
7
  6
CONTINUOUS
 10
299.199068
 20
182.134476
 11
299.199068
 21
213.134476
  0
LINE
  8
128
 62
7
  6
CONTINUOUS
 10
278.799068
 20
183.134476
 11
278.799068
 21
213.134476
  0
LINE
  8
128
 62
7
  6
CONTINUOUS
 10
299.199068
 20
212.134476
 11
295.999068
 21
211.718476
  0
LINE
  8
128
 62
7
  6
CONTINUOUS
 10
295.999068
 20
211.718476
 11
295.999068
 21
212.550476
  0
LINE
  8
128
 62
7
  6
CONTINUOUS
 10
295.999068
 20
212.550476
 11
299.199068
 21
212.134476
  0
LINE
  8
128
 62
7
  6
CONTINUOUS
 10
278.799068
 20
212.134476
 11
281.999068
 21
212.550476
  0
LINE
  8
128
 62
7
  6
CONTINUOUS
 10
281.999068
 20
212.550476
 11
281.999068
 21
211.718476
  0
LINE
  8
128
 62
7
  6
CONTINUOUS
 10
281.999068
 20
211.718476
 11
278.799068
 21
212.134476
  0
TEXT
  8
128
 62
7
  6
CONTINUOUS
 10
284.436097
 20
213.734476
 40
3.200000
 41
0.900000
  1
20.8
  7
KANJI
 50
0.000000
 51
0.000000
  0
TEXT
  8
128
 62
7
  6
CONTINUOUS
 10
282.356097
 20
213.734476
 40
3.200000
 41
0.900000
  1
(
  7
KANJI
 50
0.000000
 51
0.000000
  0
TEXT
  8
128
 62
7
  6
CONTINUOUS
 10
294.756097
 20
213.734476
 40
3.200000
 41
0.900000
  1
)
  7
KANJI
 50
0.000000
 51
0.000000
  0
LINE
  8
1
 62
7
  6
CONTINUOUS
 10
249.299068
 20
165.134476
 11
249.299068
 21
190.455844
  0
LINE
  8
1
 62
7
  6
CONTINUOUS
 10
249.299068
 20
160.134476
 11
249.299068
 21
165.134476
  0
LINE
  8
1
 62
7
  6
CONTINUOUS
 10
249.299068
 20
153.734476
 11
249.299068
 21
160.134476
  0
LINE
  8
1
 62
7
  6
CONTINUOUS
 10
262.012133
 20
165.134476
 11
247.799068
 21
165.134476
  0
LINE
  8
1
 62
7
  6
CONTINUOUS
 10
262.012133
 20
160.134476
 11
247.799068
 21
160.134476
  0
LINE
  8
1
 62
7
  6
CONTINUOUS
 10
249.299068
 20
165.134476
 11
248.883068
 21
168.334476
  0
LINE
  8
1
 62
7
  6
CONTINUOUS
 10
248.883068
 20
168.334476
 11
249.715068
 21
168.334476
  0
LINE
  8
1
 62
7
  6
CONTINUOUS
 10
249.715068
 20
168.334476
 11
249.299068
 21
165.134476
  0
LINE
  8
1
 62
7
  6
CONTINUOUS
 10
249.299068
 20
160.134476
 11
249.715068
 21
156.934476
  0
LINE
  8
1
 62
7
  6
CONTINUOUS
 10
249.715068
 20
156.934476
 11
248.883068
 21
156.934476
  0
LINE
  8
1
 62
7
  6
CONTINUOUS
 10
248.883068
 20
156.934476
 11
249.299068
 21
160.134476
  0
TEXT
  8
1
 62
7
  6
CONTINUOUS
 10
246.499068
 20
179.591844
 40
3.200000
 41
0.900000
  1
5
  7
KANJI
 50
90.000000
 51
0.000000
  0
TEXT
  8
1
 62
7
  6
CONTINUOUS
 10
244.419068
 20
183.111844
 40
1.920000
 41
0.900000
  1
 0
  7
KANJI
 50
90.000000
 51
0.000000
  0
TEXT
  8
1
 62
7
  6
CONTINUOUS
 10
247.299068
 20
183.111844
 40
1.920000
 41
0.900000
  1
-0.011
  7
KANJI
 50
90.000000
 51
0.000000
  0
TEXT
  8
1
 62
7
  6
CONTINUOUS
 10
246.499068
 20
175.947399
 40
3.200000
 41
0.900000
  1
φ
  7
KANJI
 50
90.000000
 51
0.000000
  0
LINE
  8
1
 62
7
  6
CONTINUOUS
 10
262.299068
 20
212.134476
 11
278.799068
 21
212.134476
  0
LINE
  8
1
 62
7
  6
CONTINUOUS
 10
278.799068
 20
183.134476
 11
278.799068
 21
213.634476
  0
LINE
  8
1
 62
7
  6
CONTINUOUS
 10
262.299068
 20
165.921919
 11
262.299068
 21
213.634476
  0
LINE
  8
1
 62
7
  6
CONTINUOUS
 10
278.799068
 20
212.134476
 11
275.599068
 21
211.718476
  0
LINE
  8
1
 62
7
  6
CONTINUOUS
 10
275.599068
 20
211.718476
 11
275.599068
 21
212.550476
  0
LINE
  8
1
 62
7
  6
CONTINUOUS
 10
275.599068
 20
212.550476
 11
278.799068
 21
212.134476
  0
LINE
  8
1
 62
7
  6
CONTINUOUS
 10
262.299068
 20
212.134476
 11
265.499068
 21
212.550476
  0
LINE
  8
1
 62
7
  6
CONTINUOUS
 10
265.499068
 20
212.550476
 11
265.499068
 21
211.718476
  0
LINE
  8
1
 62
7
  6
CONTINUOUS
 10
265.499068
 20
211.718476
 11
262.299068
 21
212.134476
  0
TEXT
  8
1
 62
7
  6
CONTINUOUS
 10
263.166537
 20
214.134476
 40
3.200000
 41
0.900000
  1
16.5
  7
KANJI
 50
0.000000
 51
0.000000
  0
TEXT
  8
1
 62
7
  6
CONTINUOUS
 10
272.526537
 20
214.774476
 40
1.920000
 41
0.900000
  1
±0.5
  7
KANJI
 50
0.000000
 51
0.000000
  0
LINE
  8
1
 62
7
  6
CONTINUOUS
 10
152.421591
 20
139.034476
 11
152.421591
 21
125.446455
  0
LINE
  8
1
 62
7
  6
CONTINUOUS
 10
152.421591
 20
139.034476
 11
152.421591
 21
143.134476
  0
LINE
  8
1
 62
7
  6
CONTINUOUS
 10
152.421591
 20
149.534476
 11
152.421591
 21
143.134476
  0
LINE
  8
1
 62
7
  6
CONTINUOUS
 10
172.246741
 20
143.134476
 11
150.921591
 21
143.134476
  0
LINE
  8
1
 62
7
  6
CONTINUOUS
 10
181.921591
 20
139.034476
 11
150.921591
 21
139.034476
  0
LINE
  8
1
 62
7
  6
CONTINUOUS
 10
152.421591
 20
143.134476
 11
152.005591
 21
146.334476
  0
LINE
  8
1
 62
7
  6
CONTINUOUS
 10
152.005591
 20
146.334476
 11
152.837591
 21
146.334476
  0
LINE
  8
1
 62
7
  6
CONTINUOUS
 10
152.837591
 20
146.334476
 11
152.421591
 21
143.134476
  0
LINE
  8
1
 62
7
  6
CONTINUOUS
 10
152.421591
 20
139.034476
 11
152.837591
 21
135.834476
  0
LINE
  8
1
 62
7
  6
CONTINUOUS
 10
152.837591
 20
135.834476
 11
152.005591
 21
135.834476
  0
LINE
  8
1
 62
7
  6
CONTINUOUS
 10
152.005591
 20
135.834476
 11
152.421591
 21
139.034476
  0
TEXT
  8
1
 62
7
  6
CONTINUOUS
 10
150.421591
 20
130.726455
 40
3.200000
 41
0.900000
  1
4.1
  7
KANJI
 50
90.000000
 51
0.000000
  0
TEXT
  8
1
 62
7
  6
CONTINUOUS
 10
150.421591
 20
125.446455
 40
3.200000
 41
0.900000
  1
※(
  7
KANJI
 50
90.000000
 51
0.000000
  0
TEXT
  8
1
 62
7
  6
CONTINUOUS
 10
150.421591
 20
137.206455
 40
3.200000
 41
0.900000
  1
)
  7
KANJI
 50
90.000000
 51
0.000000
  0
LINE
  8
1
 62
7
  6
CONTINUOUS
 10
221.421591
 20
143.134476
 11
221.421591
 21
153.008678
  0
LINE
  8
1
 62
7
  6
CONTINUOUS
 10
221.421591
 20
140.134476
 11
221.421591
 21
143.134476
  0
LINE
  8
1
 62
7
  6
CONTINUOUS
 10
221.421591
 20
133.734476
 11
221.421591
 21
140.134476
  0
LINE
  8
1
 62
7
  6
CONTINUOUS
 10
211.596391
 20
143.134476
 11
222.921591
 21
143.134476
  0
LINE
  8
1
 62
7
  6
CONTINUOUS
 10
203.421591
 20
140.134476
 11
222.921591
 21
140.134476
  0
LINE
  8
1
 62
7
  6
CONTINUOUS
 10
221.421591
 20
143.134476
 11
221.005591
 21
146.334476
  0
LINE
  8
1
 62
7
  6
CONTINUOUS
 10
221.005591
 20
146.334476
 11
221.837591
 21
146.334476
  0
LINE
  8
1
 62
7
  6
CONTINUOUS
 10
221.837591
 20
146.334476
 11
221.421591
 21
143.134476
  0
LINE
  8
1
 62
7
  6
CONTINUOUS
 10
221.421591
 20
140.134476
 11
221.837591
 21
136.934476
  0
LINE
  8
1
 62
7
  6
CONTINUOUS
 10
221.837591
 20
136.934476
 11
221.005591
 21
136.934476
  0
LINE
  8
1
 62
7
  6
CONTINUOUS
 10
221.005591
 20
136.934476
 11
221.421591
 21
140.134476
  0
TEXT
  8
1
 62
7
  6
CONTINUOUS
 10
219.160871
 20
149.008678
 40
3.200000
 41
0.900000
  1
3
  7
KANJI
 50
90.000000
 51
0.000000
  0
TEXT
  8
1
 62
7
  6
CONTINUOUS
 10
219.160871
 20
146.928678
 40
3.200000
 41
0.900000
  1
(
  7
KANJI
 50
90.000000
 51
0.000000
  0
TEXT
  8
1
 62
7
  6
CONTINUOUS
 10
219.160871
 20
152.528678
 40
3.200000
 41
0.900000
  1
)
  7
KANJI
 50
90.000000
 51
0.000000
  0
LINE
  8
1
 62
7
  6
CONTINUOUS
 10
204.394213
 20
97.569101
 11
192.972711
 21
97.569101
  0
LINE
  8
1
 62
7
  6
CONTINUOUS
 10
204.394213
 20
97.569101
 11
207.894213
 21
97.569101
  0
LINE
  8
1
 62
7
  6
CONTINUOUS
 10
214.294213
 20
97.569101
 11
207.894213
 21
97.569101
  0
LINE
  8
1
 62
7
  6
CONTINUOUS
 10
207.894213
 20
88.294101
 11
207.894213
 21
99.069101
  0
LINE
  8
1
 62
7
  6
CONTINUOUS
 10
204.394213
 20
88.569101
 11
204.394213
 21
99.069101
  0
LINE
  8
1
 62
7
  6
CONTINUOUS
 10
204.394213
 20
97.569101
 11
201.194213
 21
97.153101
  0
LINE
  8
1
 62
7
  6
CONTINUOUS
 10
201.194213
 20
97.153101
 11
201.194213
 21
97.985101
  0
LINE
  8
1
 62
7
  6
CONTINUOUS
 10
201.194213
 20
97.985101
 11
204.394213
 21
97.569101
  0
LINE
  8
1
 62
7
  6
CONTINUOUS
 10
207.894213
 20
97.569101
 11
211.094213
 21
97.985101
  0
LINE
  8
1
 62
7
  6
CONTINUOUS
 10
211.094213
 20
97.985101
 11
211.094213
 21
97.153101
  0
LINE
  8
1
 62
7
  6
CONTINUOUS
 10
211.094213
 20
97.153101
 11
207.894213
 21
97.569101
  0
TEXT
  8
1
 62
7
  6
CONTINUOUS
 10
195.052711
 20
99.569101
 40
3.200000
 41
0.900000
  1
3.5
  7
KANJI
 50
0.000000
 51
0.000000
  0
TEXT
  8
1
 62
7
  6
CONTINUOUS
 10
192.972711
 20
99.569101
 40
3.200000
 41
0.900000
  1
(
  7
KANJI
 50
0.000000
 51
0.000000
  0
TEXT
  8
1
 62
7
  6
CONTINUOUS
 10
202.492711
 20
99.569101
 40
3.200000
 41
0.900000
  1
)
  7
KANJI
 50
0.000000
 51
0.000000
  0
LINE
  8
1
 62
7
  6
CONTINUOUS
 10
143.553142
 20
110.569101
 11
207.894213
 21
110.569101
  0
LINE
  8
1
 62
7
  6
CONTINUOUS
 10
143.553142
 20
92.469101
 11
143.553142
 21
112.069101
  0
LINE
  8
1
 62
7
  6
CONTINUOUS
 10
207.894213
 20
88.294101
 11
207.894213
 21
112.069101
  0
LINE
  8
1
 62
7
  6
CONTINUOUS
 10
143.553142
 20
110.569101
 11
146.753142
 21
110.985101
  0
LINE
  8
1
 62
7
  6
CONTINUOUS
 10
146.753142
 20
110.985101
 11
146.753142
 21
110.153101
  0
LINE
  8
1
 62
7
  6
CONTINUOUS
 10
146.753142
 20
110.153101
 11
143.553142
 21
110.569101
  0
LINE
  8
1
 62
7
  6
CONTINUOUS
 10
207.894213
 20
110.569101
 11
204.694213
 21
110.153101
  0
LINE
  8
1
 62
7
  6
CONTINUOUS
 10
204.694213
 20
110.153101
 11
204.694213
 21
110.985101
  0
LINE
  8
1
 62
7
  6
CONTINUOUS
 10
204.694213
 20
110.985101
 11
207.894213
 21
110.569101
  0
TEXT
  8
1
 62
7
  6
CONTINUOUS
 10
167.951531
 20
113.369101
 40
3.200000
 41
0.900000
  1
200
  7
KANJI
 50
0.000000
 51
0.000000
  0
TEXT
  8
1
 62
7
  6
CONTINUOUS
 10
177.231531
 20
115.449101
 40
1.920000
 41
0.900000
  1
+40
  7
KANJI
 50
0.000000
 51
0.000000
  0
TEXT
  8
1
 62
7
  6
CONTINUOUS
 10
178.959531
 20
112.569101
 40
1.920000
 41
0.900000
  1
 0
  7
KANJI
 50
0.000000
 51
0.000000
  0
LINE
  8
1
 62
7
  6
CONTINUOUS
 10
288.556644
 20
210.906386
 11
288.556644
 21
184.906386
  0
LINE
  8
1
 62
7
  6
CONTINUOUS
 10
282.556644
 20
184.906386
 11
282.556644
 21
210.906386
  0
LINE
  8
1
 62
7
  6
CONTINUOUS
 10
282.556644
 20
210.906386
 11
288.556644
 21
210.906386
  0
LINE
  8
1
 62
7
  6
CONTINUOUS
 10
285.556644
 20
186.406386
 11
285.556644
 21
188.906386
  0
LINE
  8
1
 62
7
  6
CONTINUOUS
 10
288.056644
 20
187.906386
 11
283.056644
 21
187.906386
  0
LINE
  8
1
 62
7
  6
CONTINUOUS
 10
283.056644
 20
187.906386
 11
285.556644
 21
186.406386
  0
LINE
  8
1
 62
7
  6
CONTINUOUS
 10
282.556644
 20
190.906386
 11
288.556644
 21
190.906386
  0
LINE
  8
1
 62
7
  6
CONTINUOUS
 10
288.556644
 20
184.906386
 11
282.556644
 21
184.906386
  0
TEXT
  8
1
 62
7
  6
CONTINUOUS
 10
293.983463
 20
187.126675
 40
5.000000
 41
0.900000
  1
(   )
  7
KANJI
 50
90.000000
 51
0.000000
  0
TEXT
  8
1
 62
7
  6
CONTINUOUS
 10
291.063816
 20
190.643756
 40
2.000000
 41
0.900000
  1
DIRECTION
  7
KANJI
 50
90.000000
 51
0.000000
  0
TEXT
  8
1
 62
7
  6
CONTINUOUS
 10
294.063816
 20
190.643756
 40
2.000000
 41
0.900000
  1
OF LETTER
  7
KANJI
 50
90.000000
 51
0.000000
  0
TEXT
  8
1
 62
7
  6
CONTINUOUS
 10
287.556644
 20
191.953132
 40
4.000000
 41
0.900000
  1
文字ノ向キ
  7
KANJI
 50
90.000000
 51
0.000000
  0
LINE
  8
1
 62
7
  6
CONTINUOUS
 10
208.647129
 20
146.269573
 11
231.347959
 21
130.248845
  0
LINE
  8
1
 62
7
  6
CONTINUOUS
 10
231.347959
 20
130.248845
 11
257.747959
 21
130.248845
  0
LINE
  8
1
 62
7
  6
CONTINUOUS
 10
208.647129
 20
146.269573
 11
211.501476
 21
144.764330
  0
LINE
  8
1
 62
7
  6
CONTINUOUS
 10
211.501476
 20
144.764330
 11
211.021743
 21
144.084565
  0
LINE
  8
1
 62
7
  6
CONTINUOUS
 10
211.021743
 20
144.084565
 11
208.647129
 21
146.269573
  0
TEXT
  8
1
 62
7
  6
CONTINUOUS
 10
245.827959
 20
132.248845
 40
3.200000
 41
0.900000
  1
3×0.5
  7
KANJI
 50
0.000000
 51
0.000000
  0
TEXT
  8
1
 62
7
  6
CONTINUOUS
 10
236.547959
 20
132.248845
 40
3.200000
 41
0.900000
  1
4-M
  7
KANJI
 50
0.000000
 51
0.000000
  0
ENDSEC
  0
EOF
