  0
SECTION
  2
HEADER
  9
$ACADVER
  1
AC1009
  9
$INSBASE
 10
0
 20
0
  9
$EXTMIN
 10
30.28929922266724
 20
-16.63691364995781
  9
$EXTMAX
 10
457.1778833203089
 20
343.3919232224014
  9
$LIMMIN
 10
30.28929922266724
 20
-16.63691364995781
  9
$LIMMAX
 10
457.1778833203089
 20
343.3919232224014
  9
$VIEWCTR
 10
10
 20
10
  9
$VIEWSIZE
 40
10
  9
$SNAPMODE
 70
0
  9
$SNAPUNIT
 10
1
 20
1
  9
$SNAPBASE
 10
0
 20
0
  9
$SNAPANG
 50
0
  9
$SNAPSTYLE
 70
0
  9
$SNAPISOPAIR
 70
0
  9
$GRIDMODE
 70
0
  9
$GRIDUNIT
 10
0
 20
0
  9
$ORTHOMODE
 70
0
  9
$REGENMODE
 70
1
  9
$FILLMODE
 70
1
  9
$QTEXTMODE
 70
0
  9
$DRAGMODE
 70
2
  9
$LTSCALE
 40
1
  9
$OSMODE
 70
0
  9
$ATTMODE
 70
1
  9
$TEXTSIZE
 40
3.5
  9
$TRACEWID
 40
0.5
  9
$TEXTSTYLE
  7
STANDARD
  9
$CLAYER
  8
0
  9
$CELTYPE
  6
BYLAYER
  9
$CECOLOR
 62
256
  9
$DIMSCALE
 40
1
  9
$DIMASZ
 40
0.18
  9
$DIMEXO
 40
0.0625
  9
$DIMDLI
 40
0.38
  9
$DIMRND
 40
0
  9
$DIMDLE
 40
0
  9
$DIMEXE
 40
0.18
  9
$DIMTP
 40
0
  9
$DIMTM
 40
0
  9
$DIMTXT
 40
0.18
  9
$DIMCEN
 40
0.09
  9
$DIMTSZ
 40
0
  9
$DIMTOL
 70
0
  9
$DIMLIM
 70
0
  9
$DIMTIH
 70
1
  9
$DIMTOH
 70
1
  9
$DIMSE1
 70
0
  9
$DIMSE2
 70
0
  9
$DIMTAD
 70
0
  9
$DIMZIN
 70
0
  9
$DIMBLK
  1

  9
$DIMASO
 70
1
  9
$DIMSHO
 70
1
  9
$DIMPOST
  1

  9
$DIMAPOST
  1

  9
$DIMALT
 70
0
  9
$DIMALTD
 70
2
  9
$DIMALTF
 40
25.4
  9
$DIMLFAC
 40
1
  9
$DIMTOFL
 70
0
  9
$DIMTVP
 40
0
  9
$DIMTIX
 70
0
  9
$DIMSOXD
 70
0
  9
$DIMSAH
 70
0
  9
$DIMBLK1
  1

  9
$DIMBLK2
  1

  9
$DIMSTYLE
  2
*UNNAMED
  9
$DIMCLRD
 70
0
  9
$DIMCLRE
 70
0
  9
$DIMCLRT
 70
0
  9
$DIMTFAC
 40
1
  9
$DIMGAP
 40
0.09
  9
$LUNITS
 70
2
  9
$LUPREC
 70
4
  9
$AXISMODE
 70
0
  9
$AXISUNIT
 10
0
 20
0
  9
$SKETCHINC
 40
0.1
  9
$FILLETRAD
 40
2
  9
$AUNITS
 70
0
  9
$AUPREC
 70
0
  9
$MENU
  1
ACAD
  9
$ELEVATION
 40
0
  9
$THICKNESS
 40
0
  9
$VIEWDIR
 10
0
 20
0
 30
1
  9
$LIMCHECK
 70
0
  9
$BLIPMODE
 70
1
  9
$CHAMFERA
 40
0
  9
$CHAMFERB
 40
0
  9
$FASTZOOM
 70
1
  9
$SKPOLY
 70
0
  9
$ANGBASE
 50
0
  9
$ANGDIR
 70
0
  9
$PDMODE
 70
0
  9
$PDSIZE
 40
0
  9
$PLINEWID
 40
0
  9
$COORDS
 70
2
  0
ENDSEC
  0
SECTION
  2
TABLES
  0
TABLE
  2
DIMSTYLE
 70
0
  0
ENDTAB
  0
TABLE
  2
LTYPE
 70
9
  0
LTYPE
  2
CONTINUOUS
 70
64
  3
Solid line
 72
65
 73
0
 40
0
  0
LTYPE
  2
BORDER
 70
64
  3
__ __ . __ __ .
 72
65
 73
6
 40
19.65934268870718
 49
5.616955053916338
 49
-2.808477526958169
 49
5.616955053916338
 49
-2.808477526958169
 49
0
 49
-2.808477526958169
  0
LTYPE
  2
CENTER
 70
64
  3
____ _ ____ _
 72
65
 73
4
 40
22.46782021566535
 49
14.04238763479085
 49
-2.808477526958169
 49
2.808477526958169
 49
-2.808477526958169
  0
LTYPE
  2
DASHDOT
 70
64
  3
__ . __ . __ .
 72
65
 73
4
 40
11.23391010783268
 49
5.616955053916338
 49
-2.808477526958169
 49
0
 49
-2.808477526958169
  0
LTYPE
  2
DASHED
 70
64
  3
__ __ __ __ __
 72
65
 73
2
 40
8.425432580874507
 49
5.616955053916338
 49
-2.808477526958169
  0
LTYPE
  2
DIVIDE
 70
64
  3
__ . . __ . . 
 72
65
 73
6
 40
14.04238763479085
 49
5.616955053916338
 49
-2.808477526958169
 49
0
 49
-2.808477526958169
 49
0
 49
-2.808477526958169
  0
LTYPE
  2
DOT
 70
64
  3
..............
 72
65
 73
4
 40
5.616955053916338
 49
0
 49
-2.808477526958169
 49
0
 49
-2.808477526958169
  0
LTYPE
  2
HIDDEN
 70
64
  3
_ _ _ _ _ _ _
 72
65
 73
2
 40
4.212716290437253
 49
2.808477526958169
 49
-1.404238763479085
  0
LTYPE
  2
PHANTOM
 70
64
  3
_____ _ _ _____ _ _ 
 72
65
 73
6
 40
28.08477526958169
 49
14.04238763479085
 49
-2.808477526958169
 49
2.808477526958169
 49
-2.808477526958169
 49
2.808477526958169
 49
-2.808477526958169
  0
ENDTAB
  0
TABLE
  2
LAYER
 70
3
  0
LAYER
  2
1
 70
0
 62
7
  6
CONTINUOUS
  0
LAYER
  2
0
 70
0
 62
7
  6
CONTINUOUS
  0
ENDTAB
  0
TABLE
  2
STYLE
 70
4
  0
STYLE
  2
STANDARD
 70
0
 40
0
 41
1
 50
0
 71
0
 42
3.5
  3
txt
  4

  0
STYLE
  2
SIMPLEX
 70
0
 40
0
 41
1
 50
0
 71
0
 42
3.5
  3
simplex
  4

  0
STYLE
  2
COMPLEX
 70
0
 40
0
 41
1
 50
0
 71
0
 42
3.5
  3
complex
  4

  0
STYLE
  2
ITALIC
 70
0
 40
0
 41
1
 50
0
 71
0
 42
3.5
  3
italic
  4

  0
ENDTAB
  0
TABLE
  2
VIEW
 70
0
  0
ENDTAB
  0
ENDSEC
  0
SECTION
  2
BLOCKS
  0
BLOCK
  8
1
  2
*X0
 70
1
 10
0
 20
0
 30
0
  0
LINE
  8
1
 62
3
 10
231.5536900082111
 20
324.0432569874114
 30
0
 11
231.9623562432013
 21
324.4519232224016
 31
0
  0
LINE
  8
1
 62
3
 10
231.5536900082111
 20
323.6189929186995
 30
0
 11
232.3866203119132
 21
324.4519232224016
 31
0
  0
LINE
  8
1
 62
3
 10
231.5536900082111
 20
323.1947288499876
 30
0
 11
232.8108843806251
 21
324.4519232224016
 31
0
  0
LINE
  8
1
 62
3
 10
231.7351484493371
 20
322.9519232224016
 30
0
 11
233.2351484493371
 21
324.4519232224016
 31
0
  0
LINE
  8
1
 62
3
 10
232.159412518049
 20
322.9519232224016
 30
0
 11
233.659412518049
 21
324.4519232224016
 31
0
  0
LINE
  8
1
 62
3
 10
232.5836765867609
 20
322.9519232224016
 30
0
 11
234.0836765867609
 21
324.4519232224016
 31
0
  0
LINE
  8
1
 62
3
 10
233.0079406554729
 20
322.9519232224016
 30
0
 11
234.5079406554728
 21
324.4519232224016
 31
0
  0
LINE
  8
1
 62
3
 10
233.4322047241848
 20
322.9519232224016
 30
0
 11
234.5536900082111
 21
324.0734085064279
 31
0
  0
LINE
  8
1
 62
3
 10
233.8564687928967
 20
322.9519232224016
 30
0
 11
234.5536900082111
 21
323.649144437716
 31
0
  0
LINE
  8
1
 62
3
 10
234.2807328616086
 20
322.9519232224016
 30
0
 11
234.5536900082111
 21
323.2248803690041
 31
0
  0
ENDBLK
  8
0
  0
BLOCK
  8
1
  2
*X1
 70
1
 10
0
 20
0
 30
0
  0
LINE
  8
1
 62
3
 10
232.5536900082111
 20
327.1645773309711
 30
0
 11
232.8410358996416
 21
327.4519232224016
 31
0
  0
LINE
  8
1
 62
3
 10
232.5536900082111
 20
326.7403132622592
 30
0
 11
233.2652999683535
 21
327.4519232224016
 31
0
  0
LINE
  8
1
 62
3
 10
232.5536900082111
 20
326.3160491935473
 30
0
 11
233.5536900082111
 21
327.3160491935472
 31
0
  0
LINE
  8
1
 62
3
 10
232.5536900082111
 20
325.8917851248353
 30
0
 11
233.5536900082111
 21
326.8917851248353
 31
0
  0
LINE
  8
1
 62
3
 10
232.5536900082111
 20
325.4675210561234
 30
0
 11
233.5536900082111
 21
326.4675210561234
 31
0
  0
LINE
  8
1
 62
3
 10
232.5536900082111
 20
325.0432569874115
 30
0
 11
233.5536900082111
 21
326.0432569874114
 31
0
  0
LINE
  8
1
 62
3
 10
232.5536900082111
 20
324.6189929186996
 30
0
 11
233.5536900082111
 21
325.6189929186995
 31
0
  0
LINE
  8
1
 62
3
 10
232.8108843806251
 20
324.4519232224016
 30
0
 11
233.5536900082111
 21
325.1947288499876
 31
0
  0
LINE
  8
1
 62
3
 10
233.235148449337
 20
324.4519232224016
 30
0
 11
233.5536900082111
 21
324.7704647812757
 31
0
  0
ENDBLK
  8
0
  0
ENDSEC
  0
SECTION
  2
ENTITIES
  0
INSERT
  8
1
  2
*X0
 10
0
 20
0
 30
0
  0
INSERT
  8
1
  2
*X1
 10
0
 20
0
 30
0
  0
LINE
  8
1
 62
3
 10
372.077883320309
 20
143.4096709069608
 30
0
 11
383.077883320309
 21
143.4096709069608
 31
0
  0
LINE
  8
1
 62
3
 10
436.35295387386
 20
143.4096709069607
 30
0
 11
447.077883320309
 21
143.4096709069608
 31
0
  0
LINE
  8
1
 62
3
 10
454.577883320309
 20
225.9096709069608
 30
0
 11
454.577883320309
 21
150.9096709069608
 31
0
  0
LINE
  8
1
 62
3
 10
364.577883320309
 20
150.9096709069608
 30
0
 11
364.577883320309
 21
188.4096709069607
 31
0
  0
LINE
  8
1
 62
3
 10
364.577883320309
 20
188.4096709069607
 30
0
 11
364.577883320309
 21
225.9096709069608
 31
0
  0
LINE
  8
1
 62
3
 10
409.577883320309
 20
233.4096709069607
 30
0
 11
447.077883320309
 21
233.4096709069608
 31
0
  0
LINE
  8
1
 62
3
 10
372.077883320309
 20
233.4096709069608
 30
0
 11
409.577883320309
 21
233.4096709069607
 31
0
  0
LINE
  8
1
 62
1
 10
48.53929922266735
 20
225.1596709069608
 30
0
 11
38.53929922266735
 21
225.1596709069608
 31
0
  0
LINE
  8
1
 62
1
 10
43.53929922266735
 20
220.1596709069608
 30
0
 11
43.53929922266735
 21
230.1596709069608
 31
0
  0
LINE
  8
1
 62
1
 10
122.0392992226673
 20
225.1596709069608
 30
0
 11
112.0392992226673
 21
225.1596709069608
 31
0
  0
LINE
  8
1
 62
1
 10
117.0392992226673
 20
220.1596709069608
 30
0
 11
117.0392992226673
 21
230.1596709069608
 31
0
  0
LINE
  8
1
 62
1
 10
48.53929922266735
 20
151.6596709069608
 30
0
 11
38.53929922266735
 21
151.6596709069608
 31
0
  0
LINE
  8
1
 62
1
 10
43.53929922266735
 20
146.6596709069608
 30
0
 11
43.53929922266735
 21
156.6596709069608
 31
0
  0
LINE
  8
1
 62
3
 10
229.7928969012587
 20
160.4096709069603
 30
0
 11
226.2928891630426
 21
160.4096709069603
 31
0
  0
LINE
  8
1
 62
3
 10
229.7928969012587
 20
216.4096709069607
 30
0
 11
226.2928891630426
 21
216.4096709069607
 31
0
  0
LINE
  8
1
 62
3
 10
227.7928891630426
 20
220.5596709069631
 30
0
 11
226.2928891630426
 21
220.5596709069631
 31
0
  0
LINE
  8
1
 62
3
 10
227.7928891630426
 20
229.759670906963
 30
0
 11
226.2928891630426
 21
229.759670906963
 31
0
  0
LINE
  8
1
 62
3
 10
227.7928891630426
 20
229.759670906963
 30
0
 11
227.7928891630426
 21
220.5596709069631
 31
0
  0
LINE
  8
1
 62
3
 10
227.7928891630426
 20
156.2596709069607
 30
0
 11
227.7928891630426
 21
147.0596709069607
 31
0
  0
LINE
  8
1
 62
3
 10
227.7928891630426
 20
147.0596709069607
 30
0
 11
226.2928891630426
 21
147.0596709069607
 31
0
  0
LINE
  8
1
 62
3
 10
226.2928891630426
 20
156.2596709069607
 30
0
 11
227.7928891630426
 21
156.2596709069607
 31
0
  0
LINE
  8
1
 62
3
 10
226.2928891630426
 20
233.4096709069605
 30
0
 11
226.2928891630426
 21
143.4096709069606
 31
0
  0
LINE
  8
1
 62
1
 10
122.0392992226673
 20
151.6596709069608
 30
0
 11
112.0392992226673
 21
151.6596709069607
 31
0
  0
LINE
  8
1
 62
1
 10
117.0392992226673
 20
146.6596709069607
 30
0
 11
117.0392992226673
 21
156.6596709069607
 31
0
  0
LINE
  8
1
 62
3
 10
42.78929922266724
 20
143.4096709069608
 30
0
 11
51.7892992226673
 21
143.4096709069607
 31
0
  0
LINE
  8
1
 62
3
 10
54.7892992226673
 20
143.4096709069607
 30
0
 11
51.7892992226673
 21
143.4096709069607
 31
0
  0
LINE
  8
1
 62
3
 10
55.78929922266757
 20
143.4096709069605
 30
0
 11
108.7892992226673
 21
143.4096709069607
 31
0
  0
LINE
  8
1
 62
3
 10
105.7892992226673
 20
143.4096709069607
 30
0
 11
108.7892992226673
 21
143.4096709069607
 31
0
  0
LINE
  8
1
 62
3
 10
100.7892992226673
 20
134.9096709069608
 30
0
 11
59.78929922266727
 21
134.9096709069604
 31
0
  0
LINE
  8
1
 62
3
 10
101.7892992226673
 20
139.4096709069607
 30
0
 11
101.7892992226673
 21
135.9096709069608
 31
0
  0
LINE
  8
1
 62
3
 10
58.78929922266727
 20
139.4096709069607
 30
0
 11
58.78929922266727
 21
135.9096709069604
 31
0
  0
LINE
  8
1
 62
3
 10
51.7892992226673
 20
143.4096709069607
 30
0
 11
55.78929922266757
 21
143.4096709069605
 31
0
  0
LINE
  8
1
 62
3
 10
35.28929922266724
 20
150.9096709069608
 30
0
 11
35.28929922266724
 21
225.9096709069608
 31
0
  0
LINE
  8
1
 62
3
 10
42.78929922266724
 20
233.4096709069608
 30
0
 11
80.28929922266727
 21
233.4096709069607
 31
0
  0
LINE
  8
1
 62
3
 10
108.7892992226673
 20
143.4096709069607
 30
0
 11
117.7892992226673
 21
143.4096709069608
 31
0
  0
LINE
  8
1
 62
1
 10
80.28929922266725
 20
238.4096709069607
 30
0
 11
80.28929922266727
 21
129.9096709069606
 31
0
  0
LINE
  8
1
 62
3
 10
125.2892992226673
 20
188.4096709069607
 30
0
 11
125.2892992226673
 21
150.9096709069608
 31
0
  0
LINE
  8
1
 62
3
 10
80.28929922266727
 20
233.4096709069607
 30
0
 11
117.7892992226673
 21
233.4096709069608
 31
0
  0
LINE
  8
1
 62
3
 10
125.2892992226673
 20
225.9096709069608
 30
0
 11
125.2892992226673
 21
188.4096709069607
 31
0
  0
LINE
  8
1
 62
3
 10
229.7928969012588
 20
233.4096709069602
 30
0
 11
229.9428969012652
 21
233.4096709069605
 31
0
  0
LINE
  8
1
 62
3
 10
233.4928891630426
 20
230.1109898309468
 30
0
 11
233.4928891630426
 21
228.1096622368128
 31
0
  0
LINE
  8
1
 62
3
 10
229.7928969012587
 20
230.1109898309468
 30
0
 11
233.4928891630426
 21
230.1109898309468
 31
0
  0
LINE
  8
1
 62
3
 10
229.7928969012587
 20
230.1109898309468
 30
0
 11
229.7928969012588
 21
233.4096709069602
 31
0
  0
LINE
  8
1
 62
3
 10
229.9428969012652
 20
233.4096709069605
 30
0
 11
219.7928891630426
 21
233.4096709069605
 31
0
  0
LINE
  8
1
 62
3
 10
219.7928891630426
 20
233.4096709069605
 30
0
 11
219.7928891630426
 21
229.9096709069605
 31
0
  0
LINE
  8
1
 62
3
 10
217.1428891630424
 20
229.9096709069605
 30
0
 11
219.7928891630426
 21
229.9096709069605
 31
0
  0
LINE
  8
1
 62
3
 10
216.7928891630426
 20
229.5596709069607
 30
0
 11
216.7928891630426
 21
225.4096709069605
 31
0
  0
LINE
  8
1
 62
3
 10
217.1428891630424
 20
229.9096709069605
 30
0
 11
216.7928891630426
 21
229.5596709069607
 31
0
  0
LINE
  8
1
 62
3
 10
229.7928891630429
 20
134.9096709069609
 30
0
 11
220.7928891630429
 21
134.9096709069607
 31
0
  0
LINE
  8
1
 62
3
 10
219.7928891630426
 20
146.9096709069608
 30
0
 11
219.7928891630426
 21
143.4096709069602
 31
0
  0
LINE
  8
1
 62
3
 10
219.7928891630426
 20
146.9096709069608
 30
0
 11
217.1428891630424
 21
146.9096709069608
 31
0
  0
LINE
  8
1
 62
3
 10
217.1428891630424
 20
146.9096709069608
 30
0
 11
216.7928891630426
 21
147.2596709069606
 31
0
  0
LINE
  8
1
 62
3
 10
216.7928891630426
 20
151.4096709069605
 30
0
 11
216.7928891630426
 21
147.2596709069606
 31
0
  0
LINE
  8
1
 62
3
 10
216.7928891630426
 20
193.4096709069605
 30
0
 11
216.7928891630426
 21
151.4096709069605
 31
0
  0
LINE
  8
1
 62
3
 10
216.7928891630426
 20
193.4096709069605
 30
0
 11
216.7928891630426
 21
225.4096709069605
 31
0
  0
LINE
  8
1
 62
3
 10
229.7928891630429
 20
134.9096709069609
 30
0
 11
229.7928891630429
 21
140.1596709069604
 31
0
  0
LINE
  8
1
 62
3
 10
229.7928891630429
 20
143.4096709069608
 30
0
 11
229.7928891630429
 21
140.1596709069604
 31
0
  0
LINE
  8
1
 62
3
 10
233.4928891630426
 20
173.4096709069607
 30
0
 11
233.4928891630426
 21
228.1096622368128
 31
0
  0
LINE
  8
1
 62
3
 10
233.4928891630426
 20
154.3655818458623
 30
0
 11
233.4928891630426
 21
173.4096709069607
 31
0
  0
LINE
  8
1
 62
3
 10
229.7928969012587
 20
152.0366039480143
 30
0
 11
233.4928891630426
 21
152.0366039480143
 31
0
  0
LINE
  8
1
 62
3
 10
229.7928969012588
 20
143.4096709069608
 30
0
 11
229.7928969012587
 21
152.0366039480143
 31
0
  0
LINE
  8
1
 62
3
 10
229.7928891630429
 20
143.4096709069608
 30
0
 11
229.7928969012588
 21
143.4096709069608
 31
0
  0
LINE
  8
1
 62
3
 10
233.4928891630426
 20
152.0366039480143
 30
0
 11
233.4928891630426
 21
154.3655818458623
 31
0
  0
LINE
  8
1
 62
1
 10
30.28929922266724
 20
188.4096709069607
 30
0
 11
130.2892992226673
 21
188.4096709069607
 31
0
  0
LINE
  8
1
 62
3
 10
237.2928891630422
 20
228.5096709069601
 30
0
 11
278.6928891630422
 21
228.5096709069601
 31
0
  0
LINE
  8
1
 62
3
 10
281.2928891630424
 20
225.9096709069602
 30
0
 11
281.2928891630424
 21
197.4096709069602
 31
0
  0
LINE
  8
1
 62
3
 10
281.2928891630424
 20
150.9096709069604
 30
0
 11
281.2928891630424
 21
180.9096709069604
 31
0
  0
LINE
  8
1
 62
3
 10
237.2928891630422
 20
148.3096709069605
 30
0
 11
278.6928891630422
 21
148.3096709069604
 31
0
  0
LINE
  8
1
 62
3
 10
234.6928891630422
 20
229.5096709069601
 30
0
 11
236.2928891630422
 21
229.5096709069601
 31
0
  0
LINE
  8
1
 62
3
 10
234.6928891630424
 20
149.9096795771083
 30
0
 11
234.6928891630422
 21
229.5096709069601
 31
0
  0
LINE
  8
1
 62
3
 10
281.2928891630424
 20
197.4096709069602
 30
0
 11
281.2928891630424
 21
180.9096709069604
 31
0
  0
LINE
  8
1
 62
3
 10
281.2928891630424
 20
180.9096709069604
 30
0
 11
281.2928891630424
 21
196.8096709069604
 31
0
  0
LINE
  8
1
 62
3
 10
281.2928891630424
 20
196.8096709069604
 30
0
 11
281.4928891630422
 21
196.8096709069604
 31
0
  0
LINE
  8
1
 62
3
 10
282.2928891630424
 20
196.0096709069601
 30
0
 11
282.2928891630424
 21
195.7284911647407
 31
0
  0
LINE
  8
1
 62
3
 10
281.2928891630424
 20
180.0096709069603
 30
0
 11
281.2928891630424
 21
180.9096709069604
 31
0
  0
LINE
  8
1
 62
3
 10
281.4928891630422
 20
180.0096709069603
 30
0
 11
281.2928891630424
 21
180.0096709069603
 31
0
  0
LINE
  8
1
 62
3
 10
282.2928891630424
 20
181.09085064918
 30
0
 11
282.2928891630424
 21
180.8096709069604
 31
0
  0
LINE
  8
1
 62
3
 10
282.2928891630424
 20
195.7284911647407
 30
0
 11
282.2928891630424
 21
180.8096709069604
 31
0
  0
LINE
  8
1
 62
3
 10
236.2928891630422
 20
147.3096709069605
 30
0
 11
234.6928891630422
 21
147.3096709069605
 31
0
  0
LINE
  8
1
 62
3
 10
234.6928891630422
 20
147.3096709069605
 30
0
 11
234.6928891630424
 21
149.9096795771083
 31
0
  0
LINE
  8
1
 62
3
 10
219.7928891630426
 20
229.9096709069605
 30
0
 11
219.7928891630426
 21
144.752141822721
 31
0
  0
LINE
  8
1
 62
3
 10
229.7928969012587
 20
230.1109898309468
 30
0
 11
229.7928969012587
 21
152.0366039480143
 31
0
  0
LINE
  8
1
 62
3
 10
229.7928891630429
 20
143.4096709069608
 30
0
 11
219.7928891630426
 21
143.4096709069602
 31
0
  0
LINE
  8
1
 62
3
 10
234.1928891630422
 20
149.9096795771083
 30
0
 11
234.1928891630413
 21
226.9096709069599
 31
0
  0
LINE
  8
1
 62
3
 10
234.6928891630415
 20
226.9096709069599
 30
0
 11
234.1928891630413
 21
226.9096709069599
 31
0
  0
LINE
  8
1
 62
3
 10
234.6928891630424
 20
149.9096795771083
 30
0
 11
234.1928891630422
 21
149.9096795771083
 31
0
  0
LINE
  8
1
 62
3
 10
231.3928969012649
 20
137.9024709069597
 30
0
 11
229.7928891630429
 21
137.9024709069597
 31
0
  0
LINE
  8
1
 62
3
 10
231.3928969012642
 20
141.2024709069601
 30
0
 11
231.3928969012649
 21
137.9024709069597
 31
0
  0
LINE
  8
1
 62
3
 10
237.3928969012642
 20
146.2024709069601
 30
0
 11
237.3928969012642
 21
136.2024709069601
 31
0
  0
LINE
  8
1
 62
3
 10
237.3928969012642
 20
136.2024709069601
 30
0
 11
236.3928969012642
 21
136.2024709069601
 31
0
  0
LINE
  8
1
 62
3
 10
236.3928969012642
 20
136.2024709069601
 30
0
 11
236.3928969012642
 21
141.2024709069601
 31
0
  0
LINE
  8
1
 62
3
 10
236.3928969012642
 20
141.2024709069601
 30
0
 11
232.7715666531858
 21
141.2024709069601
 31
0
  0
LINE
  8
1
 62
3
 10
234.1428969012642
 20
141.2024709069601
 30
0
 11
234.1428969012642
 21
137.2024709069601
 31
0
  0
LINE
  8
1
 62
3
 10
234.1428969012642
 20
137.2024709069601
 30
0
 11
234.6428969012642
 21
137.2024709069601
 31
0
  0
LINE
  8
1
 62
3
 10
234.6428969012642
 20
137.2024709069601
 30
0
 11
234.6428969012642
 21
141.2024709069601
 31
0
  0
LINE
  8
1
 62
3
 10
229.7928891630429
 20
137.9024709069597
 30
0
 11
229.7928891630429
 21
143.4096709069608
 31
0
  0
LINE
  8
1
 62
3
 10
231.3934193581237
 20
140.8020142060657
 30
0
 11
232.1558448201827
 21
140.8020142060659
 31
0
  0
LINE
  8
1
 62
3
 10
233.1934193581236
 20
143.2645142060658
 30
0
 11
233.0184193581237
 21
143.2645142060658
 31
0
  0
LINE
  8
1
 62
3
 10
233.0184193581237
 20
143.2645142060658
 30
0
 11
233.0184193581237
 21
142.5395142060654
 31
0
  0
LINE
  8
1
 62
3
 10
233.0184193581237
 20
142.5395142060654
 30
0
 11
233.1934193581236
 21
142.5395142060654
 31
0
  0
LINE
  8
1
 62
3
 10
231.3934193581241
 20
152.0366039480142
 30
0
 11
231.3934193581237
 21
140.8020142060657
 31
0
  0
LINE
  8
1
 62
3
 10
229.7928891630429
 20
143.4096709069608
 30
0
 11
229.7928891630429
 21
140.1596709069604
 31
0
  0
LINE
  8
1
 62
3
 10
81.28929922266727
 20
180.7096709069607
 30
0
 11
82.11929922266748
 21
180.7096709069607
 31
0
  0
LINE
  8
1
 62
3
 10
79.28929922266727
 20
181.7096709069607
 30
0
 11
78.47929922266737
 21
181.7096709069607
 31
0
  0
LINE
  8
1
 62
3
 10
81.28929922266727
 20
183.0974315597261
 30
0
 11
82.09929922266738
 21
183.0974315597261
 31
0
  0
LINE
  8
1
 62
3
 10
81.28929922266727
 20
181.7096709069607
 30
0
 11
81.28929922266727
 21
180.7096709069607
 31
0
  0
LINE
  8
1
 62
3
 10
79.28929922266727
 20
181.7096709069607
 30
0
 11
79.28929922266727
 21
180.7096709069607
 31
0
  0
LINE
  8
1
 62
3
 10
81.28929922266727
 20
183.5366875607533
 30
0
 11
81.28929922266727
 21
183.0974315597261
 31
0
  0
LINE
  8
1
 62
3
 10
79.28929922266727
 20
183.5366875607533
 30
0
 11
79.28929922266727
 21
183.0974315597261
 31
0
  0
LINE
  8
1
 62
3
 10
76.78929922266727
 20
184.2727934786891
 30
0
 11
76.78929922266727
 21
182.3796709069607
 31
0
  0
LINE
  8
1
 62
3
 10
77.78929922266727
 20
182.3996709069608
 30
0
 11
77.78929922266727
 21
182.4074315597261
 31
0
  0
LINE
  8
1
 62
3
 10
82.09929922266747
 20
181.7096709069607
 30
0
 11
81.28929922266727
 21
181.7096709069607
 31
0
  0
LINE
  8
1
 62
3
 10
82.78929922266727
 20
182.4074315597261
 30
0
 11
82.78929922266727
 21
182.3996709069608
 31
0
  0
LINE
  8
1
 62
3
 10
78.47929922266746
 20
183.0974315597261
 30
0
 11
79.28929922266727
 21
183.0974315597261
 31
0
  0
LINE
  8
1
 62
3
 10
83.78929922266727
 20
182.3796709069607
 30
0
 11
83.78929922266727
 21
184.2727934786891
 31
0
  0
LINE
  8
1
 62
3
 10
78.45929922266737
 20
180.7096709069607
 30
0
 11
79.28929922266727
 21
180.7096709069607
 31
0
  0
LINE
  8
1
 62
3
 10
231.3934193581239
 20
146.2024709069601
 30
0
 11
237.3928969012642
 21
146.2024709069601
 31
0
  0
LINE
  8
1
 62
3
 10
232.1558448201827
 20
145.0020142060656
 30
0
 11
231.3934193581237
 21
145.0020142060659
 31
0
  0
LINE
  8
1
 62
3
 10
220.7928891630429
 20
134.9096709069607
 30
0
 11
220.7928891630429
 21
143.4096709069604
 31
0
  0
LINE
  8
1
 62
3
 10
219.7928891630426
 20
143.4096709069602
 30
0
 11
220.7928891630429
 21
143.4096709069604
 31
0
  0
LINE
  8
1
 62
3
 10
212.792898816278
 20
193.4096709069609
 30
0
 11
212.792898816278
 21
192.4096709069613
 31
0
  0
LINE
  8
1
 62
3
 10
216.7928891630427
 20
183.4096709069608
 30
0
 11
183.2928988162783
 21
183.4096709069621
 31
0
  0
LINE
  8
1
 62
3
 10
212.792898816278
 20
193.4096709069609
 30
0
 11
216.7928891630426
 21
193.4096709069605
 31
0
  0
LINE
  8
1
 62
3
 10
212.792898816278
 20
193.4096709069609
 30
0
 11
216.7928891630426
 21
193.4096709069605
 31
0
  0
LINE
  8
1
 62
3
 10
183.2928988162783
 20
183.4096709069621
 30
0
 11
182.7928988162783
 21
183.9096709069621
 31
0
  0
LINE
  8
1
 62
2
 10
183.2928988162783
 20
183.4096709069621
 30
0
 11
183.2928988162783
 21
192.4096709069619
 31
0
  0
LINE
  8
1
 62
3
 10
182.7928988162783
 20
188.0862570780949
 30
0
 11
182.7928988162783
 21
192.4096709069619
 31
0
  0
LINE
  8
1
 62
3
 10
182.7928988162783
 20
188.0862570780949
 30
0
 11
182.7928988162783
 21
183.9096709069621
 31
0
  0
LINE
  8
1
 62
3
 10
182.7928988162816
 20
192.4096709069621
 30
0
 11
212.792898816278
 21
192.4096709069613
 31
0
  0
LINE
  8
1
 62
3
 10
182.7928988162816
 20
192.4096709069621
 30
0
 11
212.792898816278
 21
192.4096709069613
 31
0
  0
LINE
  8
1
 62
1
 10
177.7928988162783
 20
188.4096709069602
 30
0
 11
287.2928891630424
 21
188.4096709069604
 31
0
  0
LINE
  8
1
 62
3
 10
77.28929922266727
 20
192.4096709069608
 30
0
 11
83.28929922266727
 21
192.4096709069608
 31
0
  0
LINE
  8
1
 62
1
 10
455.8991867574911
 20
188.4096709069604
 30
0
 11
363.2569849226289
 21
188.4096709069604
 31
0
  0
LINE
  8
1
 62
1
 10
409.577883320309
 20
142.8426984298964
 30
0
 11
409.577883320309
 21
236.0096709069605
 31
0
  0
LINE
  8
1
 62
1
 10
409.577883320309
 20
132.2596709069602
 30
0
 11
409.577883320309
 21
235.9638594104847
 31
0
  0
LINE
  8
1
 62
1
 10
457.1778833203089
 20
188.4096709069605
 30
0
 11
361.9778833203089
 21
188.4096709069604
 31
0
  0
LINE
  8
1
 62
3
 10
452.1778833203089
 20
161.9096709069604
 30
0
 11
452.1778833203089
 21
214.9096709069605
 31
0
  0
LINE
  8
1
 62
3
 10
446.077883320309
 20
216.4096709069605
 30
0
 11
450.6778833203089
 21
216.4096709069605
 31
0
  0
LINE
  8
1
 62
3
 10
437.577883320309
 20
229.5096709069605
 30
0
 11
437.577883320309
 21
224.9096709069605
 31
0
  0
LINE
  8
1
 62
3
 10
436.077883320309
 20
231.0096709069605
 30
0
 11
383.077883320309
 21
231.0096709069605
 31
0
  0
LINE
  8
1
 62
3
 10
381.577883320309
 20
224.9096709069605
 30
0
 11
381.577883320309
 21
229.5096709069605
 31
0
  0
LINE
  8
1
 62
3
 10
368.4778833203089
 20
216.4096709069605
 30
0
 11
373.077883320309
 21
216.4096709069605
 31
0
  0
LINE
  8
1
 62
3
 10
366.9778833203089
 20
161.9096709069604
 30
0
 11
366.9778833203089
 21
214.9096709069605
 31
0
  0
LINE
  8
1
 62
3
 10
373.077883320309
 20
160.4096709069604
 30
0
 11
368.4778833203089
 21
160.4096709069604
 31
0
  0
LINE
  8
1
 62
3
 10
381.577883320309
 20
144.9096709069608
 30
0
 11
381.577883320309
 21
151.9096709069604
 31
0
  0
LINE
  8
1
 62
3
 10
437.577883320309
 20
151.9096709069604
 30
0
 11
437.577883320309
 21
144.9096709069608
 31
0
  0
LINE
  8
1
 62
3
 10
450.6778833203089
 20
160.4096709069604
 30
0
 11
446.077883320309
 21
160.4096709069604
 31
0
  0
LINE
  8
1
 62
3
 10
403.8778833203091
 20
229.5999610248998
 30
0
 11
403.8778833203091
 21
229.1124963617122
 31
0
  0
LINE
  8
1
 62
3
 10
415.277883320309
 20
229.5999610248996
 30
0
 11
415.277883320309
 21
229.1124963617122
 31
0
  0
LINE
  8
1
 62
3
 10
436.077883320309
 20
143.4096709069608
 30
0
 11
434.7278833203091
 21
143.4096709069608
 31
0
  0
LINE
  8
1
 62
3
 10
383.077883320309
 20
143.4096709069608
 30
0
 11
384.4278833203089
 21
143.4096709069608
 31
0
  0
LINE
  8
1
 62
3
 10
429.7278833203091
 20
135.25967090696
 30
0
 11
389.4278833203089
 21
135.2596709069605
 31
0
  0
LINE
  8
1
 62
3
 10
388.4278833203089
 20
136.2596709069605
 30
0
 11
388.4278833203089
 21
139.4096709069608
 31
0
  0
LINE
  8
1
 62
3
 10
430.7278833203091
 20
136.25967090696
 30
0
 11
430.7278833203091
 21
139.4096709069608
 31
0
  0
LINE
  8
1
 62
3
 10
404.6778833203093
 20
230.1096727493894
 30
0
 11
404.6778833203093
 21
229.216533074983
 31
0
  0
LINE
  8
1
 62
3
 10
414.4778833203092
 20
230.1096727493894
 30
0
 11
414.4778833203092
 21
229.216533074983
 31
0
  0
LINE
  8
1
 62
3
 10
405.1778833203093
 20
230.6096727493894
 30
0
 11
413.9778833203092
 21
230.6096727493894
 31
0
  0
LINE
  8
1
 62
3
 10
395.9778833203091
 20
136.2096709069599
 30
0
 11
395.9778833203091
 21
146.2096709069599
 31
0
  0
LINE
  8
1
 62
3
 10
423.9778833203091
 20
136.2096709069598
 30
0
 11
395.9778833203091
 21
136.2096709069599
 31
0
  0
LINE
  8
1
 62
3
 10
423.9778833203091
 20
146.2096709069598
 30
0
 11
423.9778833203091
 21
136.2096709069598
 31
0
  0
LINE
  8
1
 62
3
 10
395.9778833203091
 20
146.2096709069599
 30
0
 11
423.9778833203091
 21
146.2096709069598
 31
0
  0
LINE
  8
1
 62
3
 10
395.9778833203091
 20
140.8779408561046
 30
0
 11
395.9778833203091
 21
137.9096709069599
 31
0
  0
LINE
  8
1
 62
3
 10
423.9778833203091
 20
137.9096709069599
 30
0
 11
423.9778833203091
 21
140.8779408561046
 31
0
  0
LINE
  8
1
 62
3
 10
426.2757273832044
 20
143.4350923688292
 30
0
 11
426.7156757304342
 21
142.9951440215994
 31
0
  0
LINE
  8
1
 62
3
 10
426.2757273832044
 20
142.3842765759888
 30
0
 11
426.7156757304342
 21
142.8242249232186
 31
0
  0
LINE
  8
1
 62
3
 10
427.703289669061
 20
143.8118388618455
 30
0
 11
427.263341321831
 21
143.3718905146156
 31
0
  0
LINE
  8
1
 62
3
 10
427.0880050595803
 20
143.3763076784859
 30
0
 11
426.6524738762206
 21
143.8118388618455
 31
0
  0
LINE
  8
1
 62
3
 10
427.0924222234505
 20
143.3718905146156
 30
0
 11
427.0880050595803
 21
143.3763076784859
 31
0
  0
LINE
  8
1
 62
3
 10
428.0800361620772
 20
142.3842765759888
 30
0
 11
427.6400878148472
 21
142.8242249232186
 31
0
  0
LINE
  8
1
 62
3
 10
428.0800361620772
 20
143.4350923688292
 30
0
 11
427.6400878148472
 21
142.9951440215994
 31
0
  0
LINE
  8
1
 62
3
 10
426.6524738762206
 20
142.0075300829725
 30
0
 11
427.0924222234505
 21
142.4474784302026
 31
0
  0
LINE
  8
1
 62
3
 10
427.703289669061
 20
142.0075300829725
 30
0
 11
427.2633413218311
 21
142.4474784302026
 31
0
  0
LINE
  8
1
 62
3
 10
391.0757304785416
 20
143.4350923688292
 30
0
 11
391.5156788257714
 21
142.9951440215994
 31
0
  0
LINE
  8
1
 62
3
 10
391.0757304785416
 20
142.3842765759888
 30
0
 11
391.5156788257714
 21
142.8242249232186
 31
0
  0
LINE
  8
1
 62
3
 10
392.5032927643982
 20
143.8118388618455
 30
0
 11
392.0633444171681
 21
143.3718905146156
 31
0
  0
LINE
  8
1
 62
3
 10
391.8880081549175
 20
143.3763076784859
 30
0
 11
391.4524769715578
 21
143.8118388618455
 31
0
  0
LINE
  8
1
 62
3
 10
391.8924253187877
 20
143.3718905146156
 30
0
 11
391.8880081549175
 21
143.3763076784859
 31
0
  0
LINE
  8
1
 62
3
 10
392.8800392574144
 20
142.3842765759888
 30
0
 11
392.4400909101843
 21
142.8242249232186
 31
0
  0
LINE
  8
1
 62
3
 10
392.8800392574144
 20
143.4350923688292
 30
0
 11
392.4400909101843
 21
142.9951440215994
 31
0
  0
LINE
  8
1
 62
3
 10
391.4524769715578
 20
142.0075300829725
 30
0
 11
391.8924253187877
 21
142.4474784302026
 31
0
  0
LINE
  8
1
 62
3
 10
392.5032927643982
 20
142.0075300829725
 30
0
 11
392.0633444171683
 21
142.4474784302026
 31
0
  0
LINE
  8
1
 62
3
 10
389.577883320309
 20
147.5096844724093
 30
0
 11
389.577883320309
 21
149.8656987993715
 31
0
  0
LINE
  8
1
 62
3
 10
390.077883320309
 20
142.309684472409
 30
0
 11
390.077883320309
 21
139.4096709069603
 31
0
  0
LINE
  8
1
 62
3
 10
391.0778833203082
 20
138.4096709069594
 30
0
 11
395.9778833203091
 21
138.4096709069594
 31
0
  0
LINE
  8
1
 62
3
 10
423.9778833203091
 20
138.4096709069594
 30
0
 11
428.077883320309
 21
138.4096709069594
 31
0
  0
LINE
  8
1
 62
3
 10
429.077883320309
 20
139.4096709069594
 30
0
 11
429.077883320309
 21
142.309684472409
 31
0
  0
LINE
  8
1
 62
3
 10
429.077883320309
 20
143.5096844724089
 30
0
 11
429.077883320309
 21
152.2301186709252
 31
0
  0
LINE
  8
1
 62
3
 10
429.577883320309
 20
149.9945401588789
 30
0
 11
429.577883320309
 21
147.9096844724087
 31
0
  0
LINE
  8
1
 62
3
 10
429.577883320309
 20
152.036603948014
 30
0
 11
429.577883320309
 21
149.9945401588789
 31
0
  0
LINE
  8
1
 62
3
 10
389.577883320309
 20
149.8656987993715
 30
0
 11
389.577883320309
 21
152.036603948014
 31
0
  0
LINE
  8
1
 62
3
 10
389.577883320309
 20
152.036603948014
 30
0
 11
389.577883320309
 21
152.5041003085145
 31
0
  0
LINE
  8
1
 62
3
 10
429.577883320309
 20
152.036603948014
 30
0
 11
429.577883320309
 21
152.5041003085145
 31
0
  0
LINE
  8
1
 62
3
 10
390.077883320309
 20
152.2301186709252
 30
0
 11
390.077883320309
 21
143.5096844724089
 31
0
  0
LINE
  8
1
 62
3
 10
396.2646688410148
 20
205.3721991906672
 30
0
 11
422.2646688410148
 21
205.3721991906672
 31
0
  0
LINE
  8
1
 62
3
 10
395.2646688410148
 20
216.3721991906672
 30
0
 11
395.2646688410148
 21
206.3721991906672
 31
0
  0
LINE
  8
1
 62
3
 10
422.2646688410148
 20
217.3721991906672
 30
0
 11
396.2646688410148
 21
217.3721991906672
 31
0
  0
LINE
  8
1
 62
3
 10
423.2646688410148
 20
206.3721991906672
 30
0
 11
423.2646688410148
 21
216.3721991906672
 31
0
  0
LINE
  8
1
 62
1
 10
366.8478833203092
 20
151.6596709069604
 30
0
 11
378.8078833203088
 21
151.6596709069604
 31
0
  0
LINE
  8
1
 62
1
 10
372.827883320309
 20
145.6796709069606
 30
0
 11
372.827883320309
 21
157.6396709069602
 31
0
  0
LINE
  8
1
 62
1
 10
366.8478833203092
 20
225.1596709069605
 30
0
 11
378.8078833203088
 21
225.1596709069605
 31
0
  0
LINE
  8
1
 62
1
 10
372.827883320309
 20
219.1796709069605
 30
0
 11
372.827883320309
 21
231.1396709069603
 31
0
  0
LINE
  8
1
 62
1
 10
440.3478833203092
 20
225.1596709069603
 30
0
 11
452.3078833203088
 21
225.1596709069603
 31
0
  0
LINE
  8
1
 62
1
 10
446.327883320309
 20
219.1796709069605
 30
0
 11
446.327883320309
 21
231.1396709069601
 31
0
  0
LINE
  8
1
 62
1
 10
440.3478833203092
 20
151.6596709069604
 30
0
 11
452.3078833203088
 21
151.6596709069603
 31
0
  0
LINE
  8
1
 62
1
 10
446.327883320309
 20
145.6796709069604
 30
0
 11
446.327883320309
 21
157.6396709069602
 31
0
  0
LINE
  8
1
 62
3
 10
229.7928969012587
 20
26.46058775617442
 30
0
 11
226.2928891630426
 21
26.46058775617442
 31
0
  0
LINE
  8
1
 62
3
 10
229.7928969012587
 20
82.46058775617485
 30
0
 11
226.2928891630426
 21
82.46058775617485
 31
0
  0
LINE
  8
1
 62
3
 10
227.7928891630426
 20
86.61058775617724
 30
0
 11
226.2928891630426
 21
86.61058775617724
 31
0
  0
LINE
  8
1
 62
3
 10
227.7928891630426
 20
95.81058775617714
 30
0
 11
226.2928891630426
 21
95.81058775617714
 31
0
  0
LINE
  8
1
 62
3
 10
227.7928891630426
 20
95.81058775617714
 30
0
 11
227.7928891630426
 21
86.61058775617724
 31
0
  0
LINE
  8
1
 62
3
 10
227.7928891630426
 20
22.31058775617484
 30
0
 11
227.7928891630426
 21
13.11058775617482
 31
0
  0
LINE
  8
1
 62
3
 10
227.7928891630426
 20
13.11058775617482
 30
0
 11
226.2928891630426
 21
13.11058775617482
 31
0
  0
LINE
  8
1
 62
3
 10
226.2928891630426
 20
22.31058775617484
 30
0
 11
227.7928891630426
 21
22.31058775617484
 31
0
  0
LINE
  8
1
 62
3
 10
226.2928891630426
 20
99.46058775617465
 30
0
 11
226.2928891630426
 21
9.460587756174732
 31
0
  0
LINE
  8
1
 62
3
 10
233.4928891630426
 20
95.96058775617443
 30
0
 11
233.4928891630426
 21
94.16057908602693
 31
0
  0
LINE
  8
1
 62
3
 10
229.7928969012587
 20
95.96058775617443
 30
0
 11
233.4928891630426
 21
95.96058775617443
 31
0
  0
LINE
  8
1
 62
3
 10
229.7928969012587
 20
95.96058775617443
 30
0
 11
229.7928969012587
 21
97.06058775617443
 31
0
  0
LINE
  8
1
 62
3
 10
219.7928891630426
 20
99.46058775617465
 30
0
 11
219.7928891630426
 21
95.96058775617465
 31
0
  0
LINE
  8
1
 62
3
 10
217.1428891630424
 20
95.96058775617465
 30
0
 11
219.7928891630426
 21
95.96058775617465
 31
0
  0
LINE
  8
1
 62
3
 10
216.7928891630426
 20
95.61058775617482
 30
0
 11
216.7928891630426
 21
91.46058775617465
 31
0
  0
LINE
  8
1
 62
3
 10
217.1428891630424
 20
95.96058775617465
 30
0
 11
216.7928891630426
 21
95.61058775617482
 31
0
  0
LINE
  8
1
 62
3
 10
219.7928891630426
 20
12.96058775617493
 30
0
 11
219.7928891630426
 21
9.460587756174334
 31
0
  0
LINE
  8
1
 62
3
 10
219.7928891630426
 20
12.96058775617493
 30
0
 11
217.1428891630424
 21
12.96058775617493
 31
0
  0
LINE
  8
1
 62
3
 10
217.1428891630424
 20
12.96058775617493
 30
0
 11
216.7928891630426
 21
13.31058775617473
 31
0
  0
LINE
  8
1
 62
3
 10
216.7928891630426
 20
17.46058775617465
 30
0
 11
216.7928891630426
 21
13.31058775617473
 31
0
  0
LINE
  8
1
 62
3
 10
216.7928891630426
 20
59.46058775617465
 30
0
 11
216.7928891630426
 21
17.46058775617465
 31
0
  0
LINE
  8
1
 62
3
 10
216.7928891630426
 20
59.46058775617465
 30
0
 11
216.7928891630426
 21
91.46058775617465
 31
0
  0
LINE
  8
1
 62
3
 10
233.4928891630426
 20
20.41649869507643
 30
0
 11
233.4928891630426
 21
40.46058775617446
 31
0
  0
LINE
  8
1
 62
3
 10
229.7928969012588
 20
12.96058775617443
 30
0
 11
233.4928891630426
 21
12.96058775617444
 31
0
  0
LINE
  8
1
 62
3
 10
233.4928891630426
 20
12.96058775617444
 30
0
 11
233.4928891630426
 21
20.41649869507643
 31
0
  0
LINE
  8
1
 62
3
 10
237.2928891630422
 20
94.56058775617424
 30
0
 11
278.6928891630422
 21
94.56058775617424
 31
0
  0
LINE
  8
1
 62
3
 10
281.2928891630424
 20
91.96058775617433
 30
0
 11
281.2928891630424
 21
63.46058775617433
 31
0
  0
LINE
  8
1
 62
3
 10
281.2928891630424
 20
16.96058775617453
 30
0
 11
281.2928891630424
 21
46.96058775617453
 31
0
  0
LINE
  8
1
 62
3
 10
237.2928891630422
 20
14.36058775617462
 30
0
 11
278.6928891630422
 21
14.36058775617454
 31
0
  0
LINE
  8
1
 62
3
 10
234.6928891630422
 20
95.56058775617424
 30
0
 11
236.2928891630422
 21
95.56058775617424
 31
0
  0
LINE
  8
1
 62
3
 10
234.6928891630424
 20
15.96059642632244
 30
0
 11
234.6928891630423
 21
40.46058775617446
 31
0
  0
LINE
  8
1
 62
3
 10
281.2928891630424
 20
63.46058775617433
 30
0
 11
281.2928891630424
 21
46.96058775617453
 31
0
  0
LINE
  8
1
 62
3
 10
281.2928891630424
 20
46.96058775617453
 30
0
 11
281.2928891630424
 21
62.86058775617454
 31
0
  0
LINE
  8
1
 62
3
 10
281.2928891630424
 20
62.86058775617454
 30
0
 11
281.4928891630422
 21
62.86058775617454
 31
0
  0
LINE
  8
1
 62
3
 10
282.2928891630424
 20
62.06058775617424
 30
0
 11
282.2928891630424
 21
61.77940801395482
 31
0
  0
LINE
  8
1
 62
3
 10
281.2928891630424
 20
46.06058775617444
 30
0
 11
281.2928891630424
 21
46.96058775617453
 31
0
  0
LINE
  8
1
 62
3
 10
281.4928891630422
 20
46.06058775617444
 30
0
 11
281.2928891630424
 21
46.06058775617444
 31
0
  0
LINE
  8
1
 62
3
 10
282.2928891630424
 20
47.14176749839413
 30
0
 11
282.2928891630424
 21
46.86058775617454
 31
0
  0
LINE
  8
1
 62
3
 10
282.2928891630424
 20
61.77940801395482
 30
0
 11
282.2928891630424
 21
46.86058775617454
 31
0
  0
LINE
  8
1
 62
3
 10
236.2928891630422
 20
13.36058775617462
 30
0
 11
234.6928891630422
 21
13.36058775617462
 31
0
  0
LINE
  8
1
 62
3
 10
234.6928891630422
 20
13.36058775617462
 30
0
 11
234.6928891630424
 21
15.96059642632244
 31
0
  0
LINE
  8
1
 62
3
 10
219.7928891630426
 20
95.96058775617465
 30
0
 11
219.7928891630426
 21
10.80305867193513
 31
0
  0
LINE
  8
1
 62
3
 10
229.7928969012587
 20
95.96058775617443
 30
0
 11
229.7928969012588
 21
12.96058775617443
 31
0
  0
LINE
  8
1
 62
3
 10
234.1928891630422
 20
15.96059642632244
 30
0
 11
234.1928891630419
 21
40.46058775617446
 31
0
  0
LINE
  8
1
 62
3
 10
234.6928891630415
 20
92.96058775617402
 30
0
 11
234.1928891630413
 21
92.96058775617402
 31
0
  0
LINE
  8
1
 62
3
 10
234.6928891630424
 20
15.96059642632244
 30
0
 11
234.1928891630422
 21
15.96059642632244
 31
0
  0
LINE
  8
1
 62
3
 10
231.3934193581237
 20
34.76058775617435
 30
0
 11
232.1558448201827
 21
34.76058775617454
 31
0
  0
LINE
  8
1
 62
3
 10
233.1934193581236
 20
37.22308775617444
 30
0
 11
233.0184193581237
 21
37.22308775617444
 31
0
  0
LINE
  8
1
 62
3
 10
233.0184193581237
 20
37.22308775617444
 30
0
 11
233.0184193581237
 21
36.49808775617404
 31
0
  0
LINE
  8
1
 62
3
 10
233.0184193581237
 20
36.49808775617404
 30
0
 11
233.1934193581236
 21
36.49808775617404
 31
0
  0
LINE
  8
1
 62
3
 10
232.1558448201827
 20
38.96058775617425
 30
0
 11
231.3934193581237
 21
38.96058775617453
 31
0
  0
LINE
  8
1
 62
3
 10
219.7928891630426
 20
9.460587756174334
 30
0
 11
220.7928891630429
 21
9.460587756174533
 31
0
  0
LINE
  8
1
 62
3
 10
216.7928891630427
 20
49.46058775617493
 30
0
 11
183.2928988162783
 21
49.46058775617624
 31
0
  0
LINE
  8
1
 62
3
 10
183.2928988162782
 20
59.46058775617502
 30
0
 11
216.7928891630426
 21
59.46058775617465
 31
0
  0
LINE
  8
1
 62
3
 10
183.2928988162782
 20
59.46058775617502
 30
0
 11
216.7928891630426
 21
59.46058775617465
 31
0
  0
LINE
  8
1
 62
3
 10
183.2928988162783
 20
49.46058775617624
 30
0
 11
182.7928988162783
 21
49.96058775617624
 31
0
  0
LINE
  8
1
 62
2
 10
183.2928988162783
 20
49.46058775617624
 30
0
 11
183.2928988162783
 21
59.46058775617256
 31
0
  0
LINE
  8
1
 62
3
 10
182.7928988162783
 20
54.13717392730902
 30
0
 11
182.7928988162783
 21
58.96058775617256
 31
0
  0
LINE
  8
1
 62
3
 10
182.7928988162783
 20
54.13717392730902
 30
0
 11
182.7928988162783
 21
49.96058775617624
 31
0
  0
LINE
  8
1
 62
1
 10
177.7928988162783
 20
54.46058775617433
 30
0
 11
287.2928891630424
 21
54.46058775617453
 31
0
  0
LINE
  8
1
 62
3
 10
182.7928988162783
 20
58.96058775617256
 30
0
 11
183.2928988162783
 21
59.46058775617256
 31
0
  0
LINE
  8
1
 62
3
 10
231.3934193581237
 20
38.96058775617453
 30
0
 11
231.3934193581237
 21
34.76058775617435
 31
0
  0
LINE
  8
1
 62
3
 10
229.7928969012587
 20
34.96058775617443
 30
0
 11
231.3928969012587
 21
34.96058775617443
 31
0
  0
LINE
  8
1
 62
3
 10
232.1558448201827
 20
74.16058775617438
 30
0
 11
231.3934193581237
 21
74.16058775617458
 31
0
  0
LINE
  8
1
 62
3
 10
233.0184193581237
 20
71.69808775617449
 30
0
 11
233.1934193581236
 21
71.69808775617449
 31
0
  0
LINE
  8
1
 62
3
 10
233.0184193581237
 20
72.42308775617488
 30
0
 11
233.0184193581237
 21
71.69808775617449
 31
0
  0
LINE
  8
1
 62
3
 10
233.1934193581236
 20
72.42308775617488
 30
0
 11
233.0184193581237
 21
72.42308775617488
 31
0
  0
LINE
  8
1
 62
3
 10
231.3934193581237
 20
69.96058775617439
 30
0
 11
232.1558448201827
 21
69.96058775617468
 31
0
  0
LINE
  8
1
 62
3
 10
231.3934193581237
 20
74.16058775617458
 30
0
 11
231.3934193581237
 21
69.96058775617439
 31
0
  0
LINE
  8
1
 62
3
 10
231.3928969012587
 20
73.96058775617449
 30
0
 11
229.7928969012587
 21
73.96058775617451
 31
0
  0
LINE
  8
1
 62
3
 10
231.3934193581237
 20
69.96058775617439
 30
0
 11
231.3934193581237
 21
38.96058775617453
 31
0
  0
LINE
  8
1
 62
3
 10
234.6928891630423
 20
68.46058775617442
 30
0
 11
234.6928891630422
 21
95.56058775617424
 31
0
  0
LINE
  8
1
 62
3
 10
234.1928891630416
 20
68.46058775617442
 30
0
 11
234.1928891630413
 21
92.96058775617402
 31
0
  0
LINE
  8
1
 62
3
 10
233.4928891630426
 20
68.46058775617442
 30
0
 11
233.4928891630426
 21
94.16057908602693
 31
0
  0
LINE
  8
1
 62
3
 10
236.3928969012642
 20
64.76921715916252
 30
0
 11
236.3928969012642
 21
68.46058775617442
 31
0
  0
LINE
  8
1
 62
3
 10
236.8934193581237
 20
64.96058775617442
 30
0
 11
236.8934193581237
 21
61.96058775617442
 31
0
  0
LINE
  8
1
 62
3
 10
236.8934193581237
 20
61.96058775617442
 30
0
 11
236.8928969012642
 21
62.15195835318641
 31
0
  0
LINE
  8
1
 62
3
 10
236.8928969012642
 20
64.76921715916252
 30
0
 11
236.8934193581237
 21
64.96058775617442
 31
0
  0
LINE
  8
1
 62
3
 10
236.3928969012642
 20
68.46058775617442
 30
0
 11
231.3934193581237
 21
68.46058775617442
 31
0
  0
LINE
  8
1
 62
3
 10
236.3928969012642
 20
46.76921715916262
 30
0
 11
236.3928969012642
 21
62.15195835318642
 31
0
  0
LINE
  8
1
 62
3
 10
236.3928969012642
 20
40.46058775617446
 30
0
 11
236.8928969012642
 21
40.46058775617446
 31
0
  0
LINE
  8
1
 62
3
 10
236.3928969012642
 20
44.15195835318646
 30
0
 11
236.3928969012642
 21
40.46058775617446
 31
0
  0
LINE
  8
1
 62
3
 10
231.3934193581237
 20
40.46058775617446
 30
0
 11
236.3928969012642
 21
40.46058775617446
 31
0
  0
LINE
  8
1
 62
3
 10
237.3934193581237
 20
40.46058775617446
 30
0
 11
237.3934193581237
 21
68.46058775617442
 31
0
  0
LINE
  8
1
 62
3
 10
237.3934193581237
 20
68.46058775617442
 30
0
 11
236.8928969012642
 21
68.46058775617442
 31
0
  0
LINE
  8
1
 62
3
 10
231.3934193581237
 20
68.46058775617442
 30
0
 11
231.3934193581237
 21
40.46058775617446
 31
0
  0
LINE
  8
1
 62
3
 10
236.8928969012642
 20
40.46058775617446
 30
0
 11
237.3934193581237
 21
40.46058775617446
 31
0
  0
LINE
  8
1
 62
3
 10
236.8928969012642
 20
68.46058775617442
 30
0
 11
236.3928969012642
 21
68.46058775617442
 31
0
  0
LINE
  8
1
 62
3
 10
236.8934193581237
 20
46.96058775617442
 30
0
 11
236.8934193581237
 21
43.96058775617446
 31
0
  0
LINE
  8
1
 62
3
 10
236.8934193581237
 20
43.96058775617446
 30
0
 11
236.8928969012642
 21
44.15195835318646
 31
0
  0
LINE
  8
1
 62
3
 10
236.8928969012642
 20
46.76921715916262
 30
0
 11
236.8934193581237
 21
46.96058775617442
 31
0
  0
LINE
  8
1
 62
3
 10
236.3928969012642
 20
46.76921715916262
 30
0
 11
236.8934193581237
 21
46.96058775617442
 31
0
  0
LINE
  8
1
 62
3
 10
236.8934193581237
 20
43.96058775617446
 30
0
 11
236.3928969012642
 21
44.15195835318646
 31
0
  0
LINE
  8
1
 62
3
 10
236.3928969012642
 20
64.76921715916252
 30
0
 11
236.8934193581237
 21
64.96058775617442
 31
0
  0
LINE
  8
1
 62
3
 10
236.3928969012642
 20
62.15195835318642
 30
0
 11
236.8934193581237
 21
61.96058775617442
 31
0
  0
LINE
  8
1
 62
3
 10
229.7928969012587
 20
34.36058775617443
 30
0
 11
233.4928891630426
 21
34.36058775617443
 31
0
  0
LINE
  8
1
 62
3
 10
229.7928969012587
 20
74.5605877561753
 30
0
 11
233.4928891630426
 21
74.56058775617443
 31
0
  0
LINE
  8
1
 62
3
 10
226.2928891630426
 20
99.46058775617465
 30
0
 11
219.7928891630426
 21
99.46058775617465
 31
0
  0
LINE
  8
1
 62
3
 10
229.7928969012587
 20
97.06058775617443
 30
0
 11
226.2928891630426
 21
97.06058775617443
 31
0
  0
LINE
  8
1
 62
3
 10
226.2928891630426
 20
11.86058775617442
 30
0
 11
229.7928969012588
 21
11.86058775617442
 31
0
  0
LINE
  8
1
 62
3
 10
229.7928969012588
 20
11.86058775617442
 30
0
 11
229.7928969012588
 21
12.96058775617443
 31
0
  0
LINE
  8
1
 62
3
 10
226.2928891630426
 20
9.460587756174732
 30
0
 11
219.7928891630426
 21
9.460587756174334
 31
0
  0
LINE
  8
1
 62
3
 10
230.4320033587436
 20
326.5119707077995
 30
0
 11
256.9866279769148
 21
326.5119707077995
 31
0
  0
LINE
  8
1
 62
3
 10
209.1494937644058
 20
324.4519232224014
 30
0
 11
229.1134967355908
 21
324.4519232224016
 31
0
  0
LINE
  8
1
 62
3
 10
209.1494937644058
 20
327.4519232224014
 30
0
 11
229.5593185783314
 21
327.4519232224016
 31
0
  0
LINE
  8
1
 62
3
 10
189.1494937644058
 20
311.9519232224016
 30
0
 11
189.1494937644058
 21
339.9519232224014
 31
0
  0
LINE
  8
1
 62
3
 10
189.1494937644058
 20
339.9519232224014
 30
0
 11
185.0970092698454
 21
339.9519232224014
 31
0
  0
LINE
  8
1
 62
3
 10
181.2494937644055
 20
339.9519232224014
 30
0
 11
181.2494937644055
 21
333.9019232224016
 31
0
  0
LINE
  8
1
 62
3
 10
181.2494937644055
 20
311.9519232224016
 30
0
 11
182.3681805578128
 21
311.9519232224016
 31
0
  0
LINE
  8
1
 62
3
 10
181.2494937644055
 20
318.0019232224014
 30
0
 11
185.9941584354446
 21
318.0019232224014
 31
0
  0
LINE
  8
1
 62
3
 10
181.2494937644055
 20
318.0019232224014
 30
0
 11
181.2494937644055
 21
311.9519232224016
 31
0
  0
LINE
  8
1
 62
3
 10
186.5548766639447
 20
318.0019232224014
 30
0
 11
186.5548766639447
 21
320.0019232224014
 31
0
  0
LINE
  8
1
 62
3
 10
186.5548766639447
 20
320.0019232224014
 30
0
 11
185.9941584354446
 21
320.0019232224014
 31
0
  0
LINE
  8
1
 62
3
 10
181.2494937644055
 20
320.0019232224014
 30
0
 11
181.2494937644055
 21
318.0019232224014
 31
0
  0
LINE
  8
1
 62
3
 10
181.2494937644055
 20
320.0019232224014
 30
0
 11
181.2494937644055
 21
331.9019232224011
 31
0
  0
LINE
  8
1
 62
3
 10
181.2494937644055
 20
331.9019232224011
 30
0
 11
181.2494937644055
 21
320.0019232224014
 31
0
  0
LINE
  8
1
 62
3
 10
181.2494937644055
 20
331.9019232224011
 30
0
 11
185.9941584354446
 21
331.9019232224011
 31
0
  0
LINE
  8
1
 62
3
 10
186.5548766639447
 20
331.9019232224011
 30
0
 11
186.5548766639447
 21
333.9019232224016
 31
0
  0
LINE
  8
1
 62
3
 10
186.5548766639447
 20
333.9019232224016
 30
0
 11
185.9941584354446
 21
333.9019232224016
 31
0
  0
LINE
  8
1
 62
3
 10
181.2494937644055
 20
333.9019232224016
 30
0
 11
181.2494937644055
 21
331.9019232224011
 31
0
  0
LINE
  8
1
 62
3
 10
182.3681805578128
 20
339.9519232224014
 30
0
 11
182.3681805578128
 21
336.9519232224014
 31
0
  0
LINE
  8
1
 62
3
 10
182.3681805578128
 20
339.9519232224014
 30
0
 11
181.2494937644055
 21
339.9519232224014
 31
0
  0
LINE
  8
1
 62
3
 10
182.3681805578128
 20
336.9519232224014
 30
0
 11
183.3774733691125
 21
336.9519232224014
 31
0
  0
LINE
  8
1
 62
3
 10
185.0970092698454
 20
336.9519232224014
 30
0
 11
185.0970092698454
 21
339.9519232224014
 31
0
  0
LINE
  8
1
 62
3
 10
185.0970092698454
 20
339.9519232224014
 30
0
 11
184.6484346870456
 21
339.9519232224014
 31
0
  0
LINE
  8
1
 62
3
 10
182.3681805578128
 20
311.9519232224016
 30
0
 11
182.3681805578128
 21
314.9519232224016
 31
0
  0
LINE
  8
1
 62
3
 10
182.3681805578128
 20
311.9519232224016
 30
0
 11
183.3774733691125
 21
311.9519232224016
 31
0
  0
LINE
  8
1
 62
3
 10
182.3681805578128
 20
314.9519232224016
 30
0
 11
183.3774733691125
 21
314.9519232224016
 31
0
  0
LINE
  8
1
 62
3
 10
185.0970092698454
 20
314.9519232224016
 30
0
 11
185.0970092698454
 21
311.9519232224016
 31
0
  0
LINE
  8
1
 62
3
 10
185.0970092698454
 20
311.9519232224016
 30
0
 11
189.1494937644058
 21
311.9519232224016
 31
0
  0
LINE
  8
1
 62
3
 10
183.3774733691125
 20
336.9519232224014
 30
0
 11
183.3774733691125
 21
339.9519232224014
 31
0
  0
LINE
  8
1
 62
3
 10
183.3774733691125
 20
336.9519232224014
 30
0
 11
184.6484346870456
 21
336.9519232224014
 31
0
  0
LINE
  8
1
 62
3
 10
183.3774733691125
 20
339.9519232224014
 30
0
 11
182.3681805578128
 21
339.9519232224014
 31
0
  0
LINE
  8
1
 62
3
 10
184.6484346870456
 20
339.9519232224014
 30
0
 11
184.6484346870456
 21
336.9519232224014
 31
0
  0
LINE
  8
1
 62
3
 10
184.6484346870456
 20
339.9519232224014
 30
0
 11
183.3774733691125
 21
339.9519232224014
 31
0
  0
LINE
  8
1
 62
3
 10
184.6484346870456
 20
336.9519232224014
 30
0
 11
185.0970092698454
 21
336.9519232224014
 31
0
  0
LINE
  8
1
 62
3
 10
183.3774733691125
 20
311.9519232224016
 30
0
 11
183.3774733691125
 21
314.9519232224016
 31
0
  0
LINE
  8
1
 62
3
 10
183.3774733691125
 20
311.9519232224016
 30
0
 11
184.6484346870456
 21
311.9519232224016
 31
0
  0
LINE
  8
1
 62
3
 10
183.3774733691125
 20
314.9519232224016
 30
0
 11
184.6484346870456
 21
314.9519232224016
 31
0
  0
LINE
  8
1
 62
3
 10
184.6484346870456
 20
314.9519232224016
 30
0
 11
184.6484346870456
 21
311.9519232224016
 31
0
  0
LINE
  8
1
 62
3
 10
184.6484346870456
 20
314.9519232224016
 30
0
 11
185.0970092698454
 21
314.9519232224016
 31
0
  0
LINE
  8
1
 62
3
 10
184.6484346870456
 20
311.9519232224016
 30
0
 11
185.0970092698454
 21
311.9519232224016
 31
0
  0
LINE
  8
1
 62
3
 10
185.9941584354446
 20
333.9019232224016
 30
0
 11
185.9941584354446
 21
331.9019232224011
 31
0
  0
LINE
  8
1
 62
3
 10
185.9941584354446
 20
333.9019232224016
 30
0
 11
181.2494937644055
 21
333.9019232224016
 31
0
  0
LINE
  8
1
 62
3
 10
185.9941584354446
 20
331.9019232224011
 30
0
 11
186.5548766639447
 21
331.9019232224011
 31
0
  0
LINE
  8
1
 62
3
 10
185.9941584354446
 20
320.0019232224014
 30
0
 11
185.9941584354446
 21
318.0019232224014
 31
0
  0
LINE
  8
1
 62
3
 10
185.9941584354446
 20
320.0019232224014
 30
0
 11
181.2494937644055
 21
320.0019232224014
 31
0
  0
LINE
  8
1
 62
3
 10
185.9941584354446
 20
318.0019232224014
 30
0
 11
186.5548766639447
 21
318.0019232224014
 31
0
  0
LINE
  8
1
 62
3
 10
209.1494937644058
 20
325.4519232224014
 30
0
 11
229.5593185783312
 21
325.4519232224016
 31
0
  0
LINE
  8
1
 62
3
 10
209.1494937644058
 20
326.4519232224014
 30
0
 11
229.1134908793531
 21
326.4924222170209
 31
0
  0
LINE
  8
1
 62
3
 10
189.1494937644058
 20
311.9519232224016
 30
0
 11
189.1494937644058
 21
320.0019232224014
 31
0
  0
LINE
  8
1
 62
3
 10
189.1494937644058
 20
312.9519232224016
 30
0
 11
189.1494937644058
 21
313.9519232224016
 31
0
  0
LINE
  8
1
 62
3
 10
189.1494937644058
 20
339.9519232224014
 30
0
 11
189.1494937644058
 21
316.9519232224016
 31
0
  0
LINE
  8
1
 62
3
 10
189.1494937644058
 20
337.4519232224014
 30
0
 11
189.1494937644058
 21
314.4519232224016
 31
0
  0
LINE
  8
1
 62
3
 10
189.1494937644058
 20
311.9519232224016
 30
0
 11
189.1494937644058
 21
320.0019232224014
 31
0
  0
LINE
  8
1
 62
3
 10
189.1494937644058
 20
312.9519232224016
 30
0
 11
189.1494937644058
 21
313.9519232224016
 31
0
  0
LINE
  8
1
 62
3
 10
189.1494937644058
 20
317.9519232224016
 30
0
 11
189.1494937644058
 21
318.9519232224016
 31
0
  0
LINE
  8
1
 62
3
 10
189.1494937644058
 20
327.9244497480844
 30
0
 11
189.1494937644058
 21
316.9519232224016
 31
0
  0
LINE
  8
1
 62
3
 10
189.1494937644058
 20
327.9244497480844
 30
0
 11
189.1494937644058
 21
314.4519232224016
 31
0
  0
LINE
  8
1
 62
3
 10
189.1494937644058
 20
329.0395793256662
 30
0
 11
189.1494937644058
 21
327.9244497480844
 31
0
  0
LINE
  8
1
 62
3
 10
189.1494937644058
 20
329.0395793256662
 30
0
 11
189.1494937644058
 21
327.9244497480844
 31
0
  0
LINE
  8
1
 62
3
 10
189.1494937644058
 20
339.9519232224014
 30
0
 11
189.1494937644058
 21
329.0395793256662
 31
0
  0
LINE
  8
1
 62
3
 10
189.1494937644058
 20
337.4519232224014
 30
0
 11
189.1494937644058
 21
329.0395793256662
 31
0
  0
LINE
  8
1
 62
3
 10
256.9866279769149
 20
325.6015229003992
 30
0
 11
231.0617576766377
 21
325.6015229003992
 31
0
  0
LINE
  8
1
 62
3
 10
230.5153577622375
 20
324.482102085884
 30
0
 11
244.654512684491
 21
324.482102085884
 31
0
  0
LINE
  8
1
 62
3
 10
231.245245789082
 20
327.5119707077995
 30
0
 11
244.654512684491
 21
327.5119707077995
 31
0
  0
LINE
  8
1
 62
3
 10
231.5536900082111
 20
324.4519232224016
 30
0
 11
231.5536900082111
 21
322.9519232224016
 31
0
  0
LINE
  8
1
 62
3
 10
231.5536900082111
 20
322.9519232224016
 30
0
 11
234.5536900082111
 21
322.9519232224016
 31
0
  0
LINE
  8
1
 62
3
 10
234.5536900082111
 20
322.9519232224016
 30
0
 11
234.5536900082111
 21
324.4519232224016
 31
0
  0
LINE
  8
1
 62
3
 10
232.5536900082111
 20
327.4519232224016
 30
0
 11
232.5536900082111
 21
324.4519232224016
 31
0
  0
LINE
  8
1
 62
3
 10
233.5536900082111
 20
327.4519232224016
 30
0
 11
233.5536900082111
 21
324.4519232224016
 31
0
  0
LINE
  8
1
 62
1
 10
233.0536900082111
 20
322.210914467913
 30
0
 11
233.0536900082111
 21
328.6065362607599
 31
0
  0
LINE
  8
1
 62
3
 10
256.9866279769149
 20
324.1567468040994
 30
0
 11
256.9866279769149
 21
319.1567468040989
 31
0
  0
LINE
  8
1
 62
3
 10
256.9866279769149
 20
320.3789482462166
 30
0
 11
256.9866279769149
 21
319.1567468040989
 31
0
  0
LINE
  8
1
 62
3
 10
256.9866279769149
 20
324.1567468040994
 30
0
 11
256.9866279769149
 21
332.1567468040994
 31
0
  0
LINE
  8
1
 62
3
 10
256.9866279769149
 20
332.1567468040994
 30
0
 11
256.9866279769149
 21
337.1567468040989
 31
0
  0
LINE
  8
1
 62
3
 10
256.9866279769148
 20
322.3119707077995
 30
0
 11
244.654512684491
 21
325.6015229003992
 31
0
  0
LINE
  8
1
 62
3
 10
244.654512684491
 20
326.5119707077982
 30
0
 11
256.9866279769148
 21
329.8015229003977
 31
0
  0
LINE
  8
1
 62
3
 10
244.654512684491
 20
324.482102085884
 30
0
 11
256.9866279769149
 21
321.1925498932844
 31
0
  0
LINE
  8
1
 62
3
 10
244.654512684491
 20
327.5119707077995
 30
0
 11
256.9866279769149
 21
330.8015229003989
 31
0
  0
LINE
  8
1
 62
3
 10
256.9866279769149
 20
335.1209437149144
 30
0
 11
244.654512684491
 21
327.5119707077995
 31
0
  0
LINE
  8
1
 62
3
 10
247.9413761476671
 20
328.3887309922829
 30
0
 11
256.9866279769149
 21
334.0015229003991
 31
0
  0
LINE
  8
1
 62
3
 10
256.9866279769149
 20
324.1567468040994
 30
0
 11
256.9866279769149
 21
319.1567468040989
 31
0
  0
LINE
  8
1
 62
3
 10
276.586627976915
 20
327.7567468040993
 30
0
 11
273.2653930401611
 21
327.7567468040995
 31
0
  0
LINE
  8
1
 62
3
 10
273.2653930401609
 20
329.6567468040994
 30
0
 11
267.9866279769149
 21
329.6567468040989
 31
0
  0
LINE
  8
1
 62
3
 10
267.9866279769149
 20
329.6567468040989
 30
0
 11
267.9866279769149
 21
337.1567468040989
 31
0
  0
LINE
  8
1
 62
3
 10
266.6786521061619
 20
326.6567468040989
 30
0
 11
267.9866279769149
 21
326.6567468040989
 31
0
  0
LINE
  8
1
 62
3
 10
267.9866279769149
 20
326.6567468040989
 30
0
 11
267.9866279769149
 21
319.1567468040995
 31
0
  0
LINE
  8
1
 62
3
 10
276.586627976915
 20
336.1567468040995
 30
0
 11
276.586627976915
 21
332.7567468040995
 31
0
  0
LINE
  8
1
 62
3
 10
276.586627976915
 20
331.9567468040996
 30
0
 11
276.586627976915
 21
328.5567468040993
 31
0
  0
LINE
  8
1
 62
3
 10
276.586627976915
 20
327.7567468040993
 30
0
 11
276.586627976915
 21
324.3567468040994
 31
0
  0
LINE
  8
1
 62
3
 10
276.586627976915
 20
323.5567468040993
 30
0
 11
276.586627976915
 21
320.1567468040994
 31
0
  0
LINE
  8
1
 62
3
 10
259.4866279769149
 20
325.4567468040993
 30
0
 11
259.4866279769149
 21
330.8567468040991
 31
0
  0
LINE
  8
1
 62
3
 10
259.4866279769149
 20
330.8567468040991
 30
0
 11
260.8306110899952
 21
330.8567468040994
 31
0
  0
LINE
  8
1
 62
3
 10
267.9866279769149
 20
326.6567468040989
 30
0
 11
273.2653930401609
 21
326.6567468040994
 31
0
  0
LINE
  8
1
 62
3
 10
260.8306110899951
 20
326.6567468040989
 30
0
 11
260.8306110899951
 21
329.6567468040989
 31
0
  0
LINE
  8
1
 62
3
 10
260.8306110899951
 20
329.6567468040989
 30
0
 11
261.9386609667419
 21
329.6567468040989
 31
0
  0
LINE
  8
1
 62
3
 10
273.2653930401609
 20
329.6567468040994
 30
0
 11
273.2653930401609
 21
326.6567468040994
 31
0
  0
LINE
  8
1
 62
3
 10
266.6786521061619
 20
325.4567468040996
 30
0
 11
266.6786521061619
 21
326.6567468040989
 31
0
  0
LINE
  8
1
 62
3
 10
266.6786521061619
 20
325.4567468040996
 30
0
 11
261.9386609667419
 21
325.4567468040993
 31
0
  0
LINE
  8
1
 62
3
 10
266.6786521061619
 20
326.6567468040989
 30
0
 11
261.9386609667419
 21
326.6567468040989
 31
0
  0
LINE
  8
1
 62
3
 10
266.6786521061619
 20
329.6567468040995
 30
0
 11
266.6786521061619
 21
330.8567468040994
 31
0
  0
LINE
  8
1
 62
3
 10
267.9866279769149
 20
329.6567468040989
 30
0
 11
266.6786521061619
 21
329.6567468040995
 31
0
  0
LINE
  8
1
 62
3
 10
260.8306110899951
 20
325.4567468040993
 30
0
 11
260.8306110899951
 21
326.6567468040989
 31
0
  0
LINE
  8
1
 62
3
 10
260.8306110899951
 20
325.4567468040993
 30
0
 11
259.4866279769149
 21
325.4567468040993
 31
0
  0
LINE
  8
1
 62
3
 10
260.8306110899951
 20
329.6567468040989
 30
0
 11
260.8306110899952
 21
330.8567468040994
 31
0
  0
LINE
  8
1
 62
3
 10
260.8306110899952
 20
330.8567468040994
 30
0
 11
261.938660966742
 21
330.8567468040994
 31
0
  0
LINE
  8
1
 62
3
 10
261.9386609667419
 20
325.4567468040993
 30
0
 11
261.9386609667419
 21
326.6567468040989
 31
0
  0
LINE
  8
1
 62
3
 10
261.9386609667419
 20
325.4567468040993
 30
0
 11
260.8306110899951
 21
325.4567468040993
 31
0
  0
LINE
  8
1
 62
3
 10
261.9386609667419
 20
326.6567468040989
 30
0
 11
260.8306110899951
 21
326.6567468040989
 31
0
  0
LINE
  8
1
 62
3
 10
261.9386609667419
 20
329.6567468040989
 30
0
 11
261.938660966742
 21
330.8567468040994
 31
0
  0
LINE
  8
1
 62
3
 10
261.9386609667419
 20
329.6567468040989
 30
0
 11
266.6786521061619
 21
329.6567468040995
 31
0
  0
LINE
  8
1
 62
3
 10
261.938660966742
 20
330.8567468040994
 30
0
 11
266.6786521061619
 21
330.8567468040994
 31
0
  0
LINE
  8
1
 62
3
 10
267.9866279769149
 20
319.1567468040995
 30
0
 11
258.1220447246121
 21
319.1567468040989
 31
0
  0
LINE
  8
1
 62
3
 10
256.9866279769149
 20
337.1567468040989
 30
0
 11
258.1220447246121
 21
337.1567468040994
 31
0
  0
LINE
  8
1
 62
3
 10
258.1220447246121
 20
319.1567468040989
 30
0
 11
256.9866279769149
 21
319.1567468040989
 31
0
  0
LINE
  8
1
 62
3
 10
256.9866279769149
 20
320.3789482462166
 30
0
 11
256.9866279769149
 21
319.1567468040989
 31
0
  0
LINE
  8
1
 62
3
 10
258.1220447246121
 20
324.1567468040994
 30
0
 11
258.1220447246121
 21
319.1567468040989
 31
0
  0
LINE
  8
1
 62
3
 10
258.1220447246121
 20
324.1567468040994
 30
0
 11
256.9866279769149
 21
324.1567468040994
 31
0
  0
LINE
  8
1
 62
3
 10
256.9866279769149
 20
332.1567468040994
 30
0
 11
258.1220447246121
 21
332.1567468040995
 31
0
  0
LINE
  8
1
 62
3
 10
258.1220447246121
 20
332.1567468040995
 30
0
 11
258.1220447246121
 21
337.1567468040994
 31
0
  0
LINE
  8
1
 62
3
 10
258.1220447246121
 20
337.1567468040994
 30
0
 11
267.9866279769149
 21
337.1567468040989
 31
0
  0
LINE
  8
1
 62
3
 10
267.9866279769149
 20
320.1567468040994
 30
0
 11
276.586627976915
 21
320.1567468040994
 31
0
  0
LINE
  8
1
 62
3
 10
267.9866279769149
 20
324.3567468040994
 30
0
 11
276.586627976915
 21
324.3567468040994
 31
0
  0
LINE
  8
1
 62
3
 10
273.2653930401611
 20
328.5567468040993
 30
0
 11
276.586627976915
 21
328.5567468040993
 31
0
  0
LINE
  8
1
 62
3
 10
267.9866279769149
 20
332.7567468040995
 30
0
 11
276.586627976915
 21
332.7567468040995
 31
0
  0
LINE
  8
1
 62
3
 10
276.586627976915
 20
323.5567468040993
 30
0
 11
267.9866279769149
 21
323.5567468040993
 31
0
  0
LINE
  8
1
 62
3
 10
276.586627976915
 20
331.9567468040996
 30
0
 11
267.9866279769149
 21
331.9567468040996
 31
0
  0
LINE
  8
1
 62
3
 10
276.586627976915
 20
336.1567468040995
 30
0
 11
267.9866279769149
 21
336.1567468040994
 31
0
  0
LINE
  8
1
 62
3
 10
303.8497975792923
 20
337.1567468040989
 30
0
 11
313.4497975792922
 21
337.1567468040989
 31
0
  0
LINE
  8
1
 62
3
 10
303.8497975792923
 20
319.1567468040998
 30
0
 11
313.4497975792921
 21
319.1567468040998
 31
0
  0
LINE
  8
1
 62
3
 10
303.8497975792923
 20
324.1567468040989
 30
0
 11
303.8497975792923
 21
319.1567468040998
 31
0
  0
LINE
  8
1
 62
3
 10
313.4497975792922
 20
337.1567468040989
 30
0
 11
313.4497975792921
 21
319.1567468040998
 31
0
  0
LINE
  8
1
 62
3
 10
304.5997975792923
 20
323.6067468040994
 30
0
 11
308.0997975792923
 21
323.6067468040994
 31
0
  0
LINE
  8
1
 62
3
 10
304.5997975792923
 20
320.1067468040994
 30
0
 11
308.0997975792923
 21
320.1067468040994
 31
0
  0
LINE
  8
1
 62
3
 10
304.5997975792923
 20
323.6067468040994
 30
0
 11
304.5997975792923
 21
320.1067468040994
 31
0
  0
LINE
  8
1
 62
3
 10
308.0997975792923
 20
323.6067468040994
 30
0
 11
308.0997975792923
 21
320.1067468040994
 31
0
  0
LINE
  8
1
 62
3
 10
304.5997975792923
 20
336.2067468040993
 30
0
 11
308.0997975792923
 21
336.2067468040993
 31
0
  0
LINE
  8
1
 62
3
 10
304.5997975792923
 20
332.7067468040993
 30
0
 11
308.0997975792923
 21
332.7067468040993
 31
0
  0
LINE
  8
1
 62
3
 10
304.5997975792923
 20
336.2067468040993
 30
0
 11
304.5997975792923
 21
332.7067468040993
 31
0
  0
LINE
  8
1
 62
3
 10
308.0997975792923
 20
336.2067468040993
 30
0
 11
308.0997975792923
 21
332.7067468040993
 31
0
  0
LINE
  8
1
 62
3
 10
308.7997975792925
 20
327.8067468040995
 30
0
 11
312.2997975792925
 21
327.8067468040995
 31
0
  0
LINE
  8
1
 62
3
 10
308.7997975792925
 20
324.3067468040995
 30
0
 11
312.2997975792925
 21
324.3067468040995
 31
0
  0
LINE
  8
1
 62
3
 10
308.7997975792925
 20
327.8067468040995
 30
0
 11
308.7997975792925
 21
324.3067468040995
 31
0
  0
LINE
  8
1
 62
3
 10
312.2997975792925
 20
327.8067468040995
 30
0
 11
312.2997975792925
 21
324.3067468040995
 31
0
  0
LINE
  8
1
 62
3
 10
308.7997975792925
 20
332.0067468040995
 30
0
 11
312.2997975792925
 21
332.0067468040995
 31
0
  0
LINE
  8
1
 62
3
 10
308.7997975792925
 20
328.5067468040995
 30
0
 11
312.2997975792925
 21
328.5067468040995
 31
0
  0
LINE
  8
1
 62
3
 10
308.7997975792925
 20
332.0067468040995
 30
0
 11
308.7997975792925
 21
328.5067468040995
 31
0
  0
LINE
  8
1
 62
3
 10
312.2997975792925
 20
332.0067468040995
 30
0
 11
312.2997975792925
 21
328.5067468040995
 31
0
  0
LINE
  8
1
 62
3
 10
301.3497975792923
 20
330.8567468040994
 30
0
 11
303.8497975792923
 21
330.8567468040994
 31
0
  0
LINE
  8
1
 62
3
 10
303.8497975792923
 20
332.1567468040989
 30
0
 11
303.8497975792923
 21
330.8567468040994
 31
0
  0
LINE
  8
1
 62
3
 10
302.5953450606675
 20
329.6567468040989
 30
0
 11
303.8497975792923
 21
329.6567468040989
 31
0
  0
LINE
  8
1
 62
3
 10
303.8497975792923
 20
330.8567468040994
 30
0
 11
303.8497975792923
 21
329.6567468040989
 31
0
  0
LINE
  8
1
 62
3
 10
302.5953450606675
 20
326.6567468040989
 30
0
 11
303.8497975792923
 21
326.6567468040989
 31
0
  0
LINE
  8
1
 62
3
 10
303.8497975792923
 20
329.6567468040989
 30
0
 11
303.8497975792923
 21
326.6567468040989
 31
0
  0
LINE
  8
1
 62
3
 10
301.3497975792923
 20
325.4567468040993
 30
0
 11
303.8497975792923
 21
325.4567468040993
 31
0
  0
LINE
  8
1
 62
3
 10
303.8497975792923
 20
326.6567468040989
 30
0
 11
303.8497975792923
 21
325.4567468040993
 31
0
  0
LINE
  8
1
 62
3
 10
300.3497975792923
 20
330.8567468040994
 30
0
 11
300.3497975792923
 21
325.4567468040993
 31
0
  0
LINE
  8
1
 62
3
 10
301.3497975792923
 20
330.8567468040994
 30
0
 11
301.3497975792923
 21
325.4567468040993
 31
0
  0
LINE
  8
1
 62
3
 10
300.4904316360301
 20
325.4567468040993
 30
0
 11
301.3497975792923
 21
325.4567468040993
 31
0
  0
LINE
  8
1
 62
3
 10
300.4904316360301
 20
330.8567468040994
 30
0
 11
301.3497975792923
 21
330.8567468040994
 31
0
  0
LINE
  8
1
 62
2
 10
300.4904316360301
 20
330.8567468040994
 30
0
 11
300.4904316360301
 21
325.4567468040993
 31
0
  0
LINE
  8
1
 62
3
 10
300.3497975792923
 20
325.4567468040993
 30
0
 11
300.4904316360301
 21
325.4567468040993
 31
0
  0
LINE
  8
1
 62
3
 10
300.3497975792923
 20
330.8567468040994
 30
0
 11
300.4904316360301
 21
330.8567468040994
 31
0
  0
LINE
  8
1
 62
2
 10
302.5953450606675
 20
329.6567468040989
 30
0
 11
302.5953450606675
 21
326.6567468040989
 31
0
  0
LINE
  8
1
 62
3
 10
300.3497975792923
 20
326.6567468040989
 30
0
 11
302.5953450606675
 21
326.6567468040989
 31
0
  0
LINE
  8
1
 62
3
 10
300.3497975792923
 20
329.6567468040998
 30
0
 11
302.5953450606675
 21
329.6567468040989
 31
0
  0
LINE
  8
1
 62
2
 10
307.2997975792925
 20
322.8067468040995
 30
0
 11
307.2997975792925
 21
320.9067468040995
 31
0
  0
LINE
  8
1
 62
2
 10
305.3997975792923
 20
322.8067468040995
 30
0
 11
307.2997975792925
 21
322.8067468040995
 31
0
  0
LINE
  8
1
 62
2
 10
305.3997975792923
 20
320.9067468040995
 30
0
 11
305.3997975792923
 21
322.8067468040995
 31
0
  0
LINE
  8
1
 62
2
 10
307.2997975792925
 20
320.9067468040995
 30
0
 11
305.3997975792923
 21
320.9067468040995
 31
0
  0
LINE
  8
1
 62
2
 10
311.4997975792921
 20
325.1067468040994
 30
0
 11
309.5997975792923
 21
325.1067468040994
 31
0
  0
LINE
  8
1
 62
2
 10
311.4997975792921
 20
327.0067468040995
 30
0
 11
311.4997975792921
 21
325.1067468040994
 31
0
  0
LINE
  8
1
 62
2
 10
309.5997975792923
 20
327.0067468040995
 30
0
 11
311.4997975792921
 21
327.0067468040995
 31
0
  0
LINE
  8
1
 62
2
 10
309.5997975792923
 20
325.1067468040994
 30
0
 11
309.5997975792923
 21
327.0067468040995
 31
0
  0
LINE
  8
1
 62
2
 10
311.4997975792921
 20
329.3067468040999
 30
0
 11
309.5997975792923
 21
329.3067468040999
 31
0
  0
LINE
  8
1
 62
2
 10
311.4997975792923
 20
331.2067468040993
 30
0
 11
311.4997975792921
 21
329.3067468040999
 31
0
  0
LINE
  8
1
 62
2
 10
309.5997975792923
 20
331.2067468040993
 30
0
 11
311.4997975792923
 21
331.2067468040993
 31
0
  0
LINE
  8
1
 62
2
 10
309.5997975792923
 20
329.3067468040999
 30
0
 11
309.5997975792923
 21
331.2067468040993
 31
0
  0
LINE
  8
1
 62
2
 10
307.2997975792925
 20
335.4067468040995
 30
0
 11
307.2997975792925
 21
333.5067468040995
 31
0
  0
LINE
  8
1
 62
2
 10
307.2997975792925
 20
333.5067468040995
 30
0
 11
305.3997975792923
 21
333.5067468040995
 31
0
  0
LINE
  8
1
 62
2
 10
305.3997975792923
 20
333.5067468040995
 30
0
 11
305.3997975792923
 21
335.4067468040995
 31
0
  0
LINE
  8
1
 62
2
 10
305.3997975792923
 20
335.4067468040995
 30
0
 11
307.2997975792925
 21
335.4067468040995
 31
0
  0
LINE
  8
1
 62
3
 10
303.3497975792923
 20
337.1567468040989
 30
0
 11
303.8497975792923
 21
337.1567468040989
 31
0
  0
LINE
  8
1
 62
3
 10
303.3497975792923
 20
332.1567468040989
 30
0
 11
303.8497975792923
 21
332.1567468040989
 31
0
  0
LINE
  8
1
 62
3
 10
303.8497975792923
 20
337.1567468040989
 30
0
 11
303.8497975792923
 21
332.1567468040989
 31
0
  0
LINE
  8
1
 62
3
 10
302.8497975792923
 20
336.6567468040989
 30
0
 11
302.8497975792923
 21
332.6567468040989
 31
0
  0
LINE
  8
1
 62
3
 10
302.8497975792923
 20
319.6567468040998
 30
0
 11
302.8497975792923
 21
323.6567468040989
 31
0
  0
LINE
  8
1
 62
3
 10
303.3497975792923
 20
319.1567468040998
 30
0
 11
303.8497975792923
 21
319.1567468040998
 31
0
  0
LINE
  8
1
 62
3
 10
303.3497975792923
 20
324.1567468040989
 30
0
 11
303.8497975792923
 21
324.1567468040989
 31
0
  0
LINE
  8
1
 62
3
 10
303.8497975792923
 20
325.4567468040993
 30
0
 11
303.8497975792923
 21
324.1567468040989
 31
0
  0
LINE
  8
1
 62
3
 10
313.4497975792922
 20
337.1567468040989
 30
0
 11
313.9497975792922
 21
337.1567468040989
 31
0
  0
LINE
  8
1
 62
3
 10
313.4497975792921
 20
319.1567468040998
 30
0
 11
313.9497975792921
 21
319.1567468040998
 31
0
  0
LINE
  8
1
 62
3
 10
314.4497975792922
 20
336.6567468040989
 30
0
 11
314.4497975792921
 21
319.6567468040998
 31
0
  0
LINE
  8
1
 62
3
 10
308.7997975792925
 20
336.2067468040998
 30
0
 11
312.2997975792925
 21
336.2067468040998
 31
0
  0
LINE
  8
1
 62
3
 10
308.7997975792925
 20
332.7067468040998
 30
0
 11
312.2997975792925
 21
332.7067468040998
 31
0
  0
LINE
  8
1
 62
3
 10
308.7997975792925
 20
336.2067468040998
 30
0
 11
308.7997975792925
 21
332.7067468040998
 31
0
  0
LINE
  8
1
 62
3
 10
312.2997975792925
 20
336.2067468040998
 30
0
 11
312.2997975792925
 21
332.7067468040998
 31
0
  0
LINE
  8
1
 62
2
 10
311.4997975792923
 20
333.5067468040998
 30
0
 11
309.5997975792923
 21
333.5067468040998
 31
0
  0
LINE
  8
1
 62
2
 10
311.4997975792923
 20
335.4067468040998
 30
0
 11
311.4997975792923
 21
333.5067468040998
 31
0
  0
LINE
  8
1
 62
2
 10
309.5997975792923
 20
335.4067468040998
 30
0
 11
311.4997975792923
 21
335.4067468040998
 31
0
  0
LINE
  8
1
 62
2
 10
309.5997975792923
 20
333.5067468040998
 30
0
 11
309.5997975792923
 21
335.4067468040998
 31
0
  0
LINE
  8
1
 62
3
 10
308.7997975792925
 20
323.6067468040994
 30
0
 11
312.2997975792925
 21
323.6067468040994
 31
0
  0
LINE
  8
1
 62
3
 10
308.7997975792925
 20
320.1067468040994
 30
0
 11
312.2997975792925
 21
320.1067468040994
 31
0
  0
LINE
  8
1
 62
3
 10
308.7997975792925
 20
323.6067468040994
 30
0
 11
308.7997975792925
 21
320.1067468040994
 31
0
  0
LINE
  8
1
 62
3
 10
312.2997975792925
 20
323.6067468040994
 30
0
 11
312.2997975792925
 21
320.1067468040994
 31
0
  0
LINE
  8
1
 62
2
 10
311.4997975792921
 20
320.9067468040995
 30
0
 11
309.5997975792923
 21
320.9067468040995
 31
0
  0
LINE
  8
1
 62
2
 10
311.4997975792921
 20
322.8067468040993
 30
0
 11
311.4997975792921
 21
320.9067468040995
 31
0
  0
LINE
  8
1
 62
2
 10
309.5997975792923
 20
322.8067468040993
 30
0
 11
311.4997975792921
 21
322.8067468040993
 31
0
  0
LINE
  8
1
 62
2
 10
309.5997975792923
 20
320.9067468040995
 30
0
 11
309.5997975792923
 21
322.8067468040993
 31
0
  0
LINE
  8
1
 62
3
 10
304.5997975792923
 20
332.0067468040995
 30
0
 11
308.0997975792923
 21
332.0067468040993
 31
0
  0
LINE
  8
1
 62
3
 10
304.5997975792923
 20
328.5067468040993
 30
0
 11
308.0997975792923
 21
328.5067468040993
 31
0
  0
LINE
  8
1
 62
3
 10
304.5997975792923
 20
332.0067468040995
 30
0
 11
304.5997975792923
 21
328.5067468040993
 31
0
  0
LINE
  8
1
 62
3
 10
308.0997975792923
 20
332.0067468040993
 30
0
 11
308.0997975792923
 21
328.5067468040993
 31
0
  0
LINE
  8
1
 62
2
 10
307.2997975792925
 20
331.2067468040993
 30
0
 11
307.2997975792925
 21
329.3067468040995
 31
0
  0
LINE
  8
1
 62
2
 10
307.2997975792925
 20
329.3067468040995
 30
0
 11
305.3997975792923
 21
329.3067468040995
 31
0
  0
LINE
  8
1
 62
2
 10
305.3997975792923
 20
329.3067468040995
 30
0
 11
305.3997975792923
 21
331.2067468040993
 31
0
  0
LINE
  8
1
 62
2
 10
305.3997975792923
 20
331.2067468040993
 30
0
 11
307.2997975792925
 21
331.2067468040993
 31
0
  0
LINE
  8
1
 62
3
 10
304.5997975792923
 20
327.8067468040995
 30
0
 11
308.0997975792923
 21
327.806746804099
 31
0
  0
LINE
  8
1
 62
3
 10
308.0997975792923
 20
327.806746804099
 30
0
 11
308.0997975792923
 21
324.306746804099
 31
0
  0
LINE
  8
1
 62
3
 10
304.5997975792923
 20
324.3067468040995
 30
0
 11
308.0997975792923
 21
324.306746804099
 31
0
  0
LINE
  8
1
 62
3
 10
304.5997975792923
 20
327.8067468040995
 30
0
 11
304.5997975792923
 21
324.3067468040995
 31
0
  0
LINE
  8
1
 62
2
 10
307.2997975792925
 20
325.1067468040994
 30
0
 11
305.3997975792923
 21
325.1067468040994
 31
0
  0
LINE
  8
1
 62
2
 10
305.3997975792923
 20
325.1067468040994
 30
0
 11
305.3997975792923
 21
327.0067468040993
 31
0
  0
LINE
  8
1
 62
2
 10
307.2997975792925
 20
327.0067468040993
 30
0
 11
307.2997975792925
 21
325.1067468040994
 31
0
  0
LINE
  8
1
 62
2
 10
305.3997975792923
 20
327.0067468040993
 30
0
 11
307.2997975792925
 21
327.0067468040993
 31
0
  0
ARC
  8
1
 62
3
 10
237.2928891630422
 20
229.5096709069601
 30
0
 40
1
 50
180
 51
270
  0
ARC
  8
1
 62
3
 10
237.2928891630422
 20
147.3096709069605
 30
0
 40
1
 50
90
 51
180
  0
ARC
  8
1
 62
3
 10
228.4071270822593
 20
142.9020142060658
 30
0
 40
4.799999999999915
 50
342.4172239915744
 51
355.6688512692065
  0
ARC
  8
1
 62
3
 10
230.5292116487954
 20
142.0812103703793
 30
0
 40
3.343206622513339
 50
42.78344578283986
 51
60.88600448707054
  0
ARC
  8
1
 62
3
 10
228.4071270822593
 20
142.9020142060658
 30
0
 40
4.799999999999818
 50
4.331148730789072
 51
17.58277600842138
  0
ARC
  8
1
 62
3
 10
230.5292116487959
 20
143.9766221662659
 30
0
 40
3.567081604788588
 50
297.1300878509888
 51
308.9487157491398
  0
ARC
  8
1
 62
3
 10
230.6042116487958
 20
143.2520142060656
 30
0
 40
2.982960852904835
 50
316.60031321606
 51
322.884244022137
  0
ARC
  8
1
 62
3
 10
80.28929922266727
 20
187.4096709069608
 30
0
 40
4.000000000000072
 50
255.5224878140703
 51
284.4775121859297
  0
ARC
  8
1
 62
3
 10
80.28929922266727
 20
188.4096709069608
 30
0
 40
5.418833348290403
 50
310.21752775212
 51
310.2328491927946
  0
ARC
  8
1
 62
3
 10
80.28929922266727
 20
188.4096709069608
 30
0
 40
5.418833348290376
 50
310.2328491927946
 51
229.7671508072054
  0
ARC
  8
1
 62
3
 10
80.28929922266727
 20
188.4096709069608
 30
0
 40
5.000000000000043
 50
281.5369590328154
 51
0
  0
ARC
  8
1
 62
3
 10
80.28929922266727
 20
188.4096709069608
 30
0
 40
5
 50
0
 51
258.4630409671846
  0
ARC
  8
1
 62
3
 10
409.577883320309
 20
180.9096709069604
 30
0
 40
1.5
 50
270
 51
338.9824019270591
  0
ARC
  8
1
 62
3
 10
416.0730738486923
 20
192.1596709069604
 30
0
 40
1.5
 50
0
 51
98.9824019270546
  0
ARC
  8
1
 62
3
 10
403.0826927919258
 20
192.1596709069604
 30
0
 40
1.5
 50
180
 51
218.982401927055
  0
ARC
  8
1
 62
3
 10
416.0730738486923
 20
192.1596709069604
 30
0
 40
1.499999999999917
 50
321.0175980729409
 51
0
  0
ARC
  8
1
 62
3
 10
409.577883320309
 20
180.9096709069604
 30
0
 40
1.500000000000014
 50
201.0175980729424
 51
270
  0
ARC
  8
1
 62
3
 10
403.0826927919258
 20
192.1596709069604
 30
0
 40
1.500000000000023
 50
81.01759807295399
 51
180
  0
ARC
  8
1
 62
3
 10
409.577883320309
 20
188.4096709069604
 30
0
 40
42.49999999999999
 50
98.9675642864739
 51
180
  0
ARC
  8
1
 62
3
 10
409.577883320309
 20
188.4096709069604
 30
0
 40
42.5000000000002
 50
298.9932044200963
 51
81.03243571352594
  0
ARC
  8
1
 62
3
 10
427.1778817726406
 20
142.909684472409
 30
0
 40
0.457199999999923
 50
172.5415509436653
 51
187.4584490562995
  0
ARC
  8
1
 62
3
 10
427.1778817726406
 20
142.909684472409
 30
0
 40
1.044000000000023
 50
120.2161982852389
 51
149.783801714743
  0
ARC
  8
1
 62
3
 10
427.1778817726406
 20
142.909684472409
 30
0
 40
0.4572000000000467
 50
82.5415509436565
 51
97.45844905627287
  0
ARC
  8
1
 62
3
 10
427.1778817726406
 20
142.909684472409
 30
0
 40
1.044000000000196
 50
30.21619828524601
 51
59.7838017147422
  0
ARC
  8
1
 62
3
 10
427.1778817726406
 20
142.909684472409
 30
0
 40
0.4572000000001679
 50
352.5415509437052
 51
7.458449056330131
  0
ARC
  8
1
 62
3
 10
427.1778817726406
 20
142.909684472409
 30
0
 40
1.044000000000223
 50
300.2161982852578
 51
329.783801714754
  0
ARC
  8
1
 62
3
 10
427.1778817726406
 20
142.909684472409
 30
0
 40
0.4571999999997475
 50
262.5415509437235
 51
277.4584490563472
  0
ARC
  8
1
 62
3
 10
427.1778817726406
 20
142.909684472409
 30
0
 40
1.043999999999852
 50
210.216198285257
 51
239.7838017147611
  0
ARC
  8
1
 62
3
 10
391.9778848679778
 20
142.909684472409
 30
0
 40
0.457199999999923
 50
172.5415509436653
 51
187.4584490562995
  0
ARC
  8
1
 62
3
 10
391.9778848679778
 20
142.909684472409
 30
0
 40
1.044000000000023
 50
120.2161982852389
 51
149.7838017147446
  0
ARC
  8
1
 62
3
 10
391.9778848679778
 20
142.909684472409
 30
0
 40
0.457200000000032
 50
82.54155094367063
 51
97.45844905627287
  0
ARC
  8
1
 62
3
 10
391.9778848679778
 20
142.909684472409
 30
0
 40
1.044000000000196
 50
30.21619828524601
 51
59.7838017147422
  0
ARC
  8
1
 62
3
 10
391.9778848679778
 20
142.909684472409
 30
0
 40
0.4572000000001679
 50
352.5415509437052
 51
7.458449056330131
  0
ARC
  8
1
 62
3
 10
391.9778848679778
 20
142.909684472409
 30
0
 40
1.044000000000223
 50
300.2161982852578
 51
329.783801714754
  0
ARC
  8
1
 62
3
 10
391.9778848679778
 20
142.909684472409
 30
0
 40
0.4571999999997475
 50
262.5415509437235
 51
277.4584490563331
  0
ARC
  8
1
 62
3
 10
391.9778848679778
 20
142.909684472409
 30
0
 40
1.043999999999902
 50
210.2161982852554
 51
239.7838017147611
  0
ARC
  8
1
 62
3
 10
409.577883320309
 20
188.4096709069604
 30
0
 40
42.5
 50
180
 51
241.9275130641471
  0
ARC
  8
1
 62
3
 10
409.577883320309
 20
188.4096709069604
 30
0
 40
42.5000000000001
 50
298.0724869358529
 51
298.9932044200963
  0
ARC
  8
1
 62
3
 10
237.2928891630422
 20
95.56058775617424
 30
0
 40
1
 50
180
 51
270
  0
ARC
  8
1
 62
3
 10
237.2928891630422
 20
13.36058775617462
 30
0
 40
1
 50
90
 51
180
  0
ARC
  8
1
 62
3
 10
228.4071270822593
 20
36.86058775617443
 30
0
 40
4.799999999999915
 50
342.4172239915744
 51
355.6688512692064
  0
ARC
  8
1
 62
3
 10
230.5292116487954
 20
36.03978392048794
 30
0
 40
3.343206622513329
 50
42.78344578283969
 51
60.88600448707048
  0
ARC
  8
1
 62
3
 10
228.4071270822593
 20
36.86058775617443
 30
0
 40
4.799999999999818
 50
4.331148730789072
 51
17.58277600842122
  0
ARC
  8
1
 62
3
 10
230.5292116487959
 20
37.93519571637455
 30
0
 40
3.567081604788594
 50
297.1300878509888
 51
308.9487157491399
  0
ARC
  8
1
 62
3
 10
230.6042116487958
 20
37.21058775617425
 30
0
 40
2.98296085290483
 50
316.6003132160601
 51
322.8842440221371
  0
ARC
  8
1
 62
3
 10
228.4071270822593
 20
72.0605877561745
 30
0
 40
4.799999999999846
 50
4.33114873079347
 51
17.58277600842559
  0
ARC
  8
1
 62
3
 10
230.5292116487954
 20
72.88139159186099
 30
0
 40
3.343206622513383
 50
299.1139955129295
 51
317.2165542171601
  0
ARC
  8
1
 62
3
 10
228.4071270822593
 20
72.0605877561745
 30
0
 40
4.799999999999803
 50
342.4172239915786
 51
355.668851269211
  0
ARC
  8
1
 62
3
 10
230.5292116487959
 20
70.98597979597437
 30
0
 40
3.567081604788507
 50
51.05128425086019
 51
62.86991214901118
  0
ARC
  8
1
 62
3
 10
230.6042116487958
 20
71.71058775617468
 30
0
 40
2.982960852904978
 50
37.11575597786305
 51
43.39968678393997
  0
CIRCLE
  8
1
 62
3
 10
80.28929922266727
 20
188.4096709069608
 30
0
 40
41.50000000000003
  0
CIRCLE
  8
1
 62
3
 10
80.28929922266727
 20
188.4096709069608
 30
0
 40
37.00000000000003
  0
CIRCLE
  8
1
 62
3
 10
80.28929922266727
 20
188.4096709069608
 30
0
 40
13
  0
CIRCLE
  8
1
 62
3
 10
117.0392992226673
 20
151.6596709069607
 30
0
 40
3.249999999999901
  0
CIRCLE
  8
1
 62
3
 10
117.0392992226673
 20
225.1596709069608
 30
0
 40
3.249999999999901
  0
CIRCLE
  8
1
 62
3
 10
43.53929922266735
 20
151.6596709069608
 30
0
 40
3.24999999999995
  0
CIRCLE
  8
1
 62
3
 10
43.53929922266735
 20
225.1596709069608
 30
0
 40
3.24999999999995
  0
CIRCLE
  8
1
 62
3
 10
409.577883320309
 20
188.4096709069604
 30
0
 40
6.400000000000091
  0
CIRCLE
  8
1
 62
3
 10
409.577883320309
 20
188.4096709069604
 30
0
 40
8.15902752921852
  0
CIRCLE
  8
1
 62
3
 10
409.577883320309
 20
188.4096709069604
 30
0
 40
4
  0
CIRCLE
  8
1
 62
3
 10
409.577883320309
 20
188.4096709069604
 30
0
 40
41.09999999999991
  0
CIRCLE
  8
1
 62
3
 10
372.827883320309
 20
151.6596709069604
 30
0
 40
3.249999999999773
  0
CIRCLE
  8
1
 62
3
 10
372.827883320309
 20
151.6596709069604
 30
0
 40
4.599999999999795
  0
CIRCLE
  8
1
 62
3
 10
372.827883320309
 20
225.1596709069605
 30
0
 40
3.249999999999773
  0
CIRCLE
  8
1
 62
3
 10
372.827883320309
 20
225.1596709069605
 30
0
 40
4.599999999999795
  0
CIRCLE
  8
1
 62
3
 10
446.327883320309
 20
225.1596709069605
 30
0
 40
3.25
  0
CIRCLE
  8
1
 62
3
 10
446.327883320309
 20
225.1596709069605
 30
0
 40
4.599999999999795
  0
CIRCLE
  8
1
 62
3
 10
446.327883320309
 20
151.6596709069604
 30
0
 40
3.25
  0
CIRCLE
  8
1
 62
3
 10
446.327883320309
 20
151.6596709069604
 30
0
 40
4.599999999999795
  0
CIRCLE
  8
1
 62
3
 10
427.1778817726406
 20
142.909684472409
 30
0
 40
2.015999999999679
  0
CIRCLE
  8
1
 62
3
 10
391.9778848679778
 20
142.909684472409
 30
0
 40
2.015999999999735
  0
CIRCLE
  8
1
 62
3
 10
234.2939839688434
 20
66.96058775617442
 30
0
 40
0.3499999999998096
  0
CIRCLE
  8
1
 62
3
 10
234.2939839688434
 20
41.96058775617446
 30
0
 40
0.3499999999997954
  0
CIRCLE
  8
1
 62
3
 10
234.2939839688434
 20
54.46058775617442
 30
0
 40
0.3499999999997101
  0
CIRCLE
  8
1
 62
3
 10
234.2939839688434
 20
51.96058775617442
 30
0
 40
0.3499999999997101
  0
CIRCLE
  8
1
 62
3
 10
234.2939839688434
 20
49.46058775617442
 30
0
 40
0.3499999999997101
  0
CIRCLE
  8
1
 62
3
 10
234.2939839688434
 20
46.96058775617442
 30
0
 40
0.3499999999997101
  0
CIRCLE
  8
1
 62
3
 10
234.2939839688434
 20
44.46058775617442
 30
0
 40
0.3499999999997527
  0
CIRCLE
  8
1
 62
3
 10
234.2939839688434
 20
56.96058775617442
 30
0
 40
0.3499999999997101
  0
CIRCLE
  8
1
 62
3
 10
234.2939839688434
 20
59.46058775617442
 30
0
 40
0.3499999999997101
  0
CIRCLE
  8
1
 62
3
 10
234.2939839688434
 20
61.96058775617442
 30
0
 40
0.3499999999997101
  0
CIRCLE
  8
1
 62
3
 10
234.2939839688434
 20
64.46058775617442
 30
0
 40
0.3499999999998096
  0
POLYLINE
  8
1
 62
3
 66
1
  0
VERTEX
  8
1
 10
189.1494937644058
 20
312.9519232224016
 30
0
 42
0.004358729398586799
  0
VERTEX
  8
1
 10
190.118607815079
 20
312.9564504075877
 30
0
 42
0.01337584483485762
  0
VERTEX
  8
1
 10
191.0708294761955
 20
312.9946921077487
 30
0
 42
0.02383563990240508
  0
VERTEX
  8
1
 10
191.9892663581986
 20
313.1003628378597
 30
0
 42
0.03589190169501034
  0
VERTEX
  8
1
 10
192.8570260715316
 20
313.3071771128958
 30
0
 42
0.04895632414684401
  0
VERTEX
  8
1
 10
193.6572162266378
 20
313.6488494478319
 30
0
 42
0.04576326853624399
  0
VERTEX
  8
1
 10
194.3149996740009
 20
314.0919936600938
 30
0
 42
0.02110922930135759
  0
VERTEX
  8
1
 10
194.9249556637137
 20
314.6340500185773
 30
0
 42
0.01598160533283108
  0
VERTEX
  8
1
 10
195.5085005094103
 20
315.2357311474024
 30
0
 42
-0.001092134691183968
  0
VERTEX
  8
1
 10
196.0870505247249
 20
315.8577496706888
 30
0
 42
-0.01369804712006183
  0
VERTEX
  8
1
 10
196.6820220232916
 20
316.4608182125561
 30
0
 42
-0.02555441647283454
  0
VERTEX
  8
1
 10
197.5379457784632
 20
317.1937898133406
 30
0
 42
-0.02143501595996554
  0
VERTEX
  8
1
 10
198.4510505152771
 20
317.8374220475155
 30
0
 42
-0.01692967819403514
  0
VERTEX
  8
1
 10
199.4096412383294
 20
318.4083847565823
 30
0
 42
-0.01233822321845173
  0
VERTEX
  8
1
 10
200.4020229522161
 20
318.9233477820422
 30
0
 42
-0.007800748263428327
  0
VERTEX
  8
1
 10
201.4165006615335
 20
319.3989809653967
 30
0
 42
-0.005362192224411864
  0
VERTEX
  8
1
 10
202.2233729052298
 20
319.7537567185173
 30
0
 42
-0.007366627213608373
  0
VERTEX
  8
1
 10
203.0377812160731
 20
320.0873859117386
 30
0
 42
-0.009412356290893159
  0
VERTEX
  8
1
 10
203.8608283976561
 20
320.3927377293842
 30
0
 42
-0.01149368119278564
  0
VERTEX
  8
1
 10
204.6936172535711
 20
320.6626813557776
 30
0
 42
-0.02517093435371614
  0
VERTEX
  8
1
 10
206.2497223494582
 20
321.0439314403058
 30
0
 42
-0.008504618118787813
  0
VERTEX
  8
1
 10
206.9688453604069
 20
321.1701248949479
 30
0
 42
-0.006047552492906699
  0
VERTEX
  8
1
 10
207.6929568080312
 20
321.2755793417745
 30
0
 42
-0.003614339530423646
  0
VERTEX
  8
1
 10
208.4203938801059
 20
321.3672077833907
 30
0
 42
-0.00120208979666946
  0
VERTEX
  8
1
 10
209.1494937644058
 20
321.4519232224016
 30
0
  0
SEQEND
  8
1
  0
POLYLINE
  8
1
 62
3
 66
1
  0
VERTEX
  8
1
 10
189.1494937644058
 20
313.9519232224016
 30
0
 42
0.004358729398586799
  0
VERTEX
  8
1
 10
190.118607815079
 20
313.9564504075877
 30
0
 42
0.01337584483485762
  0
VERTEX
  8
1
 10
191.0708294761955
 20
313.9946921077487
 30
0
 42
0.02383563990240508
  0
VERTEX
  8
1
 10
191.9892663581986
 20
314.1003628378597
 30
0
 42
0.03589190169501034
  0
VERTEX
  8
1
 10
192.8570260715316
 20
314.3071771128958
 30
0
 42
0.04895632414684401
  0
VERTEX
  8
1
 10
193.6572162266378
 20
314.6488494478319
 30
0
 42
0.04576326853624399
  0
VERTEX
  8
1
 10
194.3149996740009
 20
315.0919936600938
 30
0
 42
0.02110922930135759
  0
VERTEX
  8
1
 10
194.9249556637137
 20
315.6340500185773
 30
0
 42
0.01598160533283108
  0
VERTEX
  8
1
 10
195.5085005094103
 20
316.2357311474024
 30
0
 42
-0.001092134691229487
  0
VERTEX
  8
1
 10
196.0870505247249
 20
316.8577496706887
 30
0
 42
-0.01369804712001252
  0
VERTEX
  8
1
 10
196.6820220232916
 20
317.4608182125561
 30
0
 42
-0.02555441647283454
  0
VERTEX
  8
1
 10
197.5379457784632
 20
318.1937898133406
 30
0
 42
-0.02143501595996554
  0
VERTEX
  8
1
 10
198.4510505152771
 20
318.8374220475155
 30
0
 42
-0.01692967819403514
  0
VERTEX
  8
1
 10
199.4096412383294
 20
319.4083847565823
 30
0
 42
-0.01233822321836134
  0
VERTEX
  8
1
 10
200.4020229522161
 20
319.9233477820422
 30
0
 42
-0.007800748263520481
  0
VERTEX
  8
1
 10
201.4165006615335
 20
320.3989809653967
 30
0
 42
-0.005362192224293734
  0
VERTEX
  8
1
 10
202.2233729052298
 20
320.7537567185173
 30
0
 42
-0.007366627213608373
  0
VERTEX
  8
1
 10
203.0377812160731
 20
321.0873859117386
 30
0
 42
-0.009412356290893159
  0
VERTEX
  8
1
 10
203.8608283976561
 20
321.3927377293842
 30
0
 42
-0.01149368119278564
  0
VERTEX
  8
1
 10
204.6936172535711
 20
321.6626813557776
 30
0
 42
-0.02517093435362971
  0
VERTEX
  8
1
 10
206.2497223494582
 20
322.0439314403058
 30
0
 42
-0.008504618118710979
  0
VERTEX
  8
1
 10
206.9688453604069
 20
322.170124894948
 30
0
 42
-0.006047552492753038
  0
VERTEX
  8
1
 10
207.6929568080312
 20
322.2755793417746
 30
0
 42
-0.00361433953011611
  0
VERTEX
  8
1
 10
208.4203938801059
 20
322.3672077833907
 30
0
 42
-0.001202089796592632
  0
VERTEX
  8
1
 10
209.1494937644058
 20
322.4519232224016
 30
0
  0
SEQEND
  8
1
  0
POLYLINE
  8
1
 62
3
 66
1
  0
VERTEX
  8
1
 10
189.1494937644058
 20
317.9519232224016
 30
0
 42
0.002401515546166432
  0
VERTEX
  8
1
 10
189.8939708263847
 20
317.8936150418491
 30
0
 42
0.007248840753387931
  0
VERTEX
  8
1
 10
190.63606886907
 20
317.8498839064347
 30
0
 42
0.01229879808574948
  0
VERTEX
  8
1
 10
191.3734088731682
 20
317.8353068612967
 30
0
 42
0.01753962731824249
  0
VERTEX
  8
1
 10
192.1036118193856
 20
317.8644609515728
 30
0
 42
0.02289826929965518
  0
VERTEX
  8
1
 10
192.8242986884288
 20
317.9519232224016
 30
0
 42
0.02623792913361231
  0
VERTEX
  8
1
 10
193.5939718277558
 20
318.1232463654182
 30
0
 42
0.01533451021666041
  0
VERTEX
  8
1
 10
194.3527231068931
 20
318.3597457508046
 30
0
 42
0.01262719634016305
  0
VERTEX
  8
1
 10
195.1036425968195
 20
318.640741842599
 30
0
 42
0.002243745492448638
  0
VERTEX
  8
1
 10
195.8498203685138
 20
318.94555510484
 30
0
 42
-0.002052424584108628
  0
VERTEX
  8
1
 10
196.5943464929547
 20
319.2535060015659
 30
0
 42
-0.004718784384074467
  0
VERTEX
  8
1
 10
197.3908882859568
 20
319.5679389240793
 30
0
 42
-0.002952234778203
  0
VERTEX
  8
1
 10
198.1885777019385
 20
319.8687484126156
 30
0
 42
-0.001148070354362007
  0
VERTEX
  8
1
 10
198.9869198844562
 20
320.1623414398952
 30
0
 42
0.0006697605109458634
  0
VERTEX
  8
1
 10
199.7854199770661
 20
320.4551249786385
 30
0
 42
0.002482044596533108
  0
VERTEX
  8
1
 10
200.5835831233246
 20
320.7535060015659
 30
0
 42
0.001978882975310483
  0
VERTEX
  8
1
 10
201.2609276967068
 20
321.0136317970242
 30
0
 42
-0.00242487297560486
  0
VERTEX
  8
1
 10
201.9396036596709
 20
321.2721994010061
 30
0
 42
-0.005965402688157057
  0
VERTEX
  8
1
 10
202.6215419042613
 20
321.5189986897313
 30
0
 42
-0.009563208241552414
  0
VERTEX
  8
1
 10
203.3086733225225
 20
321.7438195394196
 30
0
 42
-0.01321986738232668
  0
VERTEX
  8
1
 10
204.0029288064987
 20
321.9364518262905
 30
0
 42
-0.01938778054353268
  0
VERTEX
  8
1
 10
205.0100365672765
 20
322.1435192710069
 30
0
 42
-0.01499239441259387
  0
VERTEX
  8
1
 10
206.0319478152567
 20
322.2812712720604
 30
0
 42
-0.01059728124986815
  0
VERTEX
  8
1
 10
207.0649616786388
 20
322.3670366903669
 30
0
 42
-0.006296230251566749
  0
VERTEX
  8
1
 10
208.105377285622
 20
322.4181443868421
 30
0
 42
-0.002086734309588506
  0
VERTEX
  8
1
 10
209.1494937644058
 20
322.4519232224016
 30
0
  0
SEQEND
  8
1
  0
POLYLINE
  8
1
 62
3
 66
1
  0
VERTEX
  8
1
 10
189.1494937644058
 20
318.9519232224016
 30
0
 42
0.002401515546318201
  0
VERTEX
  8
1
 10
189.8939708263847
 20
318.8936150418491
 30
0
 42
0.007248840753236156
  0
VERTEX
  8
1
 10
190.63606886907
 20
318.8498839064347
 30
0
 42
0.01229879808586263
  0
VERTEX
  8
1
 10
191.3734088731682
 20
318.8353068612966
 30
0
 42
0.01753962731824594
  0
VERTEX
  8
1
 10
192.1036118193856
 20
318.8644609515729
 30
0
 42
0.02289826929953522
  0
VERTEX
  8
1
 10
192.8242986884288
 20
318.9519232224016
 30
0
 42
0.02623792913380673
  0
VERTEX
  8
1
 10
193.5939718277558
 20
319.1232463654183
 30
0
 42
0.01533451021639717
  0
VERTEX
  8
1
 10
194.3527231068931
 20
319.3597457508046
 30
0
 42
0.01262719634046113
  0
VERTEX
  8
1
 10
195.1036425968195
 20
319.640741842599
 30
0
 42
0.002243745492151097
  0
VERTEX
  8
1
 10
195.8498203685138
 20
319.94555510484
 30
0
 42
-0.002052424584108628
  0
VERTEX
  8
1
 10
196.5943464929547
 20
320.2535060015659
 30
0
 42
-0.004718784384074467
  0
VERTEX
  8
1
 10
197.3908882859568
 20
320.5679389240793
 30
0
 42
-0.002952234778203
  0
VERTEX
  8
1
 10
198.1885777019385
 20
320.8687484126156
 30
0
 42
-0.001148070354299169
  0
VERTEX
  8
1
 10
198.9869198844562
 20
321.1623414398953
 30
0
 42
0.0006697605110084799
  0
VERTEX
  8
1
 10
199.7854199770661
 20
321.4551249786385
 30
0
 42
0.002482044596501744
  0
VERTEX
  8
1
 10
200.5835831233246
 20
321.7535060015659
 30
0
 42
0.00197888297530532
  0
VERTEX
  8
1
 10
201.2609276967068
 20
322.0136317970241
 30
0
 42
-0.00242487297582402
  0
VERTEX
  8
1
 10
201.9396036596709
 20
322.2721994010061
 30
0
 42
-0.005965402688056468
  0
VERTEX
  8
1
 10
202.6215419042613
 20
322.5189986897314
 30
0
 42
-0.009563208241478466
  0
VERTEX
  8
1
 10
203.3086733225225
 20
322.7438195394196
 30
0
 42
-0.01321986738209883
  0
VERTEX
  8
1
 10
204.0029288064987
 20
322.9364518262906
 30
0
 42
-0.01938778054353313
  0
VERTEX
  8
1
 10
205.0100365672765
 20
323.1435192710068
 30
0
 42
-0.01499239441264095
  0
VERTEX
  8
1
 10
206.0319478152567
 20
323.2812712720603
 30
0
 42
-0.01059728124997297
  0
VERTEX
  8
1
 10
207.0649616786388
 20
323.3670366903668
 30
0
 42
-0.006296230251566749
  0
VERTEX
  8
1
 10
208.105377285622
 20
323.4181443868419
 30
0
 42
-0.002086734309697308
  0
VERTEX
  8
1
 10
209.1494937644058
 20
323.4519232224014
 30
0
  0
SEQEND
  8
1
  0
POLYLINE
  8
1
 62
3
 66
1
  0
VERTEX
  8
1
 10
189.1494937644058
 20
322.9519232224014
 30
0
 42
-0.001012204110929248
  0
VERTEX
  8
1
 10
189.7807336053076
 20
322.9712422286743
 30
0
 42
-0.003041506933753892
  0
VERTEX
  8
1
 10
190.4116010730836
 20
322.9854335023105
 30
0
 42
-0.005083541123704914
  0
VERTEX
  8
1
 10
191.0417237946085
 20
322.9893693106734
 30
0
 42
-0.007140173251189445
  0
VERTEX
  8
1
 10
191.6707293967564
 20
322.9779219211262
 30
0
 42
-0.02015103824160576
  0
VERTEX
  8
1
 10
193.0353160851865
 20
322.8785038823846
 30
0
 42
-0.005713191267236904
  0
VERTEX
  8
1
 10
193.7709458573397
 20
322.7878791725233
 30
0
 42
-0.001504699509089397
  0
VERTEX
  8
1
 10
194.5062775675195
 20
322.6865010547839
 30
0
 42
0.002686391856067528
  0
VERTEX
  8
1
 10
195.2424539603835
 20
322.5867811125019
 30
0
 42
0.006874857216783071
  0
VERTEX
  8
1
 10
195.9806177805897
 20
322.5011309290128
 30
0
 42
0.006540794940952848
  0
VERTEX
  8
1
 10
196.444652463436
 20
322.4598702757268
 30
0
 42
0.006046787787690815
  0
VERTEX
  8
1
 10
196.909463316232
 20
322.4303107973034
 30
0
 42
0.007915314743163707
  0
VERTEX
  8
1
 10
197.3745969830002
 20
322.4137518450805
 30
0
 42
0.007448605158220349
  0
VERTEX
  8
1
 10
197.8396001077626
 20
322.4114927703962
 30
0
 42
0.01990100912996744
  0
VERTEX
  8
1
 10
198.8674434755266
 20
322.4627583531334
 30
0
 42
0.006705255688205072
  0
VERTEX
  8
1
 10
199.4295256568429
 20
322.5208826370146
 30
0
 42
0.006951790059231795
  0
VERTEX
  8
1
 10
199.9904574647477
 20
322.5944206355474
 30
0
 42
0.002464144041667038
  0
VERTEX
  8
1
 10
200.5504304854982
 20
322.6785872080475
 30
0
 42
0.002737693092231972
  0
VERTEX
  8
1
 10
201.1096363053516
 20
322.7685972138304
 30
0
 42
-0.000133987858099274
  0
VERTEX
  8
1
 10
201.6645211276985
 20
322.8593676407351
 30
0
 42
-0.001401259120640468
  0
VERTEX
  8
1
 10
202.2192813916877
 20
322.9483701212622
 30
0
 42
-0.00267116650105378
  0
VERTEX
  8
1
 10
202.7743603706873
 20
323.0327927256622
 30
0
 42
-0.003942555143109872
  0
VERTEX
  8
1
 10
203.3302013380653
 20
323.1098235241857
 30
0
 42
-0.005212195614944595
  0
VERTEX
  8
1
 10
203.8872475671896
 20
323.1766505870835
 30
0
 42
-0.004276427742322952
  0
VERTEX
  8
1
 10
204.3272627183918
 20
323.2207004686792
 30
0
 42
-0.003618960281310163
  0
VERTEX
  8
1
 10
204.7680986489989
 20
323.257812339394
 30
0
 42
-0.002963333241703578
  0
VERTEX
  8
1
 10
205.2095525211038
 20
323.2891299454749
 30
0
 42
-0.002309907759096628
  0
VERTEX
  8
1
 10
205.6514214967991
 20
323.3157970331683
 30
0
 42
-0.001658437889060403
  0
VERTEX
  8
1
 10
206.0935027381772
 20
323.338957348721
 30
0
 42
-0.001659181814256279
  0
VERTEX
  8
1
 10
206.7046793245975
 20
323.3669691764632
 30
0
 42
-0.001291066999767268
  0
VERTEX
  8
1
 10
207.3158703235681
 20
323.391368568868
 30
0
 42
-0.0009224660059037287
  0
VERTEX
  8
1
 10
207.9270721319514
 20
323.4130586347696
 30
0
 42
-0.0005535777017824148
  0
VERTEX
  8
1
 10
208.5382811466098
 20
323.4329424830027
 30
0
 42
-0.0001845410471769046
  0
VERTEX
  8
1
 10
209.1494937644058
 20
323.4519232224014
 30
0
  0
SEQEND
  8
1
  0
POLYLINE
  8
1
 62
3
 66
1
  0
VERTEX
  8
1
 10
189.1494937644058
 20
323.9519232224014
 30
0
 42
-0.001012204110929248
  0
VERTEX
  8
1
 10
189.7807336053076
 20
323.9712422286743
 30
0
 42
-0.003041506933843821
  0
VERTEX
  8
1
 10
190.4116010730836
 20
323.9854335023105
 30
0
 42
-0.005083541123795067
  0
VERTEX
  8
1
 10
191.0417237946085
 20
323.9893693106733
 30
0
 42
-0.007140173251279599
  0
VERTEX
  8
1
 10
191.6707293967564
 20
323.9779219211261
 30
0
 42
-0.02015103824152557
  0
VERTEX
  8
1
 10
193.0353160851865
 20
323.8785038823847
 30
0
 42
-0.005713191267084577
  0
VERTEX
  8
1
 10
193.7709458573397
 20
323.7878791725235
 30
0
 42
-0.001504699509089397
  0
VERTEX
  8
1
 10
194.5062775675195
 20
323.686501054784
 30
0
 42
0.002686391856219185
  0
VERTEX
  8
1
 10
195.2424539603835
 20
323.586781112502
 30
0
 42
0.006874857216555575
  0
VERTEX
  8
1
 10
195.9806177805897
 20
323.5011309290128
 30
0
 42
0.006540794941195664
  0
VERTEX
  8
1
 10
196.444652463436
 20
323.4598702757267
 30
0
 42
0.006046787787448056
  0
VERTEX
  8
1
 10
196.909463316232
 20
323.4303107973033
 30
0
 42
0.007915314743406251
  0
VERTEX
  8
1
 10
197.3745969830002
 20
323.4137518450804
 30
0
 42
0.007448605157978529
  0
VERTEX
  8
1
 10
197.8396001077626
 20
323.411492770396
 30
0
 42
0.01990100913029842
  0
VERTEX
  8
1
 10
198.8674434755266
 20
323.4627583531332
 30
0
 42
0.006705255687849174
  0
VERTEX
  8
1
 10
199.4295256568429
 20
323.5208826370144
 30
0
 42
0.006951790059678293
  0
VERTEX
  8
1
 10
199.9904574647477
 20
323.5944206355474
 30
0
 42
0.002464144041126967
  0
VERTEX
  8
1
 10
200.5504304854982
 20
323.6785872080474
 30
0
 42
0.002737693092825613
  0
VERTEX
  8
1
 10
201.1096363053516
 20
323.7685972138304
 30
0
 42
-0.0001339878577999579
  0
VERTEX
  8
1
 10
201.6645211276985
 20
323.8593676407352
 30
0
 42
-0.001401259120440627
  0
VERTEX
  8
1
 10
202.2192813916877
 20
323.9483701212623
 30
0
 42
-0.002671166500953637
  0
VERTEX
  8
1
 10
202.7743603706873
 20
324.0327927256622
 30
0
 42
-0.003942555143109872
  0
VERTEX
  8
1
 10
203.3302013380653
 20
324.1098235241857
 30
0
 42
-0.005212195614944595
  0
VERTEX
  8
1
 10
203.8872475671896
 20
324.1766505870835
 30
0
 42
-0.004276427742067151
  0
VERTEX
  8
1
 10
204.3272627183918
 20
324.2207004686792
 30
0
 42
-0.003618960281054142
  0
VERTEX
  8
1
 10
204.7680986489989
 20
324.257812339394
 30
0
 42
-0.002963333241831699
  0
VERTEX
  8
1
 10
205.2095525211038
 20
324.2891299454749
 30
0
 42
-0.002309907759096406
  0
VERTEX
  8
1
 10
205.6514214967991
 20
324.3157970331683
 30
0
 42
-0.00165843788867582
  0
VERTEX
  8
1
 10
206.0935027381772
 20
324.338957348721
 30
0
 42
-0.001659181814349094
  0
VERTEX
  8
1
 10
206.7046793245975
 20
324.3669691764632
 30
0
 42
-0.001291066999861859
  0
VERTEX
  8
1
 10
207.315870323568
 20
324.391368568868
 30
0
 42
-0.000922466005810914
  0
VERTEX
  8
1
 10
207.9270721319513
 20
324.4130586347697
 30
0
 42
-0.0005535777015952311
  0
VERTEX
  8
1
 10
208.5382811466098
 20
324.4329424830027
 30
0
 42
-0.0001845410469011252
  0
VERTEX
  8
1
 10
209.1494937644058
 20
324.4519232224014
 30
0
  0
SEQEND
  8
1
  0
POLYLINE
  8
1
 62
3
 66
1
  0
VERTEX
  8
1
 10
189.1494937644058
 20
330.4519232224014
 30
0
 42
-0.001362471609665539
  0
VERTEX
  8
1
 10
189.7814377659145
 20
330.4772294026944
 30
0
 42
-0.004097610774060448
  0
VERTEX
  8
1
 10
190.4128333541457
 20
330.4956145302182
 30
0
 42
-0.006858595752645953
  0
VERTEX
  8
1
 10
191.0431321158223
 20
330.5001575522038
 30
0
 42
-0.009646437364495351
  0
VERTEX
  8
1
 10
191.6717856376668
 20
330.4839374158817
 30
0
 42
-0.01243679960362065
  0
VERTEX
  8
1
 10
192.2982455064018
 20
330.440033068483
 30
0
 42
-0.01723934499796094
  0
VERTEX
  8
1
 10
193.1256037098058
 20
330.331034102679
 30
0
 42
-0.01504120646976655
  0
VERTEX
  8
1
 10
193.9465756644947
 20
330.1684270136035
 30
0
 42
-0.01291158192494318
  0
VERTEX
  8
1
 10
194.7596085911101
 20
329.9596027417438
 30
0
 42
-0.01088102849101133
  0
VERTEX
  8
1
 10
195.5631497102929
 20
329.7119522275878
 30
0
 42
-0.008953596705365153
  0
VERTEX
  8
1
 10
196.3556462426845
 20
329.4328664116231
 30
0
 42
-0.003703781418504471
  0
VERTEX
  8
1
 10
196.7915067267518
 20
329.266912423172
 30
0
 42
-0.002172491293999139
  0
VERTEX
  8
1
 10
197.224678635311
 20
329.0961247651883
 30
0
 42
-0.0006319289789202845
  0
VERTEX
  8
1
 10
197.6563737291855
 20
328.9231142684346
 30
0
 42
0.000913976372435647
  0
VERTEX
  8
1
 10
198.0878037691984
 20
328.7504917636733
 30
0
 42
0.00246193244128781
  0
VERTEX
  8
1
 10
198.5201805161728
 20
328.5808680816668
 30
0
 42
0.0034731503539684
  0
VERTEX
  8
1
 10
198.9835187369011
 20
328.4054152640565
 30
0
 42
0.002008603979214111
  0
VERTEX
  8
1
 10
199.4489787804753
 20
328.2349698787248
 30
0
 42
0.002047564781517414
  0
VERTEX
  8
1
 10
199.9162263128842
 20
328.0681560387039
 30
0
 42
0.0005824769215363259
  0
VERTEX
  8
1
 10
200.3849270001164
 20
327.9035978570261
 30
0
 42
0.0006242501461307039
  0
VERTEX
  8
1
 10
200.8547465081607
 20
327.7399194467234
 30
0
 42
0.0003363676649751867
  0
VERTEX
  8
1
 10
201.5060366730732
 20
327.5144214661746
 30
0
 42
0.005230759132336332
  0
VERTEX
  8
1
 10
202.1598056310159
 20
327.2961860486159
 30
0
 42
0.006236406617831087
  0
VERTEX
  8
1
 10
202.8170317097652
 20
327.0934246630081
 30
0
 42
0.01123059924318579
  0
VERTEX
  8
1
 10
203.4786932370973
 20
326.9143487783117
 30
0
 42
0.01235024403559381
  0
VERTEX
  8
1
 10
204.1457685407886
 20
326.7671698634872
 30
0
 42
0.02178204566614251
  0
VERTEX
  8
1
 10
205.1301733810115
 20
326.6195013405364
 30
0
 42
0.01290993169198519
  0
VERTEX
  8
1
 10
206.1254716909013
 20
326.5401859064212
 30
0
 42
0.01287933557294121
  0
VERTEX
  8
1
 10
207.1289401030415
 20
326.5121352889329
 30
0
 42
0.004130453162160478
  0
VERTEX
  8
1
 10
208.1378552500153
 20
326.5182612158624
 30
0
 42
0.004305287326697554
  0
VERTEX
  8
1
 10
209.1494937644058
 20
326.5414754150008
 30
0
  0
SEQEND
  8
1
  0
POLYLINE
  8
1
 62
3
 66
1
  0
VERTEX
  8
1
 10
189.1494937644058
 20
331.4519232224014
 30
0
 42
-0.001358152088050376
  0
VERTEX
  8
1
 10
189.7814100080733
 20
331.4771389760289
 30
0
 42
-0.004084509566323691
  0
VERTEX
  8
1
 10
190.4127847779237
 20
331.4954562835535
 30
0
 42
-0.006836327826216795
  0
VERTEX
  8
1
 10
191.04307660014
 20
331.4999766988725
 30
0
 42
-0.009614512800664618
  0
VERTEX
  8
1
 10
191.6717440009051
 20
331.4838017758831
 30
0
 42
-0.01239487570151424
  0
VERTEX
  8
1
 10
192.2982455064018
 20
331.4400330684825
 30
0
 42
-0.01720460201203646
  0
VERTEX
  8
1
 10
193.1257018808926
 20
331.3313539144382
 30
0
 42
-0.01506268212940101
  0
VERTEX
  8
1
 10
193.9467780445464
 20
331.1690863067056
 30
0
 42
-0.01298929339486125
  0
VERTEX
  8
1
 10
194.7598660945831
 20
330.9604416103093
 30
0
 42
-0.01101450300662382
  0
VERTEX
  8
1
 10
195.5633581282226
 20
330.7126311902737
 30
0
 42
-0.009143100764542039
  0
VERTEX
  8
1
 10
196.3556462426845
 20
330.4328664116231
 30
0
 42
-0.003751510980295397
  0
VERTEX
  8
1
 10
196.7913164651599
 20
330.2662926083523
 30
0
 42
-0.002072865824976989
  0
VERTEX
  8
1
 10
197.2243124781338
 20
330.094931935661
 30
0
 42
-0.0003846956453864331
  0
VERTEX
  8
1
 10
197.655926807219
 20
329.9216583316093
 30
0
 42
0.001309348898479522
  0
VERTEX
  8
1
 10
198.0874519780278
 20
329.7493457342578
 30
0
 42
0.003005986051690069
  0
VERTEX
  8
1
 10
198.5201805161728
 20
329.5808680816668
 30
0
 42
0.003951844712019426
  0
VERTEX
  8
1
 10
198.9841915653283
 20
329.4076071359216
 30
0
 42
0.001611805709714305
  0
VERTEX
  8
1
 10
199.4503482111124
 20
329.2394310702608
 30
0
 42
0.001288536037524252
  0
VERTEX
  8
1
 10
199.9179559315176
 20
329.0737906139782
 30
0
 42
-0.0005425218246928699
  0
VERTEX
  8
1
 10
200.3863202045362
 20
328.9081364963677
 30
0
 42
-0.001862584057215976
  0
VERTEX
  8
1
 10
200.8547465081607
 20
328.7399194467234
 30
0
 42
-0.001452496948289092
  0
VERTEX
  8
1
 10
201.5076547208884
 20
328.4992119205819
 30
0
 42
0.002656236824436572
  0
VERTEX
  8
1
 10
202.1612715121186
 20
328.2600282710962
 30
0
 42
0.006791582524807644
  0
VERTEX
  8
1
 10
202.8175364002477
 20
328.0338416236897
 30
0
 42
0.01103558094091351
  0
VERTEX
  8
1
 10
203.4783889036723
 20
327.8321251037862
 30
0
 42
0.01535980820482242
  0
VERTEX
  8
1
 10
204.1457685407886
 20
327.666351836809
 30
0
 42
0.02443126801002987
  0
VERTEX
  8
1
 10
205.125247008167
 20
327.5043654272468
 30
0
 42
0.01606205456703356
  0
VERTEX
  8
1
 10
206.1189031937754
 20
327.4217794754716
 30
0
 42
0.01393493870882616
  0
VERTEX
  8
1
 10
207.1231926680564
 20
327.3987438670369
 30
0
 42
0.005770450064300861
  0
VERTEX
  8
1
 10
208.1345710014523
 20
327.4154084874957
 30
0
 42
0.003972978688880948
  0
VERTEX
  8
1
 10
209.1494937644058
 20
327.4519232224014
 30
0
  0
SEQEND
  8
1
  0
POLYLINE
  8
1
 62
3
 66
1
  0
VERTEX
  8
1
 10
189.1494937644058
 20
332.9519232224014
 30
0
 42
-0.001437466414659379
  0
VERTEX
  8
1
 10
189.7820782941327
 20
332.9728822933141
 30
0
 42
-0.004324802430529033
  0
VERTEX
  8
1
 10
190.4139542785277
 20
332.9865353508137
 30
0
 42
-0.007243808653128902
  0
VERTEX
  8
1
 10
191.0444131722588
 20
332.9855763814872
 30
0
 42
-0.0101965697846085
  0
VERTEX
  8
1
 10
191.6727464299942
 20
332.9626993719213
 30
0
 42
-0.01315520811121567
  0
VERTEX
  8
1
 10
192.2982455064018
 20
332.9105983087031
 30
0
 42
-0.01633930251811432
  0
VERTEX
  8
1
 10
193.0474611984655
 20
332.8020113117342
 30
0
 42
-0.01378166540675142
  0
VERTEX
  8
1
 10
193.7909184452237
 20
332.6480790182723
 30
0
 42
-0.01127931597960699
  0
VERTEX
  8
1
 10
194.5280050733688
 20
332.456520813151
 30
0
 42
-0.008860671032301468
  0
VERTEX
  8
1
 10
195.2581089095934
 20
332.2350560812039
 30
0
 42
-0.006521860467710689
  0
VERTEX
  8
1
 10
195.9806177805898
 20
331.9914042072644
 30
0
 42
-0.003263998879549146
  0
VERTEX
  8
1
 10
196.4496607622236
 20
331.8232491687454
 30
0
 42
-0.002743206220292482
  0
VERTEX
  8
1
 10
196.9158520185363
 20
331.6497662749537
 30
0
 42
-0.002214346597192194
  0
VERTEX
  8
1
 10
197.3798619394273
 20
331.4718365468863
 30
0
 42
-0.001680038634193615
  0
VERTEX
  8
1
 10
197.8423609147959
 20
331.2903410055397
 30
0
 42
-0.001142648290465525
  0
VERTEX
  8
1
 10
198.3040193345414
 20
331.1061606719111
 30
0
 42
-0.003025283605899203
  0
VERTEX
  8
1
 10
198.8834292617561
 20
330.8703745822916
 30
0
 42
-0.006884513991840358
  0
VERTEX
  8
1
 10
199.4581330154945
 20
330.6231201355693
 30
0
 42
-0.01075366762077574
  0
VERTEX
  8
1
 10
200.0236935027066
 20
330.3557812502672
 30
0
 42
-0.01459082984920678
  0
VERTEX
  8
1
 10
200.5756736303424
 20
330.0597418449086
 30
0
 42
-0.0182791571637227
  0
VERTEX
  8
1
 10
201.1096363053516
 20
329.7263858380162
 30
0
 42
-0.01457721295470838
  0
VERTEX
  8
1
 10
201.6581251610902
 20
329.3269166064831
 30
0
 42
-0.001460479569388997
  0
VERTEX
  8
1
 10
202.1955759679732
 20
328.9085867762193
 30
0
 42
0.01170481162197361
  0
VERTEX
  8
1
 10
202.7365434731706
 20
328.5048879895119
 30
0
 42
0.02559818686954449
  0
VERTEX
  8
1
 10
203.2955824238527
 20
328.1493118886481
 30
0
 42
0.04086222631759102
  0
VERTEX
  8
1
 10
203.8872475671896
 20
327.8753501159152
 30
0
 42
0.03180568557330893
  0
VERTEX
  8
1
 10
204.3059994911652
 20
327.7511312631511
 30
0
 42
0.01804985857791399
  0
VERTEX
  8
1
 10
204.7408866544971
 20
327.668086141388
 30
0
 42
0.01830108516287881
  0
VERTEX
  8
1
 10
205.1870233729399
 20
327.6161043440236
 30
0
 42
0.005464783303347115
  0
VERTEX
  8
1
 10
205.6395239622484
 20
327.5850754644555
 30
0
 42
0.006549699693756004
  0
VERTEX
  8
1
 10
206.0935027381772
 20
327.5648890960816
 30
0
 42
0.0004093587785536934
  0
VERTEX
  8
1
 10
206.7124044201053
 20
327.5406408209545
 30
0
 42
0.0003245172124349396
  0
VERTEX
  8
1
 10
207.3261704509118
 20
327.5174959460882
 30
0
 42
0.0002340549038074617
  0
VERTEX
  8
1
 10
207.9360847433771
 20
327.4951786214173
 30
0
 42
0.0001422883528797394
  0
VERTEX
  8
1
 10
208.5434312102817
 20
327.4734129968767
 30
0
 42
4.708687528575671e-005
  0
VERTEX
  8
1
 10
209.1494937644058
 20
327.4519232224014
 30
0
  0
SEQEND
  8
1
  0
POLYLINE
  8
1
 62
3
 66
1
  0
VERTEX
  8
1
 10
189.1494937644058
 20
333.9519232224014
 30
0
 42
-0.001399310508410788
  0
VERTEX
  8
1
 10
189.7816732541112
 20
333.9720721094474
 30
0
 42
-0.004208486187185122
  0
VERTEX
  8
1
 10
190.41324545849
 20
333.985117529047
 30
0
 42
-0.00704418056874623
  0
VERTEX
  8
1
 10
191.0436030922157
 20
333.9839560137538
 30
0
 42
-0.0099064757727954
  0
VERTEX
  8
1
 10
191.6721388699618
 20
333.9614840961212
 30
0
 42
-0.01276798874519813
  0
VERTEX
  8
1
 10
192.2982455064018
 20
333.9105983087031
 30
0
 42
-0.01604707638822694
  0
VERTEX
  8
1
 10
193.0487317350473
 20
333.8045527105736
 30
0
 42
-0.01397860901105217
  0
VERTEX
  8
1
 10
193.7935096176153
 20
333.6532620272488
 30
0
 42
-0.01197752447278629
  0
VERTEX
  8
1
 10
194.5312816132793
 20
333.463074732845
 30
0
 42
-0.01006527445185384
  0
VERTEX
  8
1
 10
195.260750181213
 20
333.2403393014782
 30
0
 42
-0.008241774927338828
  0
VERTEX
  8
1
 10
195.9806177805898
 20
332.9914042072644
 30
0
 42
-0.003838553973725147
  0
VERTEX
  8
1
 10
196.4467632243454
 20
332.8174533502653
 30
0
 42
-0.001856704054642026
  0
VERTEX
  8
1
 10
196.9102038227888
 20
332.638468435661
 30
0
 42
0.0001371936479661621
  0
VERTEX
  8
1
 10
197.3729118547497
 20
332.4579345960212
 30
0
 42
0.002130188905833274
  0
VERTEX
  8
1
 10
197.8368595990574
 20
332.2793369639148
 30
0
 42
0.004105463468030686
  0
VERTEX
  8
1
 10
198.3040193345414
 20
332.1061606719111
 30
0
 42
0.004136423690035787
  0
VERTEX
  8
1
 10
198.882784247224
 20
331.902398541203
 30
0
 42
-0.004610467601208583
  0
VERTEX
  8
1
 10
199.4610448750923
 20
331.6962050883032
 30
0
 42
-0.01190343574375346
  0
VERTEX
  8
1
 10
200.0304847437004
 20
331.4717278047417
 30
0
 42
-0.01931776423067617
  0
VERTEX
  8
1
 10
200.5827873786022
 20
331.2131141820486
 30
0
 42
-0.02658956512584731
  0
VERTEX
  8
1
 10
201.1096363053516
 20
330.9045117117538
 30
0
 42
-0.02465029267626905
  0
VERTEX
  8
1
 10
201.6679574857734
 20
330.4881707197586
 30
0
 42
-0.007303506873248246
  0
VERTEX
  8
1
 10
202.2041312364258
 20
330.0326405539726
 30
0
 42
0.009583372171402758
  0
VERTEX
  8
1
 10
202.7389055230511
 20
329.5823647246004
 30
0
 42
0.02737041927782031
  0
VERTEX
  8
1
 10
203.2930283113917
 20
329.1817867418465
 30
0
 42
0.04757618206184744
  0
VERTEX
  8
1
 10
203.8872475671896
 20
328.8753501159152
 30
0
 42
0.03703160076191406
  0
VERTEX
  8
1
 10
204.3013538749297
 20
328.7440618710664
 30
0
 42
0.01980714861984335
  0
VERTEX
  8
1
 10
204.7350089041827
 20
328.6591417690075
 30
0
 42
0.02086257844012669
  0
VERTEX
  8
1
 10
205.1822362966646
 20
328.6088196873896
 30
0
 42
0.004976522059037455
  0
VERTEX
  8
1
 10
205.6370596940908
 20
328.5813255038639
 30
0
 42
0.007214920840501539
  0
VERTEX
  8
1
 10
206.0935027381772
 20
328.5648890960816
 30
0
 42
-0.0005860077343934199
  0
VERTEX
  8
1
 10
206.7145503490875
 20
328.5439063540059
 30
0
 42
-0.0004655068744678219
  0
VERTEX
  8
1
 10
207.3290316895547
 20
328.5218499901566
 30
0
 42
-0.0003378585558023268
  0
VERTEX
  8
1
 10
207.9385883271897
 20
328.4989884099772
 30
0
 42
-0.0002048992799052953
  0
VERTEX
  8
1
 10
208.5448618296031
 20
328.475590018911
 30
0
 42
-6.866814293384233e-005
  0
VERTEX
  8
1
 10
209.1494937644058
 20
328.4519232224014
 30
0
  0
SEQEND
  8
1
  0
POLYLINE
  8
1
 62
3
 66
1
  0
VERTEX
  8
1
 10
189.1494937644058
 20
335.4519232224014
 30
0
 42
-0.001829921716480956
  0
VERTEX
  8
1
 10
189.8907088107331
 20
335.4958499875146
 30
0
 42
-0.005521412245367746
  0
VERTEX
  8
1
 10
190.6303603416796
 20
335.5287950613495
 30
0
 42
-0.009297014988794617
  0
VERTEX
  8
1
 10
191.3668848418649
 20
335.5397767526279
 30
0
 42
-0.01317426561348557
  0
VERTEX
  8
1
 10
192.0987187959082
 20
335.5178133700712
 30
0
 42
-0.01710602726139964
  0
VERTEX
  8
1
 10
192.8242986884288
 20
335.4519232224014
 30
0
 42
-0.01816776250877799
  0
VERTEX
  8
1
 10
193.5865404870434
 20
335.3259329289284
 30
0
 42
-0.01395037294200904
  0
VERTEX
  8
1
 10
194.3423207476556
 20
335.1505114166545
 30
0
 42
-0.009739958315310238
  0
VERTEX
  8
1
 10
195.0939848894131
 20
334.9380850511172
 30
0
 42
-0.005623898474777261
  0
VERTEX
  8
1
 10
195.8438783314636
 20
334.7010801978537
 30
0
 42
-0.001607917713869814
  0
VERTEX
  8
1
 10
196.5943464929547
 20
334.4519232224014
 30
0
 42
-0.003035046830129313
  0
VERTEX
  8
1
 10
197.4416255682214
 20
334.1652934232861
 30
0
 42
-0.01003263971679908
  0
VERTEX
  8
1
 10
198.2784047216755
 20
333.8576829811667
 30
0
 42
-0.01731546574563009
  0
VERTEX
  8
1
 10
199.0904680005333
 20
333.5077622638575
 30
0
 42
-0.02487359489832399
  0
VERTEX
  8
1
 10
199.8635994520109
 20
333.0942016391725
 30
0
 42
-0.03223808317313712
  0
VERTEX
  8
1
 10
200.5835831233246
 20
332.5956714749262
 30
0
 42
-0.02888700042256166
  0
VERTEX
  8
1
 10
201.2895384294859
 20
331.9557990164149
 30
0
 42
-0.01142416437675787
  0
VERTEX
  8
1
 10
201.9511648457361
 20
331.2517631466309
 30
0
 42
0.00515981816640231
  0
VERTEX
  8
1
 10
202.6017481772232
 20
330.5418755226978
 30
0
 42
0.02241317470661101
  0
VERTEX
  8
1
 10
203.2745742290948
 20
329.8844478017388
 30
0
 42
0.04260597243955544
  0
VERTEX
  8
1
 10
204.0029288064987
 20
329.3377916408772
 30
0
 42
0.05849288245856223
  0
VERTEX
  8
1
 10
204.9019360370422
 20
328.9125440581843
 30
0
 42
0.03363910028928131
  0
VERTEX
  8
1
 10
205.8878137749443
 20
328.6526790748233
 30
0
 42
0.03098575730238013
  0
VERTEX
  8
1
 10
206.9388443933654
 20
328.516851040961
 30
0
 42
0.009028684575047038
  0
VERTEX
  8
1
 10
208.0333102654658
 20
328.4637143067647
 30
0
 42
0.009946353456116691
  0
VERTEX
  8
1
 10
209.1494937644058
 20
328.4519232224014
 30
0
  0
SEQEND
  8
1
  0
POLYLINE
  8
1
 62
3
 66
1
  0
VERTEX
  8
1
 10
189.1494937644058
 20
336.4519232224014
 30
0
 42
-0.001902789264488266
  0
VERTEX
  8
1
 10
189.8915596000835
 20
336.4977175827664
 30
0
 42
-0.005745277525821042
  0
VERTEX
  8
1
 10
190.6318492230429
 20
336.5320633530401
 30
0
 42
-0.00968651255753388
  0
VERTEX
  8
1
 10
191.3685864205657
 20
336.5435119431314
 30
0
 42
-0.01374928444269256
  0
VERTEX
  8
1
 10
192.0999949799338
 20
336.5206147629489
 30
0
 42
-0.01788295130671237
  0
VERTEX
  8
1
 10
192.8242986884288
 20
336.4519232224014
 30
0
 42
-0.01866086244707348
  0
VERTEX
  8
1
 10
193.584255208697
 20
336.3209164404325
 30
0
 42
-0.01353317069714708
  0
VERTEX
  8
1
 10
194.3377224706035
 20
336.1404175898044
 30
0
 42
-0.008418840654199639
  0
VERTEX
  8
1
 10
195.0882162528284
 20
335.9254221301608
 30
0
 42
-0.003422876774951362
  0
VERTEX
  8
1
 10
195.8392523340521
 20
335.6909255211452
 30
0
 42
0.001454396476890196
  0
VERTEX
  8
1
 10
196.5943464929547
 20
335.4519232224014
 30
0
 42
0.00234110007505063
  0
VERTEX
  8
1
 10
197.4377246559609
 20
335.1920039938121
 30
0
 42
-0.008094591874555558
  0
VERTEX
  8
1
 10
198.2743824634636
 20
334.919615625584
 30
0
 42
-0.01670365432662503
  0
VERTEX
  8
1
 10
199.0882748525003
 20
334.6093742842769
 30
0
 42
-0.02578314228296336
  0
VERTEX
  8
1
 10
199.8633567601082
 20
334.2358961364502
 30
0
 42
-0.07276438933757819
  0
VERTEX
  8
1
 10
201.2978872209029
 20
333.1534631977756
 30
0
 42
-0.01438878185760279
  0
VERTEX
  8
1
 10
201.9622964105533
 20
332.4570476436482
 30
0
 42
0.002813176268267418
  0
VERTEX
  8
1
 10
202.6114881197321
 20
331.7444571810232
 30
0
 42
0.02037324986591848
  0
VERTEX
  8
1
 10
203.2801397758952
 20
331.0755983046424
 30
0
 42
0.0405942082333875
  0
VERTEX
  8
1
 10
204.0029288064987
 20
330.5103775092473
 30
0
 42
0.05710425916617339
  0
VERTEX
  8
1
 10
204.9005453166781
 20
330.0561792689218
 30
0
 42
0.0329042939707541
  0
VERTEX
  8
1
 10
205.8859594811254
 20
329.7636526172338
 30
0
 42
0.03065123788463802
  0
VERTEX
  8
1
 10
206.9372218862739
 20
329.592379657024
 30
0
 42
0.008913767507330587
  0
VERTEX
  8
1
 10
208.0323831185563
 20
329.501942491133
 30
0
 42
0.009909907619903829
  0
VERTEX
  8
1
 10
209.1494937644058
 20
329.4519232224014
 30
0
  0
SEQEND
  8
1
  0
POLYLINE
  8
1
 62
3
 66
1
  0
VERTEX
  8
1
 10
189.1494937644058
 20
337.9519232224014
 30
0
 42
-0.001607743817767728
  0
VERTEX
  8
1
 10
190.0576226833411
 20
337.9482578095535
 30
0
 42
-0.004839459238541715
  0
VERTEX
  8
1
 10
190.9641054956541
 20
337.932918541802
 30
0
 42
-0.008112118624323645
  0
VERTEX
  8
1
 10
191.8672960947227
 20
337.8942315642431
 30
0
 42
-0.0114263094861225
  0
VERTEX
  8
1
 10
192.7655483739247
 20
337.820523021973
 30
0
 42
-0.01474034783454891
  0
VERTEX
  8
1
 10
193.6572162266378
 20
337.7001190600882
 30
0
 42
-0.01091907975222483
  0
VERTEX
  8
1
 10
194.2713512922417
 20
337.5839651194245
 30
0
 42
-0.01003733773348028
  0
VERTEX
  8
1
 10
194.881210709922
 20
337.4419186266172
 30
0
 42
-0.009167219348103516
  0
VERTEX
  8
1
 10
195.4864831744657
 20
337.2762013454284
 30
0
 42
-0.008316733795330556
  0
VERTEX
  8
1
 10
196.0868573806599
 20
337.0890350396202
 30
0
 42
-0.02049271564588126
  0
VERTEX
  8
1
 10
197.7006065773047
 20
336.4819618273063
 30
0
 42
-0.01613454575087045
  0
VERTEX
  8
1
 10
198.6929498080343
 20
336.0219210797065
 30
0
 42
-0.01882779289657543
  0
VERTEX
  8
1
 10
199.6494486255815
 20
335.4944075675572
 30
0
 42
-0.02154182287544396
  0
VERTEX
  8
1
 10
200.5604999400476
 20
334.8913096282604
 30
0
 42
-0.02412403713676425
  0
VERTEX
  8
1
 10
201.4165006615335
 20
334.2045155992175
 30
0
 42
-0.01837071847585443
  0
VERTEX
  8
1
 10
202.2340856868476
 20
333.4165629406015
 30
0
 42
-0.003824838419006836
  0
VERTEX
  8
1
 10
203.0193736841088
 20
332.589776737782
 30
0
 42
0.01068385427298198
  0
VERTEX
  8
1
 10
203.8079441613008
 20
331.781707626589
 30
0
 42
0.02605597401751485
  0
VERTEX
  8
1
 10
204.6353766264068
 20
331.0499062428522
 30
0
 42
0.04330280254893355
  0
VERTEX
  8
1
 10
205.5372505874105
 20
330.4519232224014
 30
0
 42
0.03453843384906557
  0
VERTEX
  8
1
 10
206.1999896687527
 20
330.1480652571544
 30
0
 42
0.01926728948020135
  0
VERTEX
  8
1
 10
206.9025351194661
 20
329.9134459354054
 30
0
 42
0.01966704674596986
  0
VERTEX
  8
1
 10
207.634935347208
 20
329.73075559628
 30
0
 42
0.005391877216689343
  0
VERTEX
  8
1
 10
208.3872387596355
 20
329.5826845789034
 30
0
 42
0.006832092944663508
  0
VERTEX
  8
1
 10
209.1494937644058
 20
329.4519232224014
 30
0
  0
SEQEND
  8
1
  0
POLYLINE
  8
1
 62
3
 66
1
  0
VERTEX
  8
1
 10
189.1494937644058
 20
338.9519232224014
 30
0
 42
-0.001607743817705333
  0
VERTEX
  8
1
 10
190.0576226833411
 20
338.9482578095536
 30
0
 42
-0.004839459238604332
  0
VERTEX
  8
1
 10
190.9641054956541
 20
338.932918541802
 30
0
 42
-0.008112118624386487
  0
VERTEX
  8
1
 10
191.8672960947227
 20
338.894231564243
 30
0
 42
-0.01142630948618512
  0
VERTEX
  8
1
 10
192.7655483739247
 20
338.820523021973
 30
0
 42
-0.01474034783442387
  0
VERTEX
  8
1
 10
193.6572162266378
 20
338.7001190600882
 30
0
 42
-0.01091907975231476
  0
VERTEX
  8
1
 10
194.2713512922417
 20
338.5839651194246
 30
0
 42
-0.01003733773347962
  0
VERTEX
  8
1
 10
194.881210709922
 20
338.4419186266172
 30
0
 42
-0.00916721934819101
  0
VERTEX
  8
1
 10
195.4864831744657
 20
338.2762013454284
 30
0
 42
-0.008316733795503097
  0
VERTEX
  8
1
 10
196.0868573806599
 20
338.0890350396202
 30
0
 42
-0.02049271564577686
  0
VERTEX
  8
1
 10
197.7006065773047
 20
337.4819618273063
 30
0
 42
-0.01613454575082292
  0
VERTEX
  8
1
 10
198.6929498080343
 20
337.0219210797065
 30
0
 42
-0.01882779289657366
  0
VERTEX
  8
1
 10
199.6494486255815
 20
336.4944075675573
 30
0
 42
-0.02154182287544396
  0
VERTEX
  8
1
 10
200.5604999400476
 20
335.8913096282604
 30
0
 42
-0.02412403713672448
  0
VERTEX
  8
1
 10
201.4165006615335
 20
335.2045155992175
 30
0
 42
-0.01837071847578235
  0
VERTEX
  8
1
 10
202.2340856868476
 20
334.4165629406015
 30
0
 42
-0.00382483841907556
  0
VERTEX
  8
1
 10
203.0193736841088
 20
333.589776737782
 30
0
 42
0.01068385427298198
  0
VERTEX
  8
1
 10
203.8079441613008
 20
332.781707626589
 30
0
 42
0.02605597401751485
  0
VERTEX
  8
1
 10
204.6353766264068
 20
332.0499062428522
 30
0
 42
0.04330280254893355
  0
VERTEX
  8
1
 10
205.5372505874105
 20
331.4519232224014
 30
0
 42
0.03453843384902177
  0
VERTEX
  8
1
 10
206.1999896687527
 20
331.1480652571544
 30
0
 42
0.01926728948033068
  0
VERTEX
  8
1
 10
206.9025351194661
 20
330.9134459354054
 30
0
 42
0.01966704674577022
  0
VERTEX
  8
1
 10
207.6349353472081
 20
330.73075559628
 30
0
 42
0.005391877216952696
  0
VERTEX
  8
1
 10
208.3872387596356
 20
330.5826845789034
 30
0
 42
0.006832092944366954
  0
VERTEX
  8
1
 10
209.1494937644059
 20
330.4519232224014
 30
0
  0
SEQEND
  8
1
  0
POLYLINE
  8
1
 62
3
 66
1
  0
VERTEX
  8
1
 10
205.4759407079768
 20
325.4519232224014
 30
0
 42
-7.052380751067121e-005
  0
VERTEX
  8
1
 10
205.1854403455152
 20
325.4752985006477
 30
0
 42
-0.0002115044987424795
  0
VERTEX
  8
1
 10
204.8949072608365
 20
325.4988413706278
 30
0
 42
-0.0003522839051001569
  0
VERTEX
  8
1
 10
204.6043087317237
 20
325.5227194240752
 30
0
 42
-0.0004927261341812487
  0
VERTEX
  8
1
 10
204.31361203596
 20
325.5471002527236
 30
0
 42
-0.0006326927677440367
  0
VERTEX
  8
1
 10
204.0227844513281
 20
325.5721514483067
 30
0
 42
-0.002829224898569793
  0
VERTEX
  8
1
 10
203.3531745418519
 20
325.6339895446237
 30
0
 42
-0.005262177555165746
  0
VERTEX
  8
1
 10
202.6844879528308
 20
325.7066694177525
 30
0
 42
-0.007717915863633074
  0
VERTEX
  8
1
 10
202.018514531914
 20
325.7965947957426
 30
0
 42
-0.01019790816423722
  0
VERTEX
  8
1
 10
201.3570441267508
 20
325.910169406643
 30
0
 42
-0.0216548724466185
  0
VERTEX
  8
1
 10
200.2361643703408
 20
326.1771448348811
 30
0
 42
-0.003174607388006249
  0
VERTEX
  8
1
 10
199.77280740114
 20
326.3107232667379
 30
0
 42
0.001341736710609335
  0
VERTEX
  8
1
 10
199.3099785340097
 20
326.4459885900207
 30
0
 42
0.005867617843939205
  0
VERTEX
  8
1
 10
198.8458606255715
 20
326.5743971206762
 30
0
 42
0.01043616403232079
  0
VERTEX
  8
1
 10
198.3786365324467
 20
326.6874051746514
 30
0
 42
0.01572676402670669
  0
VERTEX
  8
1
 10
197.7374983818273
 20
326.807381703812
 30
0
 42
0.004938296709306192
  0
VERTEX
  8
1
 10
197.0906894292401
 20
326.9009491923457
 30
0
 42
0.001884020282918739
  0
VERTEX
  8
1
 10
196.4416110901155
 20
326.9858205083683
 30
0
 42
-0.006909369922208425
  0
VERTEX
  8
1
 10
195.793664779884
 20
327.0797085199957
 30
0
 42
-0.0137962970162946
  0
VERTEX
  8
1
 10
195.1502519139758
 20
327.2003260953435
 30
0
 42
-0.01224550147377145
  0
VERTEX
  8
1
 10
194.550314709561
 20
327.3486252623399
 30
0
 42
-0.004376625229235078
  0
VERTEX
  8
1
 10
193.9545328599673
 20
327.5170718350871
 30
0
 42
0.003443735131213173
  0
VERTEX
  8
1
 10
193.3600186058253
 20
327.6863653737485
 30
0
 42
0.01135075693031399
  0
VERTEX
  8
1
 10
192.7638841877656
 20
327.8372054384876
 30
0
 42
0.01951810480747975
  0
VERTEX
  8
1
 10
192.1632418464187
 20
327.9502915894678
 30
0
 42
0.02289053426956374
  0
VERTEX
  8
1
 10
191.568991522496
 20
328.0106914264507
 30
0
 42
0.01385585263745468
  0
VERTEX
  8
1
 10
190.9690750035867
 20
328.0273791265938
 30
0
 42
0.01336861782343387
  0
VERTEX
  8
1
 10
190.3649088384374
 20
328.0112827241072
 30
0
 42
0.004535915093986965
  0
VERTEX
  8
1
 10
189.7579095757949
 20
327.9733302532007
 30
0
 42
0.004326632835568006
  0
VERTEX
  8
1
 10
189.1494937644058
 20
327.9244497480844
 30
0
  0
SEQEND
  8
1
  0
POLYLINE
  8
1
 62
3
 66
1
  0
VERTEX
  8
1
 10
204.4538204567059
 20
326.5527412490795
 30
0
 42
-0.001154420490582639
  0
VERTEX
  8
1
 10
203.7222288058501
 20
326.6313562737236
 30
0
 42
-0.003468734099916688
  0
VERTEX
  8
1
 10
202.9919717378953
 20
326.7166624207468
 30
0
 42
-0.005796547176475101
  0
VERTEX
  8
1
 10
202.2643838357427
 20
326.815350812529
 30
0
 42
-0.008136977558675712
  0
VERTEX
  8
1
 10
201.5407996822931
 20
326.934112571449
 30
0
 42
-0.01756846700864638
  0
VERTEX
  8
1
 10
200.3446464948167
 20
327.1941343461425
 30
0
 42
-0.003142605946857838
  0
VERTEX
  8
1
 10
199.8685354420092
 20
327.3176890288656
 30
0
 42
-5.559773154495275e-005
  0
VERTEX
  8
1
 10
199.3930207029898
 20
327.4443395861891
 30
0
 42
0.003030683839535233
  0
VERTEX
  8
1
 10
198.9169022787233
 20
327.5681227362462
 30
0
 42
0.006125008534257333
  0
VERTEX
  8
1
 10
198.4389801701746
 20
327.6830751971703
 30
0
 42
0.009595418813482746
  0
VERTEX
  8
1
 10
197.7906620535744
 20
327.8176046649555
 30
0
 42
0.003443420274481679
  0
VERTEX
  8
1
 10
197.1387674078818
 20
327.9352362660213
 30
0
 42
0.001921277061905032
  0
VERTEX
  8
1
 10
196.4851761767558
 20
328.045946770923
 30
0
 42
-0.00305980764159986
  0
VERTEX
  8
1
 10
195.8317683038555
 20
328.1597129502159
 30
0
 42
-0.006880434131453457
  0
VERTEX
  8
1
 10
195.1804237328397
 20
328.2865115744553
 30
0
 42
-0.005683946695034233
  0
VERTEX
  8
1
 10
194.5948999532213
 20
328.4175482227892
 30
0
 42
-0.001199148558073917
  0
VERTEX
  8
1
 10
194.0110326034696
 20
328.5566771597498
 30
0
 42
0.003285732452815831
  0
VERTEX
  8
1
 10
193.4272605005443
 20
328.6932155944102
 30
0
 42
0.007799462787599834
  0
VERTEX
  8
1
 10
192.842022461405
 20
328.8164807358436
 30
0
 42
0.01237618344520658
  0
VERTEX
  8
1
 10
192.2537573030115
 20
328.9157897931228
 30
0
 42
0.01495152526731999
  0
VERTEX
  8
1
 10
191.6388347526197
 20
328.9853167592429
 30
0
 42
0.009328849676588749
  0
VERTEX
  8
1
 10
191.0199587640084
 20
329.024997685622
 30
0
 42
0.008782865382873612
  0
VERTEX
  8
1
 10
190.3981176967324
 20
329.0422940821954
 30
0
 42
0.003218905574872397
  0
VERTEX
  8
1
 10
189.7742999103465
 20
329.0446674588984
 30
0
 42
0.00275508248270271
  0
VERTEX
  8
1
 10
189.1494937644058
 20
329.0395793256662
 30
0
  0
SEQEND
  8
1
  0
POLYLINE
  8
1
 62
3
 66
1
  0
VERTEX
  8
1
 10
209.1494937644058
 20
328.4519232224014
 30
0
 42
-0.03245757378765006
  0
VERTEX
  8
1
 10
209.9619422538279
 20
328.46641073684
 30
0
 42
-0.03477904894018619
  0
VERTEX
  8
1
 10
210.7430915348039
 20
328.3736544940593
 30
0
 42
-0.0359100081442028
  0
VERTEX
  8
1
 10
211.4929416073336
 20
328.1736544940593
 30
0
 42
-0.03559658832329145
  0
VERTEX
  8
1
 10
212.2114924714171
 20
327.8664107368401
 30
0
 42
-0.03391144079500938
  0
VERTEX
  8
1
 10
212.8987441270542
 20
327.4519232224014
 30
0
  0
SEQEND
  8
1
  0
POLYLINE
  8
1
 62
3
 66
1
  0
VERTEX
  8
1
 10
209.1494937644058
 20
329.4519232224014
 30
0
 42
-0.03995606799187076
  0
VERTEX
  8
1
 10
210.1903999497767
 20
329.4725082279336
 30
0
 42
-0.04484345164712182
  0
VERTEX
  8
1
 10
211.1647186302528
 20
329.3223281805021
 30
0
 42
-0.0474070422014733
  0
VERTEX
  8
1
 10
212.0724498058342
 20
329.0013830801067
 30
0
 42
-0.04670923927638431
  0
VERTEX
  8
1
 10
212.9135934765209
 20
328.5096729267474
 30
0
 42
-0.04301924621612629
  0
VERTEX
  8
1
 10
213.6881496423129
 20
327.8471977204244
 30
0
  0
VERTEX
  8
1
 10
214.0504574108733
 20
327.4519232224014
 30
0
  0
SEQEND
  8
1
  0
POLYLINE
  8
1
 62
3
 66
1
  0
VERTEX
  8
1
 10
209.1494937644059
 20
330.4519232224014
 30
0
 42
-0.0546604111335614
  0
VERTEX
  8
1
 10
210.2527188693236
 20
330.5252565617323
 30
0
 42
-0.05135122700128147
  0
VERTEX
  8
1
 10
211.3462684809662
 20
330.3648747810974
 30
0
 42
-0.05006728031390294
  0
VERTEX
  8
1
 10
212.385383443863
 20
329.9877953045447
 30
0
 42
-0.05119903610660279
  0
VERTEX
  8
1
 10
213.3253046025434
 20
329.4110355561218
 30
0
 42
-0.0221633077743265
  0
VERTEX
  8
1
 10
213.8822178727124
 20
328.9354200952051
 30
0
 42
0.003396894471879193
  0
VERTEX
  8
1
 10
214.4195908849732
 20
328.4404766365282
 30
0
 42
0.0295179466125546
  0
VERTEX
  8
1
 10
214.9813651997463
 20
327.9874296749379
 30
0
 42
0.05588776907669498
  0
VERTEX
  8
1
 10
215.6114823774523
 20
327.6375037052802
 30
0
 42
0.07410302475790732
  0
VERTEX
  8
1
 10
216.3538839785114
 20
327.4519232224014
 30
0
  0
SEQEND
  8
1
  0
POLYLINE
  8
1
 62
3
 66
1
  0
VERTEX
  8
1
 10
209.1494937644058
 20
323.4519232224014
 30
0
 42
0.0331903603049118
  0
VERTEX
  8
1
 10
209.9821426122197
 20
323.4805634398371
 30
0
 42
0.03460150905408856
  0
VERTEX
  8
1
 10
210.7880041977786
 20
323.6198219457222
 30
0
 42
0.03473851473767605
  0
VERTEX
  8
1
 10
211.5670785210826
 20
323.8696987400568
 30
0
 42
0.03357139695110992
  0
VERTEX
  8
1
 10
212.3193655821316
 20
324.2301938228409
 30
0
  0
VERTEX
  8
1
 10
212.6854638893105
 20
324.4519232224014
 30
0
  0
SEQEND
  8
1
  0
POLYLINE
  8
1
 62
3
 66
1
  0
VERTEX
  8
1
 10
209.1494937644058
 20
322.4519232224016
 30
0
 42
0.05088675466860075
  0
VERTEX
  8
1
 10
209.8153253287833
 20
322.3437112228093
 30
0
 42
0.04911865911485948
  0
VERTEX
  8
1
 10
210.45408632121
 20
322.3716504520296
 30
0
 42
0.04309929058840447
  0
VERTEX
  8
1
 10
211.0660512428276
 20
322.5151795573477
 30
0
 42
0.03504233058659816
  0
VERTEX
  8
1
 10
211.6514945947775
 20
322.7537371860487
 30
0
 42
0.02689835495067175
  0
VERTEX
  8
1
 10
212.2106908782014
 20
323.0667619854179
 30
0
 42
0.01955705333412547
  0
VERTEX
  8
1
 10
212.743914594241
 20
323.4336926027404
 30
0
 42
0.01309512459639257
  0
VERTEX
  8
1
 10
213.251440244038
 20
323.8339676853015
 30
0
 42
0.007177072648289855
  0
VERTEX
  8
1
 10
213.7335423287336
 20
324.2470258803861
 30
0
  0
VERTEX
  8
1
 10
213.9651453157753
 20
324.4519232224014
 30
0
  0
SEQEND
  8
1
  0
POLYLINE
  8
1
 62
3
 66
1
  0
VERTEX
  8
1
 10
209.1494937644058
 20
321.4519232224016
 30
0
 42
-0.001257159032221275
  0
VERTEX
  8
1
 10
210.0559928210827
 20
321.4848927643981
 30
0
 42
0.01672185237802214
  0
VERTEX
  8
1
 10
210.9978099483506
 20
321.5485768450787
 30
0
 42
0.03588864036872105
  0
VERTEX
  8
1
 10
211.9207895386468
 20
321.7088381413633
 30
0
 42
0.05941825443849262
  0
VERTEX
  8
1
 10
212.7707759844084
 20
322.0315393301713
 30
0
 42
0.0488526569440117
  0
VERTEX
  8
1
 10
213.429393512599
 20
322.4814703833259
 30
0
 42
0.01888671491536546
  0
VERTEX
  8
1
 10
214.0362039939172
 20
323.0283611296795
 30
0
 42
-0.008828815731157126
  0
VERTEX
  8
1
 10
214.6378916725112
 20
323.5923247386786
 30
0
 42
-0.03690414509094119
  0
VERTEX
  8
1
 10
215.2811407925295
 20
324.0934743797702
 30
0
 42
-0.06556888939158904
  0
VERTEX
  8
1
 10
216.0126355981203
 20
324.4519232224014
 30
0
  0
SEQEND
  8
1
  0
POLYLINE
  8
1
 62
3
 66
1
  0
VERTEX
  8
1
 10
229.1134967355908
 20
324.4519232224016
 30
0
 42
0.05080912477663466
  0
VERTEX
  8
1
 10
229.3712454121398
 20
324.6646889730205
 30
0
 42
0.06988837635732681
  0
VERTEX
  8
1
 10
229.5251591428576
 20
324.8784655310034
 30
0
 42
0.08041446078030605
  0
VERTEX
  8
1
 10
229.592508038848
 20
325.0930586546505
 30
0
 42
0.07024993852471564
  0
VERTEX
  8
1
 10
229.5905622112142
 20
325.3082741022618
 30
0
 42
0.0477399414093553
  0
VERTEX
  8
1
 10
229.5365917710599
 20
325.5239176321371
 30
0
 42
0.02608758836488169
  0
VERTEX
  8
1
 10
229.4478668294887
 20
325.7397950025767
 30
0
 42
0.008309190313263149
  0
VERTEX
  8
1
 10
229.3416574976041
 20
325.9557119718804
 30
0
 42
-0.007700004216577181
  0
VERTEX
  8
1
 10
229.2352338865095
 20
326.1714742983482
 30
0
 42
-0.0249667828114204
  0
VERTEX
  8
1
 10
229.1458661073084
 20
326.38688774028
 30
0
 42
-0.04605941347115319
  0
VERTEX
  8
1
 10
229.0908242711046
 20
326.6017580559761
 30
0
 42
-0.06985250209990492
  0
VERTEX
  8
1
 10
229.0873784890015
 20
326.8158910037363
 30
0
 42
-0.08496459672884324
  0
VERTEX
  8
1
 10
229.1527988721025
 20
327.0290923418605
 30
0
 42
-0.07831527128245205
  0
VERTEX
  8
1
 10
229.3043555315114
 20
327.2411678286491
 30
0
 42
-0.05838989814940058
  0
VERTEX
  8
1
 10
229.5593185783314
 20
327.4519232224016
 30
0
  0
SEQEND
  8
1
  0
POLYLINE
  8
1
 62
3
 66
1
  0
VERTEX
  8
1
 10
230.5153577622375
 20
324.482102085884
 30
0
 42
0.04071025067878997
  0
VERTEX
  8
1
 10
230.8400373448942
 20
324.6958981604882
 30
0
 42
0.06199146047011116
  0
VERTEX
  8
1
 10
231.0432907196449
 20
324.9052625252533
 30
0
 42
0.08619168503846031
  0
VERTEX
  8
1
 10
231.1431646001558
 20
325.1104468526951
 30
0
 42
0.09222976083303355
  0
VERTEX
  8
1
 10
231.1577057000932
 20
325.3117028153299
 30
0
 42
0.07064619444160769
  0
VERTEX
  8
1
 10
231.1049607331231
 20
325.5092820856734
 30
0
 42
0.04304327987064306
  0
VERTEX
  8
1
 10
231.0029764129118
 20
325.7034363362417
 30
0
 42
0.02162533274560949
  0
VERTEX
  8
1
 10
230.8697994531253
 20
325.8944172395507
 30
0
 42
0.005216753894558324
  0
VERTEX
  8
1
 10
230.7234765674298
 20
326.0824764681164
 30
0
 42
-0.01010100466170425
  0
VERTEX
  8
1
 10
230.5820544694915
 20
326.2678656944548
 30
0
 42
-0.02869426395837691
  0
VERTEX
  8
1
 10
230.4635798729766
 20
326.4508365910818
 30
0
 42
-0.05573108952469871
  0
VERTEX
  8
1
 10
230.3860994915512
 20
326.6316408305135
 30
0
 42
-0.0920791761089361
  0
VERTEX
  8
1
 10
230.3676600388814
 20
326.8105300852657
 30
0
 42
-0.1128213517733007
  0
VERTEX
  8
1
 10
230.4263082286335
 20
326.9877560278544
 30
0
 42
-0.09080172897708232
  0
VERTEX
  8
1
 10
230.5800907744734
 20
327.1635703307956
 30
0
 42
-0.05754649676397226
  0
VERTEX
  8
1
 10
230.8470543900676
 20
327.3382246666053
 30
0
 42
-0.0352570986602976
  0
VERTEX
  8
1
 10
231.245245789082
 20
327.5119707077995
 30
0
  0
SEQEND
  8
1
  0
POLYLINE
  8
1
 62
3
 66
1
  0
VERTEX
  8
1
 10
205.4759407079768
 20
325.4519232224014
 30
0
 42
0.02259622956503049
  0
VERTEX
  8
1
 10
206.6980634429686
 20
325.3405397362208
 30
0
 42
0.02274159424214024
  0
VERTEX
  8
1
 10
207.922581128445
 20
325.3405397362208
 30
0
 42
0.02251383879697702
  0
VERTEX
  8
1
 10
209.1494937644058
 20
325.4519232224014
 30
0
  0
SEQEND
  8
1
  0
ARC
  8
1
 62
3
 10
372.077883320309
 20
150.9096709069608
 30
0
 40
7.5
 50
180
 51
270
  0
ARC
  8
1
 62
3
 10
447.077883320309
 20
150.9096709069607
 30
0
 40
7.499999999999915
 50
270
 51
0
  0
ARC
  8
1
 62
3
 10
447.077883320309
 20
150.9096709069607
 30
0
 40
7.499999999999915
 50
270
 51
0
  0
ARC
  8
1
 62
3
 10
372.077883320309
 20
150.9096709069608
 30
0
 40
7.5
 50
180
 51
270
  0
ARC
  8
1
 62
3
 10
372.077883320309
 20
225.9096709069608
 30
0
 40
7.5
 50
90
 51
180
  0
ARC
  8
1
 62
3
 10
447.077883320309
 20
225.9096709069608
 30
0
 40
7.5
 50
0
 51
90
  0
ARC
  8
1
 62
3
 10
54.78929922266727
 20
139.4096709069607
 30
0
 40
4
 50
0
 51
90
  0
ARC
  8
1
 62
3
 10
105.7892992226673
 20
139.4096709069607
 30
0
 40
4
 50
90
 51
180
  0
ARC
  8
1
 62
3
 10
59.78929922266727
 20
135.9096709069604
 30
0
 40
1
 50
180
 51
270
  0
ARC
  8
1
 62
3
 10
100.7892992226673
 20
135.9096709069608
 30
0
 40
1
 50
270
 51
0
  0
ARC
  8
1
 62
3
 10
117.7892992226673
 20
225.9096709069608
 30
0
 40
7.5
 50
0
 51
90
  0
ARC
  8
1
 62
3
 10
117.7892992226673
 20
150.9096709069608
 30
0
 40
7.5
 50
270
 51
0
  0
ARC
  8
1
 62
3
 10
42.7892992226673
 20
150.9096709069607
 30
0
 40
7.500000000000064
 50
180
 51
270
  0
ARC
  8
1
 62
3
 10
42.78929922266724
 20
225.9096709069608
 30
0
 40
7.5
 50
90
 51
180
  0
ARC
  8
1
 62
3
 10
278.6928891630422
 20
225.9096709069602
 30
0
 40
2.600000000000193
 50
0
 51
90
  0
ARC
  8
1
 62
3
 10
278.6928891630422
 20
150.9096709069604
 30
0
 40
2.599999999999994
 50
270
 51
0
  0
ARC
  8
1
 62
3
 10
281.4928891630422
 20
196.0096709069601
 30
0
 40
0.8000000000001819
 50
0
 51
90
  0
ARC
  8
1
 62
3
 10
281.4928891630422
 20
180.8096709069604
 30
0
 40
0.8000000000000966
 50
270
 51
0
  0
ARC
  8
1
 62
3
 10
82.11929922266737
 20
182.3796709069607
 30
0
 40
1.670000000000016
 50
270
 51
0
  0
ARC
  8
1
 62
3
 10
78.45929922266727
 20
182.3796709069607
 30
0
 40
1.670000000000002
 50
180
 51
270
  0
ARC
  8
1
 62
3
 10
82.09929922266738
 20
182.3996709069608
 30
0
 40
0.6900000000001114
 50
270
 51
0
  0
ARC
  8
1
 62
3
 10
82.09929922266738
 20
182.4074315597261
 30
0
 40
0.689999999999884
 50
0
 51
90
  0
ARC
  8
1
 62
3
 10
78.47929922266737
 20
182.3996709069608
 30
0
 40
0.6900000000000972
 50
180
 51
270
  0
ARC
  8
1
 62
3
 10
78.47929922266737
 20
182.4074315597261
 30
0
 40
0.6899999999999977
 50
90
 51
180
  0
ARC
  8
1
 62
3
 10
416.077883320309
 20
229.5999610248996
 30
0
 40
0.8000000000000032
 50
81.03243571351517
 51
180
  0
ARC
  8
1
 62
3
 10
403.077883320309
 20
229.5999610248998
 30
0
 40
0.8000000000000682
 50
0
 51
98.967564286479
  0
ARC
  8
1
 62
3
 10
450.6778833203089
 20
161.9096709069604
 30
0
 40
1.5
 50
270
 51
0
  0
ARC
  8
1
 62
3
 10
450.6778833203089
 20
214.9096709069605
 30
0
 40
1.5
 50
0
 51
90
  0
ARC
  8
1
 62
3
 10
446.077883320309
 20
224.9096709069605
 30
0
 40
8.5
 50
180
 51
270
  0
ARC
  8
1
 62
3
 10
436.077883320309
 20
229.5096709069605
 30
0
 40
1.5
 50
0
 51
90
  0
ARC
  8
1
 62
3
 10
383.077883320309
 20
229.5096709069605
 30
0
 40
1.5
 50
90
 51
180
  0
ARC
  8
1
 62
3
 10
373.077883320309
 20
224.9096709069605
 30
0
 40
8.5
 50
270
 51
0
  0
ARC
  8
1
 62
3
 10
368.4778833203089
 20
214.9096709069605
 30
0
 40
1.5
 50
90
 51
180
  0
ARC
  8
1
 62
3
 10
368.4778833203089
 20
161.9096709069604
 30
0
 40
1.5
 50
180
 51
270
  0
ARC
  8
1
 62
3
 10
373.0778833203091
 20
151.9096709069603
 30
0
 40
8.499999999999886
 50
0
 51
90
  0
ARC
  8
1
 62
3
 10
383.077883320309
 20
144.9096709069608
 30
0
 40
1.5
 50
180
 51
270
  0
ARC
  8
1
 62
3
 10
436.077883320309
 20
144.9096709069608
 30
0
 40
1.5
 50
270
 51
0
  0
ARC
  8
1
 62
3
 10
446.077883320309
 20
151.9096709069603
 30
0
 40
8.500000000000114
 50
90
 51
180
  0
ARC
  8
1
 62
3
 10
434.7278833203091
 20
139.4096709069608
 30
0
 40
4
 50
90
 51
180
  0
ARC
  8
1
 62
3
 10
384.4278833203089
 20
139.4096709069608
 30
0
 40
4
 50
0
 51
90
  0
ARC
  8
1
 62
3
 10
429.7278833203091
 20
136.25967090696
 30
0
 40
1
 50
270
 51
0
  0
ARC
  8
1
 62
3
 10
389.4278833203089
 20
136.2596709069605
 30
0
 40
1
 50
180
 51
270
  0
ARC
  8
1
 62
3
 10
405.1778833203093
 20
230.1096727493894
 30
0
 40
0.5
 50
90
 51
180
  0
ARC
  8
1
 62
3
 10
413.9778833203092
 20
230.1096727493894
 30
0
 40
0.5
 50
0
 51
90
  0
ARC
  8
1
 62
3
 10
426.6936139988614
 20
142.9730822900263
 30
0
 40
0.03119999999977741
 50
352.5415509440101
 51
45.00000000036906
  0
ARC
  8
1
 62
3
 10
426.6936139988614
 20
142.8462866547917
 30
0
 40
0.03119999999991645
 50
314.9999999996309
 51
7.458449056507451
  0
ARC
  8
1
 62
3
 10
427.2412795902581
 20
143.3939522461887
 30
0
 40
0.03120000000015853
 50
262.5415509438911
 51
314.9999999997047
  0
ARC
  8
1
 62
3
 10
427.1144839550235
 20
143.3939522461887
 30
0
 40
0.03120000000003704
 50
225.0000000001477
 51
277.4584490564194
  0
ARC
  8
1
 62
3
 10
427.6621495464204
 20
142.8462866547917
 30
0
 40
0.03120000000009612
 50
172.5415509435603
 51
224.9999999999262
  0
ARC
  8
1
 62
3
 10
427.6621495464204
 20
142.9730822900263
 30
0
 40
0.03120000000015762
 50
135.0000000000738
 51
187.4584490559222
  0
ARC
  8
1
 62
3
 10
427.1144839550235
 20
142.4254166986296
 30
0
 40
0.0312000000001243
 50
82.54155094356709
 51
134.9999999999631
  0
ARC
  8
1
 62
3
 10
427.2412795902581
 20
142.4254166986296
 30
0
 40
0.03119999999997675
 50
45.00000000003691
 51
97.45844905612242
  0
ARC
  8
1
 62
3
 10
391.4936170941986
 20
142.9730822900263
 30
0
 40
0.03119999999977741
 50
352.5415509440101
 51
45.00000000044288
  0
ARC
  8
1
 62
3
 10
391.4936170941986
 20
142.8462866547917
 30
0
 40
0.03119999999987626
 50
314.9999999995571
 51
7.458449056507451
  0
ARC
  8
1
 62
3
 10
392.0412826855953
 20
143.3939522461887
 30
0
 40
0.03120000000017328
 50
262.5415509436841
 51
314.9999999995571
  0
ARC
  8
1
 62
3
 10
391.9144870503607
 20
143.3939522461887
 30
0
 40
0.03120000000007723
 50
225.0000000000738
 51
277.4584490564194
  0
ARC
  8
1
 62
3
 10
392.4621526417575
 20
142.8462866547917
 30
0
 40
0.03119999999998339
 50
172.5415509435332
 51
224.9999999999262
  0
ARC
  8
1
 62
3
 10
392.4621526417575
 20
142.9730822900263
 30
0
 40
0.03120000000015762
 50
135.0000000000738
 51
187.4584490559493
  0
ARC
  8
1
 62
3
 10
391.9144870503607
 20
142.4254166986296
 30
0
 40
0.0312000000001243
 50
82.54155094356709
 51
135.0000000000369
  0
ARC
  8
1
 62
3
 10
392.0412826855953
 20
142.4254166986296
 30
0
 40
0.03119999999997675
 50
45.00000000003691
 51
97.45844905632943
  0
ARC
  8
1
 62
3
 10
391.0487330580966
 20
147.7096844724091
 30
0
 40
1.484385041405961
 50
187.743350320195
 51
229.152972429464
  0
ARC
  8
1
 62
3
 10
391.0778833203082
 20
139.4096709069594
 30
0
 40
0.9999999999992042
 50
179.9999999999495
 51
270
  0
ARC
  8
1
 62
3
 10
428.077883320309
 20
139.4096709069594
 30
0
 40
1
 50
270
 51
0
  0
ARC
  8
1
 62
3
 10
427.577883320309
 20
147.9096844724087
 30
0
 40
2.000000000000154
 50
318.5903778907241
 51
0
  0
ARC
  8
1
 62
3
 10
422.2646688410148
 20
206.3721991906672
 30
0
 40
1
 50
270
 51
0
  0
ARC
  8
1
 62
3
 10
422.2646688410148
 20
216.3721991906672
 30
0
 40
1
 50
0
 51
90
  0
ARC
  8
1
 62
3
 10
396.2646688410148
 20
216.3721991906672
 30
0
 40
1
 50
90
 51
180
  0
ARC
  8
1
 62
3
 10
396.2646688410148
 20
206.3721991906672
 30
0
 40
1
 50
180
 51
270
  0
ARC
  8
1
 62
3
 10
278.6928891630422
 20
91.96058775617433
 30
0
 40
2.600000000000193
 50
0
 51
90
  0
ARC
  8
1
 62
3
 10
278.6928891630422
 20
16.96058775617453
 30
0
 40
2.599999999999989
 50
270
 51
0
  0
ARC
  8
1
 62
3
 10
281.4928891630422
 20
62.06058775617424
 30
0
 40
0.8000000000001819
 50
0
 51
90
  0
ARC
  8
1
 62
3
 10
281.4928891630422
 20
46.86058775617454
 30
0
 40
0.8000000000000966
 50
270
 51
0
  0
ARC
  8
1
 62
3
 10
313.9497975792921
 20
319.6567468040998
 30
0
 40
0.5
 50
270
 51
0
  0
ARC
  8
1
 62
3
 10
313.9497975792922
 20
336.6567468040989
 30
0
 40
0.5
 50
0
 51
90
  0
ARC
  8
1
 62
3
 10
303.3497975792923
 20
336.6567468040989
 30
0
 40
0.5
 50
90
 51
180
  0
ARC
  8
1
 62
3
 10
303.3497975792923
 20
332.6567468040989
 30
0
 40
0.5
 50
180
 51
270
  0
ARC
  8
1
 62
3
 10
303.3497975792923
 20
323.6567468040989
 30
0
 40
0.5
 50
90
 51
180
  0
ARC
  8
1
 62
3
 10
303.3497975792923
 20
319.6567468040998
 30
0
 40
0.5
 50
180
 51
270
  0
TEXT
  8
1
 62
2
 10
215.2680615933251
 20
-16.63691364995781
 30
0
 40
5
  1
FY9S40H-D3
 41
0.9
  0
TEXT
  8
1
 62
2
 10
238.1686197500943
 20
44.93766738403539
 30
0
 40
3
  1
11
 50
270
 41
0.9
 72
1
 73
2
 11
239.6686197500943
 21
42.23766738403539
 31
0
  0
TEXT
  8
1
 62
2
 10
238.0821870720864
 20
69.35144704380861
 30
0
 40
3
  1
1
 50
270
 41
0.9
 72
1
 73
2
 11
239.5821870720864
 21
68.00144704380861
 31
0
  0
TEXT
  8
1
 62
2
 10
221.9892279458605
 20
297.3425505628572
 30
0
 40
4
  1
付属ケーブル
 41
0.9
  0
TEXT
  8
1
 62
2
 10
180.8494937644055
 20
339.0719232224014
 30
0
 40
3.199999999999997
  1
11
 50
90
 41
0.9000000000000015
 72
1
 73
2
 11
179.2494937644055
 21
341.9519232224014
 31
0
  0
TEXT
  8
1
 62
2
 10
180.8494937644055
 20
308.5119232224016
 30
0
 40
3.199999999999997
  1
1
 50
90
 41
0.9000000000000015
 72
1
 73
2
 11
179.2494937644055
 21
309.9519232224016
 31
0
  0
TEXT
  8
1
 62
2
 10
302.4497975792924
 20
337.7167468040989
 30
0
 40
3.199999999999997
  1
8
 50
90
 41
0.9000000000000015
 72
1
 73
2
 11
300.8497975792924
 21
339.1567468040989
 31
0
  0
TEXT
  8
1
 62
2
 10
302.4497975792922
 20
315.7167468040998
 30
0
 40
3.199999999999997
  1
5
 50
90
 41
0.9000000000000015
 72
1
 73
2
 11
300.8497975792922
 21
317.1567468040998
 31
0
  0
TEXT
  8
1
 62
2
 10
318.0497975792921
 20
337.7167468040989
 30
0
 40
3.199999999999997
  1
4
 50
90
 41
0.9000000000000015
 72
1
 73
2
 11
316.4497975792921
 21
339.1567468040989
 31
0
  0
TEXT
  8
1
 62
2
 10
318.0497975792922
 20
315.7167468040998
 30
0
 40
3.199999999999997
  1
1
 50
90
 41
0.9000000000000015
 72
1
 73
2
 11
316.4497975792922
 21
317.1567468040998
 31
0
  0
ENDSEC
  0
EOF
