  0
SECTION
  2
HEADER
  9
$ACADVER
  1
AC1009
  9
$INSBASE
 10
0
 20
0
  9
$EXTMIN
 10
79.5054324926644
 20
-65.94629862516163
  9
$EXTMAX
 10
497.4494984552356
 20
323.0195634733119
  9
$LIMMIN
 10
79.5054324926644
 20
-65.94629862516163
  9
$LIMMAX
 10
497.4494984552356
 20
323.0195634733119
  9
$VIEWCTR
 10
10
 20
10
  9
$VIEWSIZE
 40
10
  9
$SNAPMODE
 70
0
  9
$SNAPUNIT
 10
1
 20
1
  9
$SNAPBASE
 10
0
 20
0
  9
$SNAPANG
 50
0
  9
$SNAPSTYLE
 70
0
  9
$SNAPISOPAIR
 70
0
  9
$GRIDMODE
 70
0
  9
$GRIDUNIT
 10
0
 20
0
  9
$ORTHOMODE
 70
0
  9
$REGENMODE
 70
1
  9
$FILLMODE
 70
1
  9
$QTEXTMODE
 70
0
  9
$DRAGMODE
 70
2
  9
$LTSCALE
 40
1
  9
$OSMODE
 70
0
  9
$ATTMODE
 70
1
  9
$TEXTSIZE
 40
3.5
  9
$TRACEWID
 40
0.5
  9
$TEXTSTYLE
  7
STANDARD
  9
$CLAYER
  8
0
  9
$CELTYPE
  6
BYLAYER
  9
$CECOLOR
 62
256
  9
$DIMSCALE
 40
1
  9
$DIMASZ
 40
0.18
  9
$DIMEXO
 40
0.0625
  9
$DIMDLI
 40
0.38
  9
$DIMRND
 40
0
  9
$DIMDLE
 40
0
  9
$DIMEXE
 40
0.18
  9
$DIMTP
 40
0
  9
$DIMTM
 40
0
  9
$DIMTXT
 40
0.18
  9
$DIMCEN
 40
0.09
  9
$DIMTSZ
 40
0
  9
$DIMTOL
 70
0
  9
$DIMLIM
 70
0
  9
$DIMTIH
 70
1
  9
$DIMTOH
 70
1
  9
$DIMSE1
 70
0
  9
$DIMSE2
 70
0
  9
$DIMTAD
 70
0
  9
$DIMZIN
 70
0
  9
$DIMBLK
  1

  9
$DIMASO
 70
1
  9
$DIMSHO
 70
1
  9
$DIMPOST
  1

  9
$DIMAPOST
  1

  9
$DIMALT
 70
0
  9
$DIMALTD
 70
2
  9
$DIMALTF
 40
25.4
  9
$DIMLFAC
 40
1
  9
$DIMTOFL
 70
0
  9
$DIMTVP
 40
0
  9
$DIMTIX
 70
0
  9
$DIMSOXD
 70
0
  9
$DIMSAH
 70
0
  9
$DIMBLK1
  1

  9
$DIMBLK2
  1

  9
$DIMSTYLE
  2
*UNNAMED
  9
$DIMCLRD
 70
0
  9
$DIMCLRE
 70
0
  9
$DIMCLRT
 70
0
  9
$DIMTFAC
 40
1
  9
$DIMGAP
 40
0.09
  9
$LUNITS
 70
2
  9
$LUPREC
 70
4
  9
$AXISMODE
 70
0
  9
$AXISUNIT
 10
0
 20
0
  9
$SKETCHINC
 40
0.1
  9
$FILLETRAD
 40
2
  9
$AUNITS
 70
0
  9
$AUPREC
 70
0
  9
$MENU
  1
ACAD
  9
$ELEVATION
 40
0
  9
$THICKNESS
 40
0
  9
$VIEWDIR
 10
0
 20
0
 30
1
  9
$LIMCHECK
 70
0
  9
$BLIPMODE
 70
1
  9
$CHAMFERA
 40
0
  9
$CHAMFERB
 40
0
  9
$FASTZOOM
 70
1
  9
$SKPOLY
 70
0
  9
$ANGBASE
 50
0
  9
$ANGDIR
 70
0
  9
$PDMODE
 70
0
  9
$PDSIZE
 40
0
  9
$PLINEWID
 40
0
  9
$COORDS
 70
2
  0
ENDSEC
  0
SECTION
  2
TABLES
  0
TABLE
  2
DIMSTYLE
 70
0
  0
ENDTAB
  0
TABLE
  2
LTYPE
 70
9
  0
LTYPE
  2
CONTINUOUS
 70
64
  3
Solid line
 72
65
 73
0
 40
0
  0
LTYPE
  2
BORDER
 70
64
  3
__ __ . __ __ .
 72
65
 73
6
 40
19.24742409038157
 49
5.499264025823305
 49
-2.749632012911653
 49
5.499264025823305
 49
-2.749632012911653
 49
0
 49
-2.749632012911653
  0
LTYPE
  2
CENTER
 70
64
  3
____ _ ____ _
 72
65
 73
4
 40
21.99705610329322
 49
13.74816006455826
 49
-2.749632012911653
 49
2.749632012911653
 49
-2.749632012911653
  0
LTYPE
  2
DASHDOT
 70
64
  3
__ . __ . __ .
 72
65
 73
4
 40
10.99852805164661
 49
5.499264025823305
 49
-2.749632012911653
 49
0
 49
-2.749632012911653
  0
LTYPE
  2
DASHED
 70
64
  3
__ __ __ __ __
 72
65
 73
2
 40
8.248896038734959
 49
5.499264025823305
 49
-2.749632012911653
  0
LTYPE
  2
DIVIDE
 70
64
  3
__ . . __ . . 
 72
65
 73
6
 40
13.74816006455826
 49
5.499264025823305
 49
-2.749632012911653
 49
0
 49
-2.749632012911653
 49
0
 49
-2.749632012911653
  0
LTYPE
  2
DOT
 70
64
  3
..............
 72
65
 73
4
 40
5.499264025823305
 49
0
 49
-2.749632012911653
 49
0
 49
-2.749632012911653
  0
LTYPE
  2
HIDDEN
 70
64
  3
_ _ _ _ _ _ _
 72
65
 73
2
 40
4.124448019367479
 49
2.749632012911653
 49
-1.374816006455826
  0
LTYPE
  2
PHANTOM
 70
64
  3
_____ _ _ _____ _ _ 
 72
65
 73
6
 40
27.49632012911653
 49
13.74816006455826
 49
-2.749632012911653
 49
2.749632012911653
 49
-2.749632012911653
 49
2.749632012911653
 49
-2.749632012911653
  0
ENDTAB
  0
TABLE
  2
LAYER
 70
3
  0
LAYER
  2
1
 70
0
 62
7
  6
CONTINUOUS
  0
LAYER
  2
0
 70
0
 62
7
  6
CONTINUOUS
  0
ENDTAB
  0
TABLE
  2
STYLE
 70
4
  0
STYLE
  2
STANDARD
 70
0
 40
0
 41
1
 50
0
 71
0
 42
3.5
  3
txt
  4

  0
STYLE
  2
SIMPLEX
 70
0
 40
0
 41
1
 50
0
 71
0
 42
3.5
  3
simplex
  4

  0
STYLE
  2
COMPLEX
 70
0
 40
0
 41
1
 50
0
 71
0
 42
3.5
  3
complex
  4

  0
STYLE
  2
ITALIC
 70
0
 40
0
 41
1
 50
0
 71
0
 42
3.5
  3
italic
  4

  0
ENDTAB
  0
TABLE
  2
VIEW
 70
0
  0
ENDTAB
  0
ENDSEC
  0
SECTION
  2
BLOCKS
  0
ENDSEC
  0
SECTION
  2
ENTITIES
  0
LINE
  8
1
 62
1
  6
CENTER
 10
249.5645139512047
 20
5.714814455765179
 30
0
 11
266.5645042979693
 21
5.714814455765179
 31
0
  0
LINE
  8
1
 62
1
  6
CENTER
 10
249.5645139512047
 20
14.1148144557651
 30
0
 11
266.5645042979693
 21
14.1148144557651
 31
0
  0
LINE
  8
1
 62
3
 10
251.5645139512047
 20
5.114814455765213
 30
0
 11
266.5645042979693
 21
5.114814455765213
 31
0
  0
LINE
  8
1
 62
3
 10
251.5645139512047
 20
14.71481445576524
 30
0
 11
266.5645042979693
 21
14.71481445576524
 31
0
  0
LINE
  8
1
 62
3
 10
251.5645139512047
 20
14.71481445576524
 30
0
 11
251.5645139512047
 21
5.114814455765213
 31
0
  0
LINE
  8
1
 62
2
 10
255.5645139512047
 20
14.71481445576524
 30
0
 11
261.1070765354252
 21
5.114814455765213
 31
0
  0
LINE
  8
1
 62
2
 10
256.7645139512048
 20
14.71481445576524
 30
0
 11
262.3070765354252
 21
5.114814455765213
 31
0
  0
LINE
  8
1
 62
2
 10
257.9645139512047
 20
14.71481445576524
 30
0
 11
263.5070765354252
 21
5.114814455765213
 31
0
  0
LINE
  8
1
 62
1
  6
CENTER
 10
249.5645139512047
 20
155.5155475598472
 30
0
 11
266.5645042979693
 21
155.5155475598472
 31
0
  0
LINE
  8
1
 62
1
  6
CENTER
 10
249.5645139512047
 20
163.9155475598471
 30
0
 11
266.5645042979693
 21
163.9155475598471
 31
0
  0
LINE
  8
1
 62
3
 10
251.5645139512047
 20
154.9155475598472
 30
0
 11
266.5645042979693
 21
154.9155475598472
 31
0
  0
LINE
  8
1
 62
3
 10
251.5645139512047
 20
164.5155475598472
 30
0
 11
266.5645042979693
 21
164.5155475598472
 31
0
  0
LINE
  8
1
 62
3
 10
251.5645139512047
 20
164.5155475598472
 30
0
 11
251.5645139512047
 21
154.9155475598472
 31
0
  0
LINE
  8
1
 62
2
 10
255.5645139512047
 20
164.5155475598472
 30
0
 11
261.1070765354252
 21
154.9155475598472
 31
0
  0
LINE
  8
1
 62
2
 10
256.7645139512048
 20
164.5155475598472
 30
0
 11
262.3070765354252
 21
154.9155475598472
 31
0
  0
LINE
  8
1
 62
2
 10
257.9645139512047
 20
164.5155475598472
 30
0
 11
263.5070765354252
 21
154.9155475598472
 31
0
  0
LINE
  8
1
 62
3
 10
476.3494984552357
 20
114.7155475598476
 30
0
 11
487.3494984552358
 21
114.7155475598477
 31
0
  0
LINE
  8
1
 62
3
 10
478.3494984552357
 20
114.7155475598476
 30
0
 11
487.3494984552358
 21
114.7155475598477
 31
0
  0
LINE
  8
1
 62
3
 10
412.3494984552358
 20
114.7155475598477
 30
0
 11
423.3494984552357
 21
114.7155475598476
 31
0
  0
LINE
  8
1
 62
3
 10
404.8494984552358
 20
122.2155475598477
 30
0
 11
404.8494984552358
 21
159.7155475598476
 31
0
  0
LINE
  8
1
 62
3
 10
404.8494984552358
 20
159.7155475598476
 30
0
 11
404.8494984552358
 21
197.2155475598477
 31
0
  0
LINE
  8
1
 62
3
 10
494.8494984552358
 20
197.2155475598477
 30
0
 11
494.8494984552358
 21
122.2155475598477
 31
0
  0
LINE
  8
1
 62
3
 10
449.8494984552358
 20
204.7155475598476
 30
0
 11
487.3494984552358
 21
204.7155475598477
 31
0
  0
LINE
  8
1
 62
3
 10
412.3494984552358
 20
204.7155475598477
 30
0
 11
449.8494984552358
 21
204.7155475598476
 31
0
  0
LINE
  8
1
 62
3
 10
269.5645042979693
 20
114.7155475598471
 30
0
 11
270.5645042979696
 21
114.7155475598473
 31
0
  0
LINE
  8
1
 62
3
 10
270.5645042979696
 20
106.2155475598476
 30
0
 11
270.5645042979696
 21
114.7155475598473
 31
0
  0
LINE
  8
1
 62
3
 10
281.9274599551094
 20
116.3078908589525
 30
0
 11
281.1650344930504
 21
116.3078908589528
 31
0
  0
LINE
  8
1
 62
3
 10
281.1650344930506
 20
117.508347559847
 30
0
 11
287.1645120361909
 21
117.508347559847
 31
0
  0
LINE
  8
1
 62
3
 10
279.5645042979696
 20
114.7155475598477
 30
0
 11
279.5645042979696
 21
111.4655475598473
 31
0
  0
LINE
  8
1
 62
1
 10
334.9799235144343
 20
159.7155475598476
 30
0
 11
249.111810970292
 21
159.7155475598476
 31
0
  0
LINE
  8
1
 62
1
 10
282.4566625713508
 20
159.7155475598472
 30
0
 11
335.300983395157
 21
159.7155475598472
 31
0
  0
LINE
  8
1
 62
3
 10
281.1650344930508
 20
123.3424806009011
 30
0
 11
281.1650344930504
 21
112.1078908589526
 31
0
  0
LINE
  8
1
 62
3
 10
282.7900344930504
 20
113.8453908589523
 30
0
 11
282.9650344930503
 21
113.8453908589523
 31
0
  0
LINE
  8
1
 62
3
 10
282.7900344930504
 20
114.5703908589527
 30
0
 11
282.7900344930504
 21
113.8453908589523
 31
0
  0
LINE
  8
1
 62
3
 10
282.9650344930503
 20
114.5703908589527
 30
0
 11
282.7900344930504
 21
114.5703908589527
 31
0
  0
LINE
  8
1
 62
3
 10
281.1650344930504
 20
112.1078908589526
 30
0
 11
281.9274599551094
 21
112.1078908589528
 31
0
  0
LINE
  8
1
 62
3
 10
279.5645042979696
 20
109.2083475598466
 30
0
 11
279.5645042979696
 21
114.7155475598477
 31
0
  0
LINE
  8
1
 62
3
 10
284.4145120361909
 20
108.508347559847
 30
0
 11
284.4145120361909
 21
112.508347559847
 31
0
  0
LINE
  8
1
 62
3
 10
283.9145120361909
 20
108.508347559847
 30
0
 11
284.4145120361909
 21
108.508347559847
 31
0
  0
LINE
  8
1
 62
3
 10
283.9145120361909
 20
112.508347559847
 30
0
 11
283.9145120361909
 21
108.508347559847
 31
0
  0
LINE
  8
1
 62
3
 10
286.1645120361909
 20
112.508347559847
 30
0
 11
282.5431817881125
 21
112.508347559847
 31
0
  0
LINE
  8
1
 62
3
 10
286.1645120361909
 20
107.508347559847
 30
0
 11
286.1645120361909
 21
112.508347559847
 31
0
  0
LINE
  8
1
 62
3
 10
287.1645120361909
 20
107.508347559847
 30
0
 11
286.1645120361909
 21
107.508347559847
 31
0
  0
LINE
  8
1
 62
3
 10
287.1645120361909
 20
117.508347559847
 30
0
 11
287.1645120361909
 21
107.508347559847
 31
0
  0
LINE
  8
1
 62
3
 10
281.1645120361909
 20
112.508347559847
 30
0
 11
281.1645120361916
 21
109.2083475598466
 31
0
  0
LINE
  8
1
 62
3
 10
281.1645120361916
 20
109.2083475598466
 30
0
 11
279.5645042979696
 21
109.2083475598466
 31
0
  0
LINE
  8
1
 62
3
 10
284.4645042979691
 20
121.2155562299952
 30
0
 11
283.9645042979689
 21
121.2155562299952
 31
0
  0
LINE
  8
1
 62
3
 10
284.4645042979682
 20
198.2155475598468
 30
0
 11
283.964504297968
 21
198.2155475598468
 31
0
  0
LINE
  8
1
 62
3
 10
283.9645042979689
 20
121.2155562299952
 30
0
 11
283.964504297968
 21
198.2155475598468
 31
0
  0
LINE
  8
1
 62
3
 10
279.5645042979696
 20
114.7155475598477
 30
0
 11
269.5645042979693
 21
114.7155475598471
 31
0
  0
LINE
  8
1
 62
3
 10
279.5645120361854
 20
201.4168664838337
 30
0
 11
279.5645120361854
 21
123.3424806009012
 31
0
  0
LINE
  8
1
 62
3
 10
269.5645042979693
 20
201.2155475598474
 30
0
 11
269.5645042979693
 21
116.0580184756079
 31
0
  0
LINE
  8
1
 62
3
 10
284.4645042979689
 20
118.6155475598474
 30
0
 11
284.4645042979691
 21
121.2155562299952
 31
0
  0
LINE
  8
1
 62
3
 10
286.0645042979689
 20
118.6155475598474
 30
0
 11
284.4645042979689
 21
118.6155475598474
 31
0
  0
LINE
  8
1
 62
3
 10
332.0645042979691
 20
167.0343678176276
 30
0
 11
332.0645042979691
 21
152.1155475598473
 31
0
  0
LINE
  8
1
 62
3
 10
332.0645042979691
 20
152.3967273020669
 30
0
 11
332.0645042979691
 21
152.1155475598473
 31
0
  0
LINE
  8
1
 62
3
 10
331.2645042979689
 20
151.3155475598472
 30
0
 11
331.0645042979691
 21
151.3155475598472
 31
0
  0
LINE
  8
1
 62
3
 10
331.0645042979691
 20
151.3155475598472
 30
0
 11
331.0645042979691
 21
152.2155475598473
 31
0
  0
LINE
  8
1
 62
3
 10
332.0645042979691
 20
167.3155475598471
 30
0
 11
332.0645042979691
 21
167.0343678176276
 31
0
  0
LINE
  8
1
 62
3
 10
331.0645042979691
 20
168.1155475598473
 30
0
 11
331.2645042979689
 21
168.1155475598473
 31
0
  0
LINE
  8
1
 62
3
 10
331.0645042979691
 20
152.2155475598473
 30
0
 11
331.0645042979691
 21
168.1155475598473
 31
0
  0
LINE
  8
1
 62
3
 10
331.0645042979691
 20
168.7155475598472
 30
0
 11
331.0645042979691
 21
152.2155475598473
 31
0
  0
LINE
  8
1
 62
3
 10
284.4645042979691
 20
121.2155562299952
 30
0
 11
284.4645042979689
 21
200.8155475598471
 31
0
  0
LINE
  8
1
 62
3
 10
284.4645042979689
 20
200.8155475598471
 30
0
 11
286.0645042979689
 21
200.8155475598471
 31
0
  0
LINE
  8
1
 62
3
 10
287.0645042979689
 20
119.6155475598474
 30
0
 11
328.4645042979689
 21
119.6155475598473
 31
0
  0
LINE
  8
1
 62
3
 10
331.0645042979691
 20
122.2155475598473
 30
0
 11
331.0645042979691
 21
152.2155475598473
 31
0
  0
LINE
  8
1
 62
3
 10
331.0645042979691
 20
197.2155475598472
 30
0
 11
331.0645042979691
 21
168.7155475598472
 31
0
  0
LINE
  8
1
 62
3
 10
287.0645042979689
 20
199.8155475598471
 30
0
 11
328.4645042979689
 21
199.8155475598471
 31
0
  0
LINE
  8
1
 62
1
 10
79.5054324926644
 20
159.7155475598476
 30
0
 11
135.881250879585
 21
159.7155475598476
 31
0
  0
LINE
  8
1
 62
1
 10
334.9799235144343
 20
159.7155475598476
 30
0
 11
249.111810970292
 21
159.7155475598476
 31
0
  0
LINE
  8
1
 62
3
 10
283.2645042979693
 20
123.3424806009012
 30
0
 11
283.2645042979693
 21
125.6714584987492
 31
0
  0
LINE
  8
1
 62
3
 10
279.5645042979696
 20
114.7155475598477
 30
0
 11
279.5645120361855
 21
114.7155475598477
 31
0
  0
LINE
  8
1
 62
3
 10
279.5645120361855
 20
114.7155475598477
 30
0
 11
279.5645120361854
 21
123.3424806009012
 31
0
  0
LINE
  8
1
 62
3
 10
279.5645120361854
 20
123.3424806009012
 30
0
 11
283.2645042979693
 21
123.3424806009012
 31
0
  0
LINE
  8
1
 62
3
 10
283.2645042979693
 20
125.6714584987492
 30
0
 11
283.2645042979693
 21
144.7155475598476
 31
0
  0
LINE
  8
1
 62
3
 10
283.2645042979693
 20
144.7155475598476
 30
0
 11
283.2645042979693
 21
199.4155388896997
 31
0
  0
LINE
  8
1
 62
3
 10
279.5645042979696
 20
114.7155475598477
 30
0
 11
279.5645042979696
 21
111.4655475598473
 31
0
  0
LINE
  8
1
 62
3
 10
279.5645042979696
 20
106.2155475598478
 30
0
 11
279.5645042979696
 21
111.4655475598473
 31
0
  0
LINE
  8
1
 62
3
 10
266.5645042979693
 20
164.7155475598474
 30
0
 11
266.5645042979693
 21
196.7155475598474
 31
0
  0
LINE
  8
1
 62
3
 10
266.5645042979693
 20
164.7155475598474
 30
0
 11
266.5645042979693
 21
122.7155475598474
 31
0
  0
LINE
  8
1
 62
3
 10
266.5645042979693
 20
122.7155475598474
 30
0
 11
266.5645042979693
 21
118.5655475598475
 31
0
  0
LINE
  8
1
 62
3
 10
266.9145042979691
 20
118.2155475598477
 30
0
 11
266.5645042979693
 21
118.5655475598475
 31
0
  0
LINE
  8
1
 62
3
 10
269.5645042979693
 20
118.2155475598477
 30
0
 11
266.9145042979691
 21
118.2155475598477
 31
0
  0
LINE
  8
1
 62
3
 10
269.5645042979693
 20
118.2155475598477
 30
0
 11
269.5645042979693
 21
114.7155475598471
 31
0
  0
LINE
  8
1
 62
3
 10
279.5645042979696
 20
106.2155475598478
 30
0
 11
270.5645042979696
 21
106.2155475598476
 31
0
  0
LINE
  8
1
 62
3
 10
266.9145042979691
 20
201.2155475598474
 30
0
 11
266.5645042979693
 21
200.8655475598476
 31
0
  0
LINE
  8
1
 62
3
 10
266.5645042979693
 20
200.8655475598476
 30
0
 11
266.5645042979693
 21
196.7155475598474
 31
0
  0
LINE
  8
1
 62
3
 10
266.9145042979691
 20
201.2155475598474
 30
0
 11
269.5645042979693
 21
201.2155475598474
 31
0
  0
LINE
  8
1
 62
3
 10
269.5645042979693
 20
204.7155475598474
 30
0
 11
269.5645042979693
 21
201.2155475598474
 31
0
  0
LINE
  8
1
 62
3
 10
279.7145120361919
 20
204.7155475598474
 30
0
 11
269.5645042979693
 21
204.7155475598474
 31
0
  0
LINE
  8
1
 62
3
 10
279.5645120361854
 20
201.4168664838337
 30
0
 11
279.5645120361855
 21
204.7155475598472
 31
0
  0
LINE
  8
1
 62
3
 10
279.5645120361854
 20
201.4168664838337
 30
0
 11
283.2645042979693
 21
201.4168664838337
 31
0
  0
LINE
  8
1
 62
3
 10
283.2645042979693
 20
201.4168664838337
 30
0
 11
283.2645042979693
 21
199.4155388896997
 31
0
  0
LINE
  8
1
 62
3
 10
279.5645120361855
 20
204.7155475598472
 30
0
 11
279.7145120361919
 21
204.7155475598474
 31
0
  0
LINE
  8
1
 62
3
 10
171.881250879585
 20
197.2155475598477
 30
0
 11
171.881250879585
 21
159.7155475598476
 31
0
  0
LINE
  8
1
 62
3
 10
126.881250879585
 20
204.7155475598476
 30
0
 11
164.381250879585
 21
204.7155475598477
 31
0
  0
LINE
  8
1
 62
3
 10
171.881250879585
 20
159.7155475598476
 30
0
 11
171.881250879585
 21
122.2155475598477
 31
0
  0
LINE
  8
1
 62
1
 10
96.07142696634634
 20
122.9655475598476
 30
0
 11
93.38125087958503
 21
122.9655475598476
 31
0
  0
LINE
  8
1
 62
1
 10
90.13125087958503
 20
127.4057236466091
 30
0
 11
90.13125087958503
 21
118.5253714730862
 31
0
  0
LINE
  8
1
 62
1
 10
163.631250879585
 20
200.9057236466091
 30
0
 11
163.631250879585
 21
192.0253714730862
 31
0
  0
LINE
  8
1
 62
1
 10
168.1501089054112
 20
196.4655475598477
 30
0
 11
158.2877488664926
 21
196.4655475598475
 31
0
  0
LINE
  8
1
 62
1
 10
126.881250879585
 20
159.7155475598477
 30
0
 11
126.881250879585
 21
109.6322335100388
 31
0
  0
LINE
  8
1
 62
1
 10
126.881250879585
 20
211.4202995096615
 30
0
 11
126.881250879585
 21
103.9292340875673
 31
0
  0
LINE
  8
1
 62
3
 10
155.3812508795853
 20
114.7155475598476
 30
0
 11
164.381250879585
 21
114.7155475598477
 31
0
  0
LINE
  8
1
 62
3
 10
89.38125087958497
 20
204.7155475598477
 30
0
 11
126.881250879585
 21
204.7155475598476
 31
0
  0
LINE
  8
1
 62
3
 10
81.88125087958497
 20
122.2155475598477
 30
0
 11
81.88125087958497
 21
197.2155475598477
 31
0
  0
LINE
  8
1
 62
3
 10
98.38125087958503
 20
114.7155475598476
 30
0
 11
102.3812508795853
 21
114.7155475598474
 31
0
  0
LINE
  8
1
 62
1
 10
171.881250879585
 20
159.7155475598476
 30
0
 11
175.6430623396514
 21
159.7155475598476
 31
0
  0
LINE
  8
1
 62
3
 10
105.381250879585
 20
110.7155475598476
 30
0
 11
105.381250879585
 21
107.2155475598473
 31
0
  0
LINE
  8
1
 62
3
 10
148.381250879585
 20
110.7155475598476
 30
0
 11
148.381250879585
 21
107.2155475598477
 31
0
  0
LINE
  8
1
 62
3
 10
147.381250879585
 20
106.2155475598477
 30
0
 11
106.381250879585
 21
106.2155475598473
 31
0
  0
LINE
  8
1
 62
3
 10
152.381250879585
 20
114.7155475598476
 30
0
 11
155.3812508795853
 21
114.7155475598476
 31
0
  0
LINE
  8
1
 62
3
 10
102.3812508795853
 20
114.7155475598474
 30
0
 11
155.3812508795853
 21
114.7155475598476
 31
0
  0
LINE
  8
1
 62
3
 10
101.381250879585
 20
114.7155475598476
 30
0
 11
98.38125087958503
 21
114.7155475598476
 31
0
  0
LINE
  8
1
 62
3
 10
89.38125087958497
 20
114.7155475598477
 30
0
 11
98.38125087958503
 21
114.7155475598476
 31
0
  0
LINE
  8
1
 62
1
 10
163.631250879585
 20
118.5253714730862
 30
0
 11
163.631250879585
 21
127.4057236466091
 31
0
  0
LINE
  8
1
 62
1
 10
168.0714269663465
 20
122.9655475598476
 30
0
 11
159.1910747928235
 21
122.9655475598476
 31
0
  0
LINE
  8
1
 62
1
 10
90.13125087958497
 20
192.0253714730862
 30
0
 11
90.13125087958497
 21
200.9057236466091
 31
0
  0
LINE
  8
1
 62
1
 10
94.57142696634645
 20
196.4655475598477
 30
0
 11
93.38125087958503
 21
196.4655475598476
 31
0
  0
LINE
  8
1
 62
1
 10
93.38125087958503
 20
196.4655475598476
 30
0
 11
85.69107479282354
 21
196.4655475598477
 31
0
  0
LINE
  8
1
 62
1
 10
93.38125087958503
 20
122.9655475598476
 30
0
 11
85.99338128148139
 21
122.9655475598476
 31
0
  0
LINE
  8
1
 62
1
 10
166.8812508795849
 20
122.9655475598476
 30
0
 11
160.6910747928233
 21
122.9655475598476
 31
0
  0
LINE
  8
1
 62
1
 10
167.5469114263154
 20
122.9655475598476
 30
0
 11
166.8812508795849
 21
122.9655475598476
 31
0
  0
LINE
  8
1
 62
1
 10
135.881250879585
 20
159.7155475598476
 30
0
 11
136.881250879585
 21
159.7155475598476
 31
0
  0
LINE
  8
1
 62
1
 10
136.881250879585
 20
159.7155475598476
 30
0
 11
139.881250879585
 21
159.7155475598476
 31
0
  0
LINE
  8
1
 62
1
 10
139.881250879585
 20
159.7155475598476
 30
0
 11
163.881250879585
 21
159.7155475598476
 31
0
  0
LINE
  8
1
 62
1
 10
163.881250879585
 20
159.7155475598476
 30
0
 11
168.381250879585
 21
159.7155475598476
 31
0
  0
LINE
  8
1
 62
1
 10
168.381250879585
 20
159.7155475598476
 30
0
 11
171.881250879585
 21
159.7155475598476
 31
0
  0
LINE
  8
1
 62
3
 10
276.0645042979693
 20
204.7155475598474
 30
0
 11
276.0645042979693
 21
114.7155475598475
 31
0
  0
LINE
  8
1
 62
3
 10
276.0645042979693
 20
127.5655475598476
 30
0
 11
277.5645042979693
 21
127.5655475598476
 31
0
  0
LINE
  8
1
 62
3
 10
277.5645042979693
 20
118.3655475598476
 30
0
 11
276.0645042979693
 21
118.3655475598476
 31
0
  0
LINE
  8
1
 62
3
 10
277.5645042979693
 20
127.5655475598476
 30
0
 11
277.5645042979693
 21
118.3655475598476
 31
0
  0
LINE
  8
1
 62
3
 10
277.5645042979693
 20
201.0655475598499
 30
0
 11
277.5645042979693
 21
191.8655475598499
 31
0
  0
LINE
  8
1
 62
3
 10
277.5645042979693
 20
201.0655475598499
 30
0
 11
276.0645042979693
 21
201.0655475598499
 31
0
  0
LINE
  8
1
 62
3
 10
277.5645042979693
 20
191.8655475598499
 30
0
 11
276.0645042979693
 21
191.8655475598499
 31
0
  0
LINE
  8
1
 62
3
 10
279.5645120361854
 20
187.7155475598476
 30
0
 11
276.0645042979693
 21
187.7155475598476
 31
0
  0
LINE
  8
1
 62
3
 10
279.5645120361854
 20
131.7155475598472
 30
0
 11
276.0645042979693
 21
131.7155475598472
 31
0
  0
LINE
  8
1
 62
3
 10
125.0512508795851
 20
152.0155475598475
 30
0
 11
125.881250879585
 21
152.0155475598475
 31
0
  0
LINE
  8
1
 62
3
 10
130.381250879585
 20
153.6855475598476
 30
0
 11
130.381250879585
 21
155.5786701315759
 31
0
  0
LINE
  8
1
 62
3
 10
125.0712508795852
 20
154.403308212613
 30
0
 11
125.881250879585
 21
154.403308212613
 31
0
  0
LINE
  8
1
 62
3
 10
129.381250879585
 20
153.7133082126129
 30
0
 11
129.381250879585
 21
153.7055475598477
 31
0
  0
LINE
  8
1
 62
3
 10
128.6912508795852
 20
153.0155475598475
 30
0
 11
127.881250879585
 21
153.0155475598476
 31
0
  0
LINE
  8
1
 62
3
 10
124.381250879585
 20
153.7055475598477
 30
0
 11
124.381250879585
 21
153.7133082126129
 31
0
  0
LINE
  8
1
 62
3
 10
123.381250879585
 20
155.5786701315759
 30
0
 11
123.381250879585
 21
153.6855475598476
 31
0
  0
LINE
  8
1
 62
3
 10
125.881250879585
 20
155.0303298557597
 30
0
 11
125.881250879585
 21
154.403308212613
 31
0
  0
LINE
  8
1
 62
3
 10
127.881250879585
 20
155.0303298557597
 30
0
 11
127.881250879585
 21
154.403308212613
 31
0
  0
LINE
  8
1
 62
3
 10
125.881250879585
 20
153.0155475598475
 30
0
 11
125.881250879585
 21
152.0155475598475
 31
0
  0
LINE
  8
1
 62
3
 10
127.881250879585
 20
153.0155475598476
 30
0
 11
127.881250879585
 21
152.0155475598475
 31
0
  0
LINE
  8
1
 62
3
 10
127.881250879585
 20
154.403308212613
 30
0
 11
128.6912508795851
 21
154.403308212613
 31
0
  0
LINE
  8
1
 62
3
 10
125.881250879585
 20
153.0155475598475
 30
0
 11
125.0712508795851
 21
153.0155475598475
 31
0
  0
LINE
  8
1
 62
3
 10
127.881250879585
 20
152.0155475598475
 30
0
 11
128.7112508795852
 21
152.0155475598475
 31
0
  0
LINE
  8
1
 62
3
 10
286.0645042979689
 20
118.6155475598474
 30
0
 11
284.4645042979689
 21
118.6155475598474
 31
0
  0
LINE
  8
1
 62
3
 10
284.4645042979689
 20
200.8155475598471
 30
0
 11
286.0645042979689
 21
200.8155475598471
 31
0
  0
LINE
  8
1
 62
1
 10
282.4566625713508
 20
159.7155475598472
 30
0
 11
335.300983395157
 21
159.7155475598472
 31
0
  0
LINE
  8
1
 62
3
 10
279.5645120361853
 20
-18.08518554423452
 30
0
 11
276.0645042979693
 21
-18.08518554423452
 31
0
  0
LINE
  8
1
 62
3
 10
279.5645120361853
 20
37.91481445576588
 30
0
 11
276.0645042979693
 21
37.91481445576588
 31
0
  0
LINE
  8
1
 62
3
 10
277.5645042979693
 20
42.0648144557683
 30
0
 11
276.0645042979693
 21
42.0648144557683
 31
0
  0
LINE
  8
1
 62
3
 10
277.5645042979693
 20
51.26481445576818
 30
0
 11
276.0645042979693
 21
51.26481445576818
 31
0
  0
LINE
  8
1
 62
3
 10
277.5645042979693
 20
51.26481445576818
 30
0
 11
277.5645042979693
 21
42.0648144557683
 31
0
  0
LINE
  8
1
 62
3
 10
277.5645042979693
 20
-22.23518554423416
 30
0
 11
277.5645042979693
 21
-31.43518554423415
 31
0
  0
LINE
  8
1
 62
3
 10
277.5645042979693
 20
-31.43518554423415
 30
0
 11
276.0645042979693
 21
-31.43518554423415
 31
0
  0
LINE
  8
1
 62
3
 10
276.0645042979693
 20
-22.23518554423416
 30
0
 11
277.5645042979693
 21
-22.23518554423416
 31
0
  0
LINE
  8
1
 62
3
 10
276.0645042979693
 20
54.91481445576571
 30
0
 11
276.0645042979693
 21
-35.08518554423424
 31
0
  0
LINE
  8
1
 62
3
 10
283.2645042979693
 20
51.41481445576548
 30
0
 11
283.2645042979693
 21
49.61480578561796
 31
0
  0
LINE
  8
1
 62
3
 10
279.5645120361853
 20
51.41481445576548
 30
0
 11
283.2645042979693
 21
51.41481445576548
 31
0
  0
LINE
  8
1
 62
3
 10
279.5645120361853
 20
51.41481445576548
 30
0
 11
279.5645120361853
 21
52.51481445576545
 31
0
  0
LINE
  8
1
 62
3
 10
269.5645042979693
 20
54.91481445576571
 30
0
 11
269.5645042979693
 21
51.41481445576571
 31
0
  0
LINE
  8
1
 62
3
 10
266.9145042979691
 20
51.41481445576571
 30
0
 11
269.5645042979693
 21
51.41481445576571
 31
0
  0
LINE
  8
1
 62
3
 10
266.5645042979693
 20
51.06481445576586
 30
0
 11
266.5645042979693
 21
46.91481445576571
 31
0
  0
LINE
  8
1
 62
3
 10
266.9145042979691
 20
51.41481445576571
 30
0
 11
266.5645042979693
 21
51.06481445576586
 31
0
  0
LINE
  8
1
 62
3
 10
269.5645042979693
 20
-31.58518554423407
 30
0
 11
269.5645042979693
 21
-35.08518554423463
 31
0
  0
LINE
  8
1
 62
3
 10
269.5645042979693
 20
-31.58518554423407
 30
0
 11
266.9145042979691
 21
-31.58518554423407
 31
0
  0
LINE
  8
1
 62
3
 10
266.9145042979691
 20
-31.58518554423407
 30
0
 11
266.5645042979693
 21
-31.23518554423421
 31
0
  0
LINE
  8
1
 62
3
 10
266.5645042979693
 20
-27.08518554423429
 30
0
 11
266.5645042979693
 21
-31.23518554423421
 31
0
  0
LINE
  8
1
 62
3
 10
266.5645042979693
 20
14.91481445576571
 30
0
 11
266.5645042979693
 21
-27.08518554423429
 31
0
  0
LINE
  8
1
 62
3
 10
266.5645042979693
 20
14.91481445576571
 30
0
 11
266.5645042979693
 21
46.91481445576571
 31
0
  0
LINE
  8
1
 62
3
 10
283.2645042979693
 20
-24.12927460533254
 30
0
 11
283.2645042979693
 21
-4.085185544234518
 31
0
  0
LINE
  8
1
 62
3
 10
279.5645120361855
 20
-31.58518554423452
 30
0
 11
283.2645042979693
 21
-31.58518554423452
 31
0
  0
LINE
  8
1
 62
3
 10
283.2645042979693
 20
-31.58518554423452
 30
0
 11
283.2645042979693
 21
-24.12927460533254
 31
0
  0
LINE
  8
1
 62
3
 10
287.0645042979688
 20
50.01481445576528
 30
0
 11
328.4645042979689
 21
50.01481445576528
 31
0
  0
LINE
  8
1
 62
3
 10
331.0645042979691
 20
47.41481445576537
 30
0
 11
331.0645042979691
 21
18.91481445576537
 31
0
  0
LINE
  8
1
 62
3
 10
331.0645042979691
 20
-27.58518554423446
 30
0
 11
331.0645042979691
 21
2.414814455765596
 31
0
  0
LINE
  8
1
 62
3
 10
287.0645042979688
 20
-30.18518554423437
 30
0
 11
328.4645042979689
 21
-30.18518554423443
 31
0
  0
LINE
  8
1
 62
3
 10
284.4645042979689
 20
51.01481445576528
 30
0
 11
286.0645042979688
 21
51.01481445576528
 31
0
  0
LINE
  8
1
 62
3
 10
284.464504297969
 20
-28.58517687408656
 30
0
 11
284.4645042979689
 21
-4.085185544234518
 31
0
  0
LINE
  8
1
 62
3
 10
331.0645042979691
 20
18.91481445576537
 30
0
 11
331.0645042979691
 21
2.414814455765596
 31
0
  0
LINE
  8
1
 62
3
 10
331.0645042979691
 20
2.414814455765596
 30
0
 11
331.0645042979691
 21
18.31481445576557
 31
0
  0
LINE
  8
1
 62
3
 10
331.0645042979691
 20
18.31481445576557
 30
0
 11
331.2645042979689
 21
18.31481445576557
 31
0
  0
LINE
  8
1
 62
3
 10
332.0645042979691
 20
17.51481445576528
 30
0
 11
332.0645042979691
 21
17.23363471354585
 31
0
  0
LINE
  8
1
 62
3
 10
331.0645042979691
 20
1.514814455765505
 30
0
 11
331.0645042979691
 21
2.414814455765596
 31
0
  0
LINE
  8
1
 62
3
 10
331.2645042979689
 20
1.514814455765505
 30
0
 11
331.0645042979691
 21
1.514814455765505
 31
0
  0
LINE
  8
1
 62
3
 10
332.0645042979691
 20
2.595994197985165
 30
0
 11
332.0645042979691
 21
2.314814455765573
 31
0
  0
LINE
  8
1
 62
3
 10
332.0645042979691
 20
17.23363471354585
 30
0
 11
332.0645042979691
 21
2.314814455765573
 31
0
  0
LINE
  8
1
 62
3
 10
286.0645042979688
 20
-31.18518554423437
 30
0
 11
284.4645042979689
 21
-31.18518554423437
 31
0
  0
LINE
  8
1
 62
3
 10
284.4645042979689
 20
-31.18518554423437
 30
0
 11
284.464504297969
 21
-28.58517687408656
 31
0
  0
LINE
  8
1
 62
3
 10
269.5645042979693
 20
51.41481445576571
 30
0
 11
269.5645042979693
 21
-33.74271462847386
 31
0
  0
LINE
  8
1
 62
3
 10
279.5645120361853
 20
51.41481445576548
 30
0
 11
279.5645120361855
 21
-31.58518554423452
 31
0
  0
LINE
  8
1
 62
3
 10
283.9645042979689
 20
-28.58517687408656
 30
0
 11
283.9645042979686
 21
-4.085185544234518
 31
0
  0
LINE
  8
1
 62
3
 10
284.4645042979682
 20
48.41481445576503
 30
0
 11
283.964504297968
 21
48.41481445576503
 31
0
  0
LINE
  8
1
 62
3
 10
284.464504297969
 20
-28.58517687408656
 30
0
 11
283.9645042979689
 21
-28.58517687408656
 31
0
  0
LINE
  8
1
 62
3
 10
281.1650344930504
 20
-9.78518554423462
 30
0
 11
281.9274599551094
 21
-9.78518554423445
 31
0
  0
LINE
  8
1
 62
3
 10
282.9650344930503
 20
-7.322685544234529
 30
0
 11
282.7900344930504
 21
-7.322685544234529
 31
0
  0
LINE
  8
1
 62
3
 10
282.7900344930504
 20
-7.322685544234529
 30
0
 11
282.7900344930504
 21
-8.04768554423495
 31
0
  0
LINE
  8
1
 62
3
 10
282.7900344930504
 20
-8.04768554423495
 30
0
 11
282.9650344930503
 21
-8.04768554423495
 31
0
  0
LINE
  8
1
 62
3
 10
281.9274599551094
 20
-5.585185544234745
 30
0
 11
281.1650344930504
 21
-5.585185544234404
 31
0
  0
LINE
  8
1
 62
3
 10
269.5645042979693
 20
-35.08518554423463
 30
0
 11
270.5645042979695
 21
-35.08518554423441
 31
0
  0
LINE
  8
1
 62
1
 10
246.799311622006
 20
9.914814455765368
 30
0
 11
337.0645042979691
 21
9.914814455765596
 31
0
  0
LINE
  8
1
 62
3
 10
281.1650344930504
 20
-5.585185544234404
 30
0
 11
281.1650344930504
 21
-9.78518554423462
 31
0
  0
LINE
  8
1
 62
3
 10
279.5645120361853
 20
-9.585185544234518
 30
0
 11
281.1645120361853
 21
-9.585185544234518
 31
0
  0
LINE
  8
1
 62
3
 10
281.9274599551094
 20
29.61481445576541
 30
0
 11
281.1650344930504
 21
29.61481445576564
 31
0
  0
LINE
  8
1
 62
3
 10
282.7900344930504
 20
27.15231445576555
 30
0
 11
282.9650344930503
 21
27.15231445576555
 31
0
  0
LINE
  8
1
 62
3
 10
282.7900344930504
 20
27.87731445576591
 30
0
 11
282.7900344930504
 21
27.15231445576555
 31
0
  0
LINE
  8
1
 62
3
 10
282.9650344930503
 20
27.87731445576591
 30
0
 11
282.7900344930504
 21
27.87731445576591
 31
0
  0
LINE
  8
1
 62
3
 10
281.1650344930504
 20
25.41481445576542
 30
0
 11
281.9274599551094
 21
25.41481445576571
 31
0
  0
LINE
  8
1
 62
3
 10
281.1650344930504
 20
29.61481445576564
 30
0
 11
281.1650344930504
 21
25.41481445576542
 31
0
  0
LINE
  8
1
 62
3
 10
281.1645120361853
 20
29.41481445576554
 30
0
 11
279.5645120361853
 21
29.41481445576554
 31
0
  0
LINE
  8
1
 62
3
 10
281.1650344930504
 20
25.41481445576542
 30
0
 11
281.1650344930504
 21
-5.585185544234404
 31
0
  0
LINE
  8
1
 62
3
 10
284.4645042979689
 20
23.91481445576548
 30
0
 11
284.4645042979689
 21
51.01481445576528
 31
0
  0
LINE
  8
1
 62
3
 10
283.9645042979682
 20
23.91481445576548
 30
0
 11
283.964504297968
 21
48.41481445576503
 31
0
  0
LINE
  8
1
 62
3
 10
283.2645042979693
 20
23.91481445576548
 30
0
 11
283.2645042979693
 21
49.61480578561796
 31
0
  0
LINE
  8
1
 62
3
 10
286.1645120361909
 20
20.22344385875354
 30
0
 11
286.1645120361909
 21
23.91481445576548
 31
0
  0
LINE
  8
1
 62
3
 10
286.6650344930504
 20
20.41481445576548
 30
0
 11
286.6650344930504
 21
17.41481445576548
 31
0
  0
LINE
  8
1
 62
3
 10
286.6650344930504
 20
17.41481445576548
 30
0
 11
286.6645120361909
 21
17.60618505277742
 31
0
  0
LINE
  8
1
 62
3
 10
286.6645120361909
 20
20.22344385875354
 30
0
 11
286.6650344930504
 21
20.41481445576548
 31
0
  0
LINE
  8
1
 62
3
 10
286.1645120361909
 20
23.91481445576548
 30
0
 11
281.1650344930504
 21
23.91481445576548
 31
0
  0
LINE
  8
1
 62
3
 10
286.1645120361909
 20
2.223443858753656
 30
0
 11
286.1645120361909
 21
17.60618505277748
 31
0
  0
LINE
  8
1
 62
3
 10
286.1645120361909
 20
-4.085185544234518
 30
0
 11
286.6645120361909
 21
-4.085185544234518
 31
0
  0
LINE
  8
1
 62
3
 10
286.1645120361909
 20
-0.3938149472225216
 30
0
 11
286.1645120361909
 21
-4.085185544234518
 31
0
  0
LINE
  8
1
 62
3
 10
281.1650344930504
 20
-4.085185544234518
 30
0
 11
286.1645120361909
 21
-4.085185544234518
 31
0
  0
LINE
  8
1
 62
3
 10
287.1650344930504
 20
-4.085185544234518
 30
0
 11
287.1650344930504
 21
23.91481445576548
 31
0
  0
LINE
  8
1
 62
3
 10
287.1650344930504
 20
23.91481445576548
 30
0
 11
286.6645120361909
 21
23.91481445576548
 31
0
  0
LINE
  8
1
 62
3
 10
281.1650344930504
 20
23.91481445576548
 30
0
 11
281.1650344930504
 21
-4.085185544234518
 31
0
  0
LINE
  8
1
 62
3
 10
286.6645120361909
 20
-4.085185544234518
 30
0
 11
287.1650344930504
 21
-4.085185544234518
 31
0
  0
LINE
  8
1
 62
3
 10
286.6645120361909
 20
23.91481445576548
 30
0
 11
286.1645120361909
 21
23.91481445576548
 31
0
  0
LINE
  8
1
 62
3
 10
286.6650344930504
 20
2.414814455765482
 30
0
 11
286.6650344930504
 21
-0.585185544234518
 31
0
  0
LINE
  8
1
 62
3
 10
286.6650344930504
 20
-0.585185544234518
 30
0
 11
286.6645120361909
 21
-0.3938149472225216
 31
0
  0
LINE
  8
1
 62
3
 10
286.6645120361909
 20
2.223443858753656
 30
0
 11
286.6650344930504
 21
2.414814455765482
 31
0
  0
LINE
  8
1
 62
3
 10
286.1645120361909
 20
2.223443858753656
 30
0
 11
286.6650344930504
 21
2.414814455765482
 31
0
  0
LINE
  8
1
 62
3
 10
286.6650344930504
 20
-0.585185544234518
 30
0
 11
286.1645120361909
 21
-0.3938149472225216
 31
0
  0
LINE
  8
1
 62
3
 10
286.1645120361909
 20
20.22344385875354
 30
0
 11
286.6650344930504
 21
20.41481445576548
 31
0
  0
LINE
  8
1
 62
3
 10
286.1645120361909
 20
17.60618505277748
 30
0
 11
286.6650344930504
 21
17.41481445576548
 31
0
  0
LINE
  8
1
 62
3
 10
279.5645120361853
 20
-10.18518554423454
 30
0
 11
283.2645042979693
 21
-10.18518554423454
 31
0
  0
LINE
  8
1
 62
3
 10
279.5645120361853
 20
30.0148144557663
 30
0
 11
283.2645042979693
 21
30.01481445576545
 31
0
  0
LINE
  8
1
 62
3
 10
276.0645042979693
 20
54.91481445576571
 30
0
 11
269.5645042979693
 21
54.91481445576571
 31
0
  0
LINE
  8
1
 62
3
 10
279.5645120361853
 20
52.51481445576545
 30
0
 11
276.0645042979693
 21
52.51481445576545
 31
0
  0
LINE
  8
1
 62
3
 10
276.0645042979693
 20
-32.68518554423454
 30
0
 11
279.5645120361855
 21
-32.68518554423454
 31
0
  0
LINE
  8
1
 62
3
 10
279.5645120361855
 20
-32.68518554423454
 30
0
 11
279.5645120361855
 21
-31.58518554423452
 31
0
  0
LINE
  8
1
 62
3
 10
276.0645042979693
 20
-35.08518554423424
 30
0
 11
269.5645042979693
 21
-35.08518554423463
 31
0
  0
LINE
  8
1
 62
3
 10
325.249266552134
 20
295.697845371639
 30
0
 11
325.249266552134
 21
304.1101892683746
 31
0
  0
LINE
  8
1
 62
3
 10
325.249266552134
 20
293.197845371639
 30
0
 11
325.249266552134
 21
304.1101892683746
 31
0
  0
LINE
  8
1
 62
3
 10
325.249266552134
 20
304.1101892683746
 30
0
 11
325.249266552134
 21
305.2253188459562
 31
0
  0
LINE
  8
1
 62
3
 10
325.249266552134
 20
304.1101892683746
 30
0
 11
325.249266552134
 21
305.2253188459562
 31
0
  0
LINE
  8
1
 62
3
 10
325.249266552134
 20
305.2253188459562
 30
0
 11
325.249266552134
 21
318.697845371639
 31
0
  0
LINE
  8
1
 62
3
 10
325.249266552134
 20
305.2253188459562
 30
0
 11
325.249266552134
 21
316.197845371639
 31
0
  0
LINE
  8
1
 62
3
 10
325.249266552134
 20
315.197845371639
 30
0
 11
325.249266552134
 21
314.197845371639
 31
0
  0
LINE
  8
1
 62
3
 10
325.249266552134
 20
320.197845371639
 30
0
 11
325.249266552134
 21
319.197845371639
 31
0
  0
LINE
  8
1
 62
3
 10
325.249266552134
 20
321.197845371639
 30
0
 11
325.249266552134
 21
313.1478453716392
 31
0
  0
LINE
  8
1
 62
3
 10
247.8349874154441
 20
306.5827157940576
 30
0
 11
247.8349874154441
 21
295.697845371639
 31
0
  0
LINE
  8
1
 62
3
 10
247.8349874154441
 20
306.5827157940576
 30
0
 11
247.8349874154441
 21
295.697845371639
 31
0
  0
LINE
  8
1
 62
3
 10
247.8349874154441
 20
307.697845371639
 30
0
 11
247.8349874154441
 21
306.5827157940576
 31
0
  0
LINE
  8
1
 62
3
 10
247.8349874154441
 20
307.697845371639
 30
0
 11
247.8349874154441
 21
306.5827157940576
 31
0
  0
LINE
  8
1
 62
3
 10
325.249266552134
 20
295.697845371639
 30
0
 11
325.249266552134
 21
318.697845371639
 31
0
  0
LINE
  8
1
 62
3
 10
325.249266552134
 20
293.197845371639
 30
0
 11
325.249266552134
 21
316.197845371639
 31
0
  0
LINE
  8
1
 62
3
 10
325.249266552134
 20
320.197845371639
 30
0
 11
325.249266552134
 21
319.197845371639
 31
0
  0
LINE
  8
1
 62
3
 10
325.249266552134
 20
321.197845371639
 30
0
 11
325.249266552134
 21
313.1478453716392
 31
0
  0
LINE
  8
1
 62
3
 10
305.249266552134
 20
306.697845371639
 30
0
 11
285.9346542654565
 21
306.6516030706208
 31
0
  0
LINE
  8
1
 62
3
 10
247.8349874154441
 20
318.697845371639
 30
0
 11
247.8349874154441
 21
307.697845371639
 31
0
  0
LINE
  8
1
 62
3
 10
305.249266552134
 20
307.697845371639
 30
0
 11
285.2316491323945
 21
307.697845371639
 31
0
  0
LINE
  8
1
 62
3
 10
247.8349874154441
 20
316.197845371639
 30
0
 11
247.8349874154441
 21
307.697845371639
 31
0
  0
LINE
  8
1
 62
3
 10
247.8349874154441
 20
314.197845371639
 30
0
 11
247.8349874154441
 21
315.197845371639
 31
0
  0
LINE
  8
1
 62
3
 10
247.8349874154441
 20
316.697845371639
 30
0
 11
247.8349874154441
 21
317.697845371639
 31
0
  0
LINE
  8
1
 62
3
 10
247.8349874154441
 20
313.1478453716392
 30
0
 11
247.8349874154441
 21
318.697845371639
 31
0
  0
LINE
  8
1
 62
3
 10
244.0878170982252
 20
316.697845371639
 30
0
 11
239.9349874154441
 21
316.697845371639
 31
0
  0
LINE
  8
1
 62
3
 10
244.0878170982252
 20
317.697845371639
 30
0
 11
244.0878170982252
 21
316.697845371639
 31
0
  0
LINE
  8
1
 62
3
 10
239.9349874154441
 20
317.697845371639
 30
0
 11
239.9349874154441
 21
316.697845371639
 31
0
  0
LINE
  8
1
 62
3
 10
239.9349874154441
 20
317.697845371639
 30
0
 11
244.0878170982252
 21
317.697845371639
 31
0
  0
LINE
  8
1
 62
3
 10
244.0878170982252
 20
314.197845371639
 30
0
 11
239.9349874154441
 21
314.197845371639
 31
0
  0
LINE
  8
1
 62
3
 10
244.0878170982252
 20
315.197845371639
 30
0
 11
244.0878170982252
 21
314.197845371639
 31
0
  0
LINE
  8
1
 62
3
 10
239.9349874154441
 20
315.197845371639
 30
0
 11
239.9349874154441
 21
314.197845371639
 31
0
  0
LINE
  8
1
 62
3
 10
239.9349874154441
 20
315.197845371639
 30
0
 11
244.0878170982252
 21
315.197845371639
 31
0
  0
LINE
  8
1
 62
3
 10
244.0878170982252
 20
311.697845371639
 30
0
 11
239.9349874154441
 21
311.697845371639
 31
0
  0
LINE
  8
1
 62
3
 10
244.0878170982252
 20
312.697845371639
 30
0
 11
244.0878170982252
 21
311.697845371639
 31
0
  0
LINE
  8
1
 62
3
 10
239.9349874154441
 20
312.697845371639
 30
0
 11
239.9349874154441
 21
311.697845371639
 31
0
  0
LINE
  8
1
 62
3
 10
239.9349874154441
 20
312.697845371639
 30
0
 11
244.0878170982252
 21
312.697845371639
 31
0
  0
LINE
  8
1
 62
3
 10
244.0878170982252
 20
309.197845371639
 30
0
 11
239.9349874154441
 21
309.197845371639
 31
0
  0
LINE
  8
1
 62
3
 10
244.0878170982252
 20
310.197845371639
 30
0
 11
244.0878170982252
 21
309.197845371639
 31
0
  0
LINE
  8
1
 62
3
 10
239.9349874154441
 20
310.197845371639
 30
0
 11
239.9349874154441
 21
309.197845371639
 31
0
  0
LINE
  8
1
 62
3
 10
239.9349874154441
 20
310.197845371639
 30
0
 11
244.0878170982252
 21
310.197845371639
 31
0
  0
LINE
  8
1
 62
3
 10
244.0878170982252
 20
306.697845371639
 30
0
 11
239.9349874154441
 21
306.697845371639
 31
0
  0
LINE
  8
1
 62
3
 10
244.0878170982252
 20
307.697845371639
 30
0
 11
244.0878170982252
 21
306.697845371639
 31
0
  0
LINE
  8
1
 62
3
 10
239.9349874154441
 20
307.697845371639
 30
0
 11
239.9349874154441
 21
306.697845371639
 31
0
  0
LINE
  8
1
 62
3
 10
239.9349874154441
 20
307.697845371639
 30
0
 11
244.0878170982252
 21
307.697845371639
 31
0
  0
LINE
  8
1
 62
3
 10
244.0878170982252
 20
304.197845371639
 30
0
 11
239.9349874154441
 21
304.197845371639
 31
0
  0
LINE
  8
1
 62
3
 10
244.0878170982252
 20
305.197845371639
 30
0
 11
244.0878170982252
 21
304.197845371639
 31
0
  0
LINE
  8
1
 62
3
 10
239.9349874154441
 20
305.197845371639
 30
0
 11
239.9349874154441
 21
304.197845371639
 31
0
  0
LINE
  8
1
 62
3
 10
239.9349874154441
 20
305.197845371639
 30
0
 11
244.0878170982252
 21
305.197845371639
 31
0
  0
LINE
  8
1
 62
3
 10
244.0878170982252
 20
301.697845371639
 30
0
 11
239.9349874154441
 21
301.697845371639
 31
0
  0
LINE
  8
1
 62
3
 10
244.0878170982252
 20
302.697845371639
 30
0
 11
244.0878170982252
 21
301.697845371639
 31
0
  0
LINE
  8
1
 62
3
 10
239.9349874154441
 20
302.697845371639
 30
0
 11
239.9349874154441
 21
301.697845371639
 31
0
  0
LINE
  8
1
 62
3
 10
239.9349874154441
 20
302.697845371639
 30
0
 11
244.0878170982252
 21
302.697845371639
 31
0
  0
LINE
  8
1
 62
3
 10
244.0878170982252
 20
299.197845371639
 30
0
 11
239.9349874154441
 21
299.197845371639
 31
0
  0
LINE
  8
1
 62
3
 10
244.0878170982252
 20
300.197845371639
 30
0
 11
244.0878170982252
 21
299.197845371639
 31
0
  0
LINE
  8
1
 62
3
 10
239.9349874154441
 20
300.197845371639
 30
0
 11
239.9349874154441
 21
299.197845371639
 31
0
  0
LINE
  8
1
 62
3
 10
239.9349874154441
 20
300.197845371639
 30
0
 11
244.0878170982252
 21
300.197845371639
 31
0
  0
LINE
  8
1
 62
3
 10
244.0878170982252
 20
296.697845371639
 30
0
 11
239.9349874154441
 21
296.697845371639
 31
0
  0
LINE
  8
1
 62
3
 10
244.0878170982252
 20
297.697845371639
 30
0
 11
244.0878170982252
 21
296.697845371639
 31
0
  0
LINE
  8
1
 62
3
 10
239.9349874154441
 20
297.697845371639
 30
0
 11
239.9349874154441
 21
296.697845371639
 31
0
  0
LINE
  8
1
 62
3
 10
239.9349874154441
 20
297.697845371639
 30
0
 11
244.0878170982252
 21
297.697845371639
 31
0
  0
LINE
  8
1
 62
3
 10
328.4046018810951
 20
315.1478453716392
 30
0
 11
327.8438836525953
 21
315.1478453716392
 31
0
  0
LINE
  8
1
 62
3
 10
328.4046018810951
 20
313.1478453716392
 30
0
 11
333.1492665521342
 21
313.1478453716392
 31
0
  0
LINE
  8
1
 62
3
 10
328.4046018810951
 20
313.1478453716392
 30
0
 11
328.4046018810951
 21
315.1478453716392
 31
0
  0
LINE
  8
1
 62
3
 10
328.4046018810951
 20
301.2478453716392
 30
0
 11
327.8438836525953
 21
301.2478453716392
 31
0
  0
LINE
  8
1
 62
3
 10
328.4046018810951
 20
299.2478453716392
 30
0
 11
333.1492665521342
 21
299.2478453716392
 31
0
  0
LINE
  8
1
 62
3
 10
328.4046018810951
 20
299.2478453716392
 30
0
 11
328.4046018810951
 21
301.2478453716392
 31
0
  0
LINE
  8
1
 62
3
 10
329.7503256294941
 20
321.197845371639
 30
0
 11
329.3017510466942
 21
321.197845371639
 31
0
  0
LINE
  8
1
 62
3
 10
329.7503256294941
 20
318.197845371639
 30
0
 11
329.3017510466942
 21
318.197845371639
 31
0
  0
LINE
  8
1
 62
3
 10
329.7503256294941
 20
318.197845371639
 30
0
 11
329.7503256294941
 21
321.197845371639
 31
0
  0
LINE
  8
1
 62
3
 10
331.021286947427
 20
318.197845371639
 30
0
 11
329.7503256294941
 21
318.197845371639
 31
0
  0
LINE
  8
1
 62
3
 10
331.021286947427
 20
321.197845371639
 30
0
 11
329.7503256294941
 21
321.197845371639
 31
0
  0
LINE
  8
1
 62
3
 10
331.021286947427
 20
321.197845371639
 30
0
 11
331.021286947427
 21
318.197845371639
 31
0
  0
LINE
  8
1
 62
3
 10
329.7503256294941
 20
296.197845371639
 30
0
 11
329.3017510466942
 21
296.197845371639
 31
0
  0
LINE
  8
1
 62
3
 10
329.7503256294941
 20
293.197845371639
 30
0
 11
331.021286947427
 21
293.197845371639
 31
0
  0
LINE
  8
1
 62
3
 10
329.7503256294941
 20
293.197845371639
 30
0
 11
329.7503256294941
 21
296.197845371639
 31
0
  0
LINE
  8
1
 62
3
 10
331.021286947427
 20
293.197845371639
 30
0
 11
332.0305797587274
 21
293.197845371639
 31
0
  0
LINE
  8
1
 62
3
 10
331.021286947427
 20
296.197845371639
 30
0
 11
329.7503256294941
 21
296.197845371639
 31
0
  0
LINE
  8
1
 62
3
 10
331.021286947427
 20
296.197845371639
 30
0
 11
331.021286947427
 21
293.197845371639
 31
0
  0
LINE
  8
1
 62
3
 10
329.3017510466942
 20
321.197845371639
 30
0
 11
325.249266552134
 21
321.197845371639
 31
0
  0
LINE
  8
1
 62
3
 10
329.3017510466942
 20
318.197845371639
 30
0
 11
329.3017510466942
 21
321.197845371639
 31
0
  0
LINE
  8
1
 62
3
 10
332.0305797587274
 20
318.197845371639
 30
0
 11
331.021286947427
 21
318.197845371639
 31
0
  0
LINE
  8
1
 62
3
 10
332.0305797587274
 20
321.197845371639
 30
0
 11
331.021286947427
 21
321.197845371639
 31
0
  0
LINE
  8
1
 62
3
 10
332.0305797587274
 20
321.197845371639
 30
0
 11
332.0305797587274
 21
318.197845371639
 31
0
  0
LINE
  8
1
 62
3
 10
329.3017510466942
 20
293.197845371639
 30
0
 11
329.7503256294941
 21
293.197845371639
 31
0
  0
LINE
  8
1
 62
3
 10
329.3017510466942
 20
296.197845371639
 30
0
 11
329.3017510466942
 21
293.197845371639
 31
0
  0
LINE
  8
1
 62
3
 10
332.0305797587274
 20
296.197845371639
 30
0
 11
331.021286947427
 21
296.197845371639
 31
0
  0
LINE
  8
1
 62
3
 10
332.0305797587274
 20
293.197845371639
 30
0
 11
333.1492665521342
 21
293.197845371639
 31
0
  0
LINE
  8
1
 62
3
 10
332.0305797587274
 20
293.197845371639
 30
0
 11
332.0305797587274
 21
296.197845371639
 31
0
  0
LINE
  8
1
 62
3
 10
333.1492665521342
 20
299.2478453716392
 30
0
 11
333.1492665521342
 21
301.2478453716392
 31
0
  0
LINE
  8
1
 62
3
 10
327.8438836525953
 20
299.2478453716392
 30
0
 11
328.4046018810951
 21
299.2478453716392
 31
0
  0
LINE
  8
1
 62
3
 10
327.8438836525953
 20
301.2478453716392
 30
0
 11
327.8438836525953
 21
299.2478453716392
 31
0
  0
LINE
  8
1
 62
3
 10
333.1492665521342
 20
301.2478453716392
 30
0
 11
328.4046018810951
 21
301.2478453716392
 31
0
  0
LINE
  8
1
 62
3
 10
333.1492665521342
 20
301.2478453716392
 30
0
 11
333.1492665521342
 21
313.1478453716392
 31
0
  0
LINE
  8
1
 62
3
 10
333.1492665521342
 20
313.1478453716392
 30
0
 11
333.1492665521342
 21
301.2478453716392
 31
0
  0
LINE
  8
1
 62
3
 10
333.1492665521342
 20
313.1478453716392
 30
0
 11
333.1492665521342
 21
315.1478453716392
 31
0
  0
LINE
  8
1
 62
3
 10
327.8438836525953
 20
313.1478453716392
 30
0
 11
328.4046018810951
 21
313.1478453716392
 31
0
  0
LINE
  8
1
 62
3
 10
327.8438836525953
 20
315.1478453716392
 30
0
 11
327.8438836525953
 21
313.1478453716392
 31
0
  0
LINE
  8
1
 62
3
 10
333.1492665521342
 20
315.1478453716392
 30
0
 11
333.1492665521342
 21
321.197845371639
 31
0
  0
LINE
  8
1
 62
3
 10
333.1492665521342
 20
315.1478453716392
 30
0
 11
328.4046018810951
 21
315.1478453716392
 31
0
  0
LINE
  8
1
 62
3
 10
333.1492665521342
 20
321.197845371639
 30
0
 11
332.0305797587274
 21
321.197845371639
 31
0
  0
LINE
  8
1
 62
3
 10
333.1492665521342
 20
293.197845371639
 30
0
 11
333.1492665521342
 21
299.2478453716392
 31
0
  0
LINE
  8
1
 62
3
 10
325.249266552134
 20
293.197845371639
 30
0
 11
329.3017510466942
 21
293.197845371639
 31
0
  0
LINE
  8
1
 62
3
 10
325.249266552134
 20
321.197845371639
 30
0
 11
325.249266552134
 21
293.197845371639
 31
0
  0
LINE
  8
1
 62
3
 10
247.8349874154441
 20
318.697845371639
 30
0
 11
239.9349874154441
 21
318.697845371639
 31
0
  0
LINE
  8
1
 62
3
 10
239.9349874154441
 20
295.697845371639
 30
0
 11
247.8349874154441
 21
295.697845371639
 31
0
  0
LINE
  8
1
 62
3
 10
239.9349874154441
 20
318.697845371639
 30
0
 11
239.9349874154441
 21
295.697845371639
 31
0
  0
LINE
  8
1
 62
3
 10
305.249266552134
 20
302.697845371639
 30
0
 11
286.0781061312143
 21
302.697845371639
 31
0
  0
LINE
  8
1
 62
3
 10
305.249266552134
 20
303.697845371639
 30
0
 11
286.603337036757
 21
303.697845371639
 31
0
  0
LINE
  8
1
 62
3
 10
305.249266552134
 20
304.697845371639
 30
0
 11
286.8317091095253
 21
304.697845371639
 31
0
  0
LINE
  8
1
 62
3
 10
305.249266552134
 20
305.697845371639
 30
0
 11
286.5390075981697
 21
305.697845371639
 31
0
  0
LINE
  8
1
 62
3
 10
305.249266552134
 20
308.697845371639
 30
0
 11
284.8579870234723
 21
308.697845371639
 31
0
  0
LINE
  8
1
 62
3
 10
305.249266552134
 20
309.697845371639
 30
0
 11
285.0187396938703
 21
309.697845371639
 31
0
  0
LINE
  8
1
 62
3
 10
305.249266552134
 20
310.697845371639
 30
0
 11
285.5901948089498
 21
310.697845371639
 31
0
  0
LINE
  8
1
 62
3
 10
305.249266552134
 20
311.697845371639
 30
0
 11
286.3651929800943
 21
311.697845371639
 31
0
  0
LINE
  8
1
 62
3
 10
285.5039324334533
 20
311.697845371639
 30
0
 11
267.8349874154441
 21
311.697845371639
 31
0
  0
LINE
  8
1
 62
3
 10
285.2527314406833
 20
302.697845371639
 30
0
 11
267.8349874154441
 21
302.697845371639
 31
0
  0
LINE
  8
1
 62
3
 10
284.9081061761822
 20
310.697845371639
 30
0
 11
267.8349874154441
 21
310.697845371639
 31
0
  0
LINE
  8
1
 62
3
 10
284.4172763928196
 20
309.697845371639
 30
0
 11
267.8349874154441
 21
309.697845371639
 31
0
  0
LINE
  8
1
 62
3
 10
284.1486134711118
 20
308.697845371639
 30
0
 11
267.8349874154441
 21
308.697845371639
 31
0
  0
LINE
  8
1
 62
3
 10
284.2479274696013
 20
307.697845371639
 30
0
 11
264.1614343590152
 21
307.697845371639
 31
0
  0
LINE
  8
1
 62
3
 10
284.8449648670311
 20
306.6489941782222
 30
0
 11
263.1393141077443
 21
306.5970273449609
 31
0
  0
LINE
  8
1
 62
3
 10
285.5134116996928
 20
305.697845371639
 30
0
 11
267.8349874154441
 21
305.697845371639
 31
0
  0
LINE
  8
1
 62
3
 10
285.8986768506643
 20
304.697845371639
 30
0
 11
267.8349874154441
 21
304.697845371639
 31
0
  0
LINE
  8
1
 62
3
 10
285.7255678680592
 20
303.697845371639
 30
0
 11
267.8349874154441
 21
303.697845371639
 31
0
  0
LINE
  8
1
 62
1
 10
496.1708018924178
 20
159.7155475598471
 30
0
 11
403.5286000575555
 21
159.7155475598471
 31
0
  0
LINE
  8
1
 62
1
 10
449.8494984552357
 20
114.1485750827831
 30
0
 11
449.8494984552357
 21
207.3155475598472
 31
0
  0
LINE
  8
1
 62
1
 10
449.8494984552357
 20
103.5655475598469
 30
0
 11
449.8494984552357
 21
207.2697360633714
 31
0
  0
LINE
  8
1
 62
1
 10
497.4494984552356
 20
159.7155475598472
 30
0
 11
402.2494984552355
 21
159.7155475598471
 31
0
  0
LINE
  8
1
 62
3
 10
492.4494984552356
 20
133.2155475598471
 30
0
 11
492.4494984552356
 21
186.2155475598472
 31
0
  0
LINE
  8
1
 62
3
 10
486.3494984552357
 20
187.7155475598472
 30
0
 11
490.9494984552356
 21
187.7155475598472
 31
0
  0
LINE
  8
1
 62
3
 10
477.8494984552357
 20
200.8155475598472
 30
0
 11
477.8494984552357
 21
196.2155475598473
 31
0
  0
LINE
  8
1
 62
3
 10
476.3494984552357
 20
202.3155475598472
 30
0
 11
423.3494984552357
 21
202.3155475598472
 31
0
  0
LINE
  8
1
 62
3
 10
421.8494984552357
 20
196.2155475598473
 30
0
 11
421.8494984552357
 21
200.8155475598472
 31
0
  0
LINE
  8
1
 62
3
 10
408.7494984552355
 20
187.7155475598472
 30
0
 11
413.3494984552357
 21
187.7155475598472
 31
0
  0
LINE
  8
1
 62
3
 10
407.2494984552355
 20
133.2155475598471
 30
0
 11
407.2494984552355
 21
186.2155475598472
 31
0
  0
LINE
  8
1
 62
3
 10
413.3494984552357
 20
131.7155475598471
 30
0
 11
408.7494984552355
 21
131.7155475598471
 31
0
  0
LINE
  8
1
 62
3
 10
421.8494984552357
 20
116.2155475598476
 30
0
 11
421.8494984552357
 21
123.2155475598471
 31
0
  0
LINE
  8
1
 62
3
 10
477.8494984552357
 20
123.2155475598471
 30
0
 11
477.8494984552357
 21
116.2155475598476
 31
0
  0
LINE
  8
1
 62
3
 10
490.9494984552356
 20
131.7155475598471
 30
0
 11
486.3494984552357
 21
131.7155475598471
 31
0
  0
LINE
  8
1
 62
3
 10
444.1494984552357
 20
200.9058376777865
 30
0
 11
444.1494984552357
 21
200.4183730145989
 31
0
  0
LINE
  8
1
 62
3
 10
455.5494984552356
 20
200.9058376777864
 30
0
 11
455.5494984552356
 21
200.4183730145989
 31
0
  0
LINE
  8
1
 62
3
 10
476.3494984552357
 20
114.7155475598476
 30
0
 11
474.9994984552358
 21
114.7155475598476
 31
0
  0
LINE
  8
1
 62
3
 10
423.3494984552357
 20
114.7155475598476
 30
0
 11
424.6994984552356
 21
114.7155475598476
 31
0
  0
LINE
  8
1
 62
3
 10
469.9994984552358
 20
106.5655475598468
 30
0
 11
429.6994984552356
 21
106.5655475598472
 31
0
  0
LINE
  8
1
 62
3
 10
428.6994984552356
 20
107.5655475598472
 30
0
 11
428.6994984552356
 21
110.7155475598476
 31
0
  0
LINE
  8
1
 62
3
 10
470.9994984552358
 20
107.5655475598468
 30
0
 11
470.9994984552358
 21
110.7155475598476
 31
0
  0
LINE
  8
1
 62
3
 10
444.9494984552359
 20
201.4155494022761
 30
0
 11
444.9494984552359
 21
200.5224097278698
 31
0
  0
LINE
  8
1
 62
3
 10
454.7494984552359
 20
201.4155494022761
 30
0
 11
454.7494984552359
 21
200.5224097278698
 31
0
  0
LINE
  8
1
 62
3
 10
445.4494984552359
 20
201.9155494022761
 30
0
 11
454.2494984552359
 21
201.9155494022761
 31
0
  0
LINE
  8
1
 62
3
 10
436.2494984552358
 20
107.5155475598466
 30
0
 11
436.2494984552358
 21
117.5155475598466
 31
0
  0
LINE
  8
1
 62
3
 10
464.2494984552358
 20
107.5155475598465
 30
0
 11
436.2494984552358
 21
107.5155475598466
 31
0
  0
LINE
  8
1
 62
3
 10
464.2494984552358
 20
117.5155475598465
 30
0
 11
464.2494984552358
 21
107.5155475598465
 31
0
  0
LINE
  8
1
 62
3
 10
436.2494984552358
 20
117.5155475598466
 30
0
 11
464.2494984552358
 21
117.5155475598465
 31
0
  0
LINE
  8
1
 62
3
 10
436.2494984552358
 20
112.1838175089913
 30
0
 11
436.2494984552358
 21
109.2155475598466
 31
0
  0
LINE
  8
1
 62
3
 10
464.2494984552358
 20
109.2155475598466
 30
0
 11
464.2494984552358
 21
112.1838175089913
 31
0
  0
LINE
  8
1
 62
3
 10
466.547342518131
 20
114.7409690217159
 30
0
 11
466.9872908653608
 21
114.3010206744861
 31
0
  0
LINE
  8
1
 62
3
 10
466.547342518131
 20
113.6901532288755
 30
0
 11
466.9872908653608
 21
114.1301015761053
 31
0
  0
LINE
  8
1
 62
3
 10
467.9749048039877
 20
115.1177155147322
 30
0
 11
467.5349564567576
 21
114.6777671675023
 31
0
  0
LINE
  8
1
 62
3
 10
467.359620194507
 20
114.6821843313726
 30
0
 11
466.9240890111473
 21
115.1177155147322
 31
0
  0
LINE
  8
1
 62
3
 10
467.3640373583771
 20
114.6777671675023
 30
0
 11
467.359620194507
 21
114.6821843313726
 31
0
  0
LINE
  8
1
 62
3
 10
468.3516512970039
 20
113.6901532288755
 30
0
 11
467.9117029497738
 21
114.1301015761053
 31
0
  0
LINE
  8
1
 62
3
 10
468.3516512970039
 20
114.7409690217159
 30
0
 11
467.9117029497738
 21
114.3010206744861
 31
0
  0
LINE
  8
1
 62
3
 10
466.9240890111473
 20
113.3134067358592
 30
0
 11
467.3640373583771
 21
113.7533550830893
 31
0
  0
LINE
  8
1
 62
3
 10
467.9749048039877
 20
113.3134067358592
 30
0
 11
467.5349564567578
 21
113.7533550830893
 31
0
  0
LINE
  8
1
 62
3
 10
431.3473456134682
 20
114.7409690217159
 30
0
 11
431.787293960698
 21
114.3010206744861
 31
0
  0
LINE
  8
1
 62
3
 10
431.3473456134682
 20
113.6901532288755
 30
0
 11
431.787293960698
 21
114.1301015761053
 31
0
  0
LINE
  8
1
 62
3
 10
432.7749078993249
 20
115.1177155147322
 30
0
 11
432.3349595520947
 21
114.6777671675023
 31
0
  0
LINE
  8
1
 62
3
 10
432.1596232898442
 20
114.6821843313726
 30
0
 11
431.7240921064845
 21
115.1177155147322
 31
0
  0
LINE
  8
1
 62
3
 10
432.1640404537143
 20
114.6777671675023
 30
0
 11
432.1596232898442
 21
114.6821843313726
 31
0
  0
LINE
  8
1
 62
3
 10
433.151654392341
 20
113.6901532288755
 30
0
 11
432.711706045111
 21
114.1301015761053
 31
0
  0
LINE
  8
1
 62
3
 10
433.151654392341
 20
114.7409690217159
 30
0
 11
432.711706045111
 21
114.3010206744861
 31
0
  0
LINE
  8
1
 62
3
 10
431.7240921064845
 20
113.3134067358592
 30
0
 11
432.1640404537143
 21
113.7533550830893
 31
0
  0
LINE
  8
1
 62
3
 10
432.7749078993249
 20
113.3134067358592
 30
0
 11
432.3349595520949
 21
113.7533550830893
 31
0
  0
LINE
  8
1
 62
3
 10
429.8494984552357
 20
119.2155611252956
 30
0
 11
429.8494984552357
 21
121.5715754522579
 31
0
  0
LINE
  8
1
 62
3
 10
430.3494984552357
 20
113.6155611252957
 30
0
 11
430.3494984552357
 21
110.715547559847
 31
0
  0
LINE
  8
1
 62
3
 10
431.3494984552349
 20
109.7155475598462
 30
0
 11
436.2494984552358
 21
109.7155475598462
 31
0
  0
LINE
  8
1
 62
3
 10
464.2494984552358
 20
109.7155475598462
 30
0
 11
468.3494984552357
 21
109.7155475598462
 31
0
  0
LINE
  8
1
 62
3
 10
469.3494984552357
 20
110.7155475598462
 30
0
 11
469.3494984552357
 21
113.6155611252957
 31
0
  0
LINE
  8
1
 62
3
 10
469.3494984552357
 20
114.8155611252956
 30
0
 11
469.3494984552357
 21
123.5359953238119
 31
0
  0
LINE
  8
1
 62
3
 10
469.8494984552357
 20
121.3004168117656
 30
0
 11
469.8494984552357
 21
119.2155611252955
 31
0
  0
LINE
  8
1
 62
3
 10
469.8494984552357
 20
123.3424806009008
 30
0
 11
469.8494984552357
 21
121.3004168117656
 31
0
  0
LINE
  8
1
 62
3
 10
429.8494984552357
 20
121.5715754522579
 30
0
 11
429.8494984552357
 21
123.3424806009008
 31
0
  0
LINE
  8
1
 62
3
 10
429.8494984552357
 20
123.3424806009008
 30
0
 11
429.8494984552357
 21
123.8099769614013
 31
0
  0
LINE
  8
1
 62
3
 10
469.8494984552357
 20
123.3424806009008
 30
0
 11
469.8494984552357
 21
123.8099769614013
 31
0
  0
LINE
  8
1
 62
3
 10
430.3494984552357
 20
123.5359953238119
 30
0
 11
430.3494984552357
 21
114.8155611252956
 31
0
  0
LINE
  8
1
 62
3
 10
436.5362839759414
 20
176.678075843554
 30
0
 11
462.5362839759414
 21
176.678075843554
 31
0
  0
LINE
  8
1
 62
3
 10
435.5362839759414
 20
187.678075843554
 30
0
 11
435.5362839759414
 21
177.678075843554
 31
0
  0
LINE
  8
1
 62
3
 10
462.5362839759414
 20
188.678075843554
 30
0
 11
436.5362839759414
 21
188.678075843554
 31
0
  0
LINE
  8
1
 62
3
 10
463.5362839759414
 20
177.678075843554
 30
0
 11
463.5362839759414
 21
187.678075843554
 31
0
  0
LINE
  8
1
 62
1
 10
407.1194984552359
 20
122.9655475598471
 30
0
 11
419.0794984552355
 21
122.9655475598471
 31
0
  0
LINE
  8
1
 62
1
 10
413.0994984552357
 20
116.9855475598473
 30
0
 11
413.0994984552357
 21
128.9455475598469
 31
0
  0
LINE
  8
1
 62
1
 10
407.1194984552359
 20
196.4655475598473
 30
0
 11
419.0794984552355
 21
196.4655475598473
 31
0
  0
LINE
  8
1
 62
1
 10
413.0994984552357
 20
190.4855475598472
 30
0
 11
413.0994984552357
 21
202.4455475598471
 31
0
  0
LINE
  8
1
 62
1
 10
480.6194984552359
 20
196.4655475598471
 30
0
 11
492.5794984552355
 21
196.4655475598471
 31
0
  0
LINE
  8
1
 62
1
 10
486.5994984552357
 20
190.4855475598472
 30
0
 11
486.5994984552357
 21
202.4455475598469
 31
0
  0
LINE
  8
1
 62
1
 10
480.6194984552359
 20
122.9655475598471
 30
0
 11
492.5794984552355
 21
122.965547559847
 31
0
  0
LINE
  8
1
 62
1
 10
486.5994984552357
 20
116.9855475598472
 30
0
 11
486.5994984552357
 21
128.9455475598469
 31
0
  0
LINE
  8
1
 62
1
 10
248.635438225822
 20
9.914814455765452
 30
0
 11
271.564504297969
 21
9.914814455765651
 31
0
  0
LINE
  8
1
 62
1
 10
248.635438225822
 20
9.914814455765452
 30
0
 11
271.564504297969
 21
9.914814455765651
 31
0
  0
ARC
  8
1
 62
3
 10
280.3758267837225
 20
114.5578908589525
 30
0
 40
2.982960852904825
 50
316.6003132160602
 51
322.8842440221372
  0
ARC
  8
1
 62
3
 10
280.3008267837226
 20
115.2824988191528
 30
0
 40
3.567081604788588
 50
297.1300878509888
 51
308.9487157491403
  0
ARC
  8
1
 62
3
 10
278.178742217186
 20
114.2078908589527
 30
0
 40
4.799999999999818
 50
4.331148730789072
 51
17.58277600842122
  0
ARC
  8
1
 62
3
 10
280.3008267837221
 20
113.3870870232662
 30
0
 40
3.343206622513371
 50
42.78344578283903
 51
60.88600448707
  0
ARC
  8
1
 62
3
 10
278.178742217186
 20
114.2078908589527
 30
0
 40
4.799999999999915
 50
342.4172239915744
 51
355.6688512692064
  0
ARC
  8
1
 62
3
 10
287.0645042979689
 20
118.6155475598474
 30
0
 40
1
 50
90
 51
180
  0
ARC
  8
1
 62
3
 10
287.0645042979689
 20
200.8155475598471
 30
0
 40
1
 50
180
 51
270
  0
ARC
  8
1
 62
3
 10
126.881250879585
 20
159.7155475598477
 30
0
 40
5.418833348290442
 50
310.2328491927941
 51
229.767150807206
  0
ARC
  8
1
 62
3
 10
126.881250879585
 20
159.7155475598477
 30
0
 40
5.418833348290382
 50
310.2175277521203
 51
310.2328491927941
  0
ARC
  8
1
 62
3
 10
287.0645042979688
 20
51.01481445576528
 30
0
 40
1
 50
180
 51
270
  0
ARC
  8
1
 62
3
 10
287.0645042979688
 20
-31.18518554423437
 30
0
 40
1
 50
90
 51
180
  0
ARC
  8
1
 62
3
 10
278.178742217186
 20
-7.685185544234541
 30
0
 40
4.799999999999915
 50
342.4172239915744
 51
355.6688512692062
  0
ARC
  8
1
 62
3
 10
280.3008267837221
 20
-8.505989379921031
 30
0
 40
3.343206622513361
 50
42.78344578283885
 51
60.88600448706988
  0
ARC
  8
1
 62
3
 10
278.178742217186
 20
-7.685185544234541
 30
0
 40
4.799999999999818
 50
4.331148730789072
 51
17.58277600842106
  0
ARC
  8
1
 62
3
 10
280.3008267837225
 20
-6.610577584034415
 30
0
 40
3.567081604788639
 50
297.1300878509894
 51
308.9487157491395
  0
ARC
  8
1
 62
3
 10
280.3758267837225
 20
-7.335185544234745
 30
0
 40
2.982960852904733
 50
316.600313216059
 51
322.8842440221374
  0
ARC
  8
1
 62
3
 10
278.178742217186
 20
27.5148144557655
 30
0
 40
4.799999999999848
 50
4.331148730793808
 51
17.58277600842628
  0
ARC
  8
1
 62
3
 10
280.3008267837221
 20
28.33561829145205
 30
0
 40
3.343206622513417
 50
299.1139955129297
 51
317.2165542171604
  0
ARC
  8
1
 62
3
 10
278.178742217186
 20
27.5148144557655
 30
0
 40
4.799999999999795
 50
342.417223991579
 51
355.6688512692116
  0
ARC
  8
1
 62
3
 10
280.3008267837225
 20
26.44020649556543
 30
0
 40
3.567081604788448
 50
51.05128425086001
 51
62.86991214901015
  0
ARC
  8
1
 62
3
 10
280.3758267837225
 20
27.16481445576571
 30
0
 40
2.982960852904993
 50
37.11575597786343
 51
43.39968678394103
  0
ARC
  8
1
 62
3
 10
449.8494984552357
 20
152.2155475598471
 30
0
 40
1.5
 50
270
 51
338.9824019270591
  0
ARC
  8
1
 62
3
 10
456.3446889836189
 20
163.4655475598471
 30
0
 40
1.5
 50
0
 51
98.98240192705443
  0
ARC
  8
1
 62
3
 10
443.3543079268525
 20
163.4655475598471
 30
0
 40
1.5
 50
180
 51
218.9824019270514
  0
ARC
  8
1
 62
3
 10
456.3446889836189
 20
163.4655475598471
 30
0
 40
1.499999999999899
 50
321.0175980729417
 51
0
  0
ARC
  8
1
 62
3
 10
449.8494984552357
 20
152.2155475598471
 30
0
 40
1.500000000000014
 50
201.0175980729424
 51
270
  0
ARC
  8
1
 62
3
 10
443.3543079268525
 20
163.4655475598471
 30
0
 40
1.500000000000033
 50
81.01759807295844
 51
180
  0
ARC
  8
1
 62
3
 10
449.8494984552357
 20
159.7155475598471
 30
0
 40
42.50000000000001
 50
98.96756428647397
 51
180
  0
ARC
  8
1
 62
3
 10
449.8494984552357
 20
159.7155475598471
 30
0
 40
42.50000000000019
 50
298.9932044200964
 51
81.03243571352603
  0
ARC
  8
1
 62
3
 10
467.4494969075672
 20
114.2155611252957
 30
0
 40
0.4571999999999248
 50
172.5415509436635
 51
187.4584490562977
  0
ARC
  8
1
 62
3
 10
467.4494969075672
 20
114.2155611252957
 30
0
 40
1.043999999999965
 50
120.2161982852335
 51
149.783801714743
  0
ARC
  8
1
 62
3
 10
467.4494969075672
 20
114.2155611252957
 30
0
 40
0.4572000000000467
 50
82.5415509436565
 51
97.45844905625873
  0
ARC
  8
1
 62
3
 10
467.4494969075672
 20
114.2155611252957
 30
0
 40
1.044000000000295
 50
30.21619828524287
 51
59.7838017147368
  0
ARC
  8
1
 62
3
 10
467.4494969075672
 20
114.2155611252957
 30
0
 40
0.4572000000002788
 50
352.5415509437088
 51
7.458449056330047
  0
ARC
  8
1
 62
3
 10
467.4494969075672
 20
114.2155611252957
 30
0
 40
1.044000000000268
 50
300.2161982852635
 51
329.7838017147578
  0
ARC
  8
1
 62
3
 10
467.4494969075672
 20
114.2155611252957
 30
0
 40
0.4571999999997469
 50
262.5415509437378
 51
277.458449056347
  0
ARC
  8
1
 62
3
 10
467.4494969075672
 20
114.2155611252957
 30
0
 40
1.043999999999845
 50
210.2161982852563
 51
239.7838017147661
  0
ARC
  8
1
 62
3
 10
432.2495000029045
 20
114.2155611252957
 30
0
 40
0.4571999999999248
 50
172.5415509436635
 51
187.4584490562977
  0
ARC
  8
1
 62
3
 10
432.2495000029045
 20
114.2155611252957
 30
0
 40
1.044000000000023
 50
120.2161982852389
 51
149.7838017147462
  0
ARC
  8
1
 62
3
 10
432.2495000029045
 20
114.2155611252957
 30
0
 40
0.4572000000000246
 50
82.54155094367769
 51
97.45844905627287
  0
ARC
  8
1
 62
3
 10
432.2495000029045
 20
114.2155611252957
 30
0
 40
1.044000000000147
 50
30.21619828524758
 51
59.7838017147422
  0
ARC
  8
1
 62
3
 10
432.2495000029045
 20
114.2155611252957
 30
0
 40
0.4572000000002224
 50
352.5415509437079
 51
7.458449056330972
  0
ARC
  8
1
 62
3
 10
432.2495000029045
 20
114.2155611252957
 30
0
 40
1.044000000000211
 50
300.2161982852582
 51
329.7838017147531
  0
ARC
  8
1
 62
3
 10
432.2495000029045
 20
114.2155611252957
 30
0
 40
0.4571999999997616
 50
262.5415509437237
 51
277.4584490563258
  0
ARC
  8
1
 62
3
 10
432.2495000029045
 20
114.2155611252957
 30
0
 40
1.043999999999944
 50
210.2161982852532
 51
239.7838017147607
  0
ARC
  8
1
 62
3
 10
449.8494984552357
 20
159.7155475598471
 30
0
 40
42.5
 50
180
 51
241.9275130641471
  0
ARC
  8
1
 62
3
 10
449.8494984552357
 20
159.7155475598471
 30
0
 40
42.50000000000009
 50
298.0724869358529
 51
298.9932044200964
  0
CIRCLE
  8
1
 62
1
  6
DASHDOT
 10
126.881250879585
 20
159.7155475598477
 30
0
 40
4.19999999999942
  0
CIRCLE
  8
1
 62
3
 10
126.881250879585
 20
159.7155475598477
 30
0
 40
4.7999999999995
  0
CIRCLE
  8
1
 62
3
 10
90.13125087958508
 20
196.4655475598477
 30
0
 40
3.249999999999943
  0
CIRCLE
  8
1
 62
3
 10
90.13125087958508
 20
122.9655475598477
 30
0
 40
3.249999999999943
  0
CIRCLE
  8
1
 62
3
 10
163.631250879585
 20
196.4655475598477
 30
0
 40
3.249999999999915
  0
CIRCLE
  8
1
 62
3
 10
163.631250879585
 20
122.9655475598477
 30
0
 40
3.249999999999915
  0
CIRCLE
  8
1
 62
3
 10
126.881250879585
 20
159.7155475598477
 30
0
 40
13
  0
CIRCLE
  8
1
 62
3
 10
126.881250879585
 20
159.7155475598477
 30
0
 40
37
  0
CIRCLE
  8
1
 62
3
 10
126.881250879585
 20
159.7155475598477
 30
0
 40
41.5
  0
CIRCLE
  8
1
 62
3
 10
284.0655991037701
 20
22.41481445576548
 30
0
 40
0.3499999999998487
  0
CIRCLE
  8
1
 62
3
 10
284.0655991037701
 20
-2.585185544234518
 30
0
 40
0.3499999999997949
  0
CIRCLE
  8
1
 62
3
 10
284.0655991037701
 20
9.914814455765482
 30
0
 40
0.3499999999997385
  0
CIRCLE
  8
1
 62
3
 10
284.0655991037701
 20
7.414814455765482
 30
0
 40
0.3499999999997376
  0
CIRCLE
  8
1
 62
3
 10
284.0655991037701
 20
4.914814455765482
 30
0
 40
0.3499999999997376
  0
CIRCLE
  8
1
 62
3
 10
284.0655991037701
 20
2.414814455765482
 30
0
 40
0.3499999999997381
  0
CIRCLE
  8
1
 62
3
 10
284.0655991037701
 20
-0.08518554423451796
 30
0
 40
0.3499999999997954
  0
CIRCLE
  8
1
 62
3
 10
284.0655991037701
 20
12.41481445576548
 30
0
 40
0.3499999999997403
  0
CIRCLE
  8
1
 62
3
 10
284.0655991037701
 20
14.91481445576548
 30
0
 40
0.3499999999997403
  0
CIRCLE
  8
1
 62
3
 10
284.0655991037701
 20
17.41481445576548
 30
0
 40
0.3499999999997385
  0
CIRCLE
  8
1
 62
3
 10
284.0655991037701
 20
19.91481445576548
 30
0
 40
0.3499999999998487
  0
CIRCLE
  8
1
 62
3
 10
449.8494984552357
 20
159.7155475598471
 30
0
 40
6.400000000000091
  0
CIRCLE
  8
1
 62
3
 10
449.8494984552357
 20
159.7155475598471
 30
0
 40
8.159027529218577
  0
CIRCLE
  8
1
 62
3
 10
449.8494984552357
 20
159.7155475598471
 30
0
 40
4
  0
CIRCLE
  8
1
 62
3
 10
449.8494984552357
 20
159.7155475598471
 30
0
 40
41.0999999999999
  0
CIRCLE
  8
1
 62
3
 10
413.0994984552357
 20
122.9655475598471
 30
0
 40
3.24999999999983
  0
CIRCLE
  8
1
 62
3
 10
413.0994984552357
 20
122.9655475598471
 30
0
 40
4.599999999999795
  0
CIRCLE
  8
1
 62
3
 10
413.0994984552357
 20
196.4655475598473
 30
0
 40
3.24999999999983
  0
CIRCLE
  8
1
 62
3
 10
413.0994984552357
 20
196.4655475598473
 30
0
 40
4.599999999999795
  0
CIRCLE
  8
1
 62
3
 10
486.5994984552357
 20
196.4655475598473
 30
0
 40
3.25
  0
CIRCLE
  8
1
 62
3
 10
486.5994984552357
 20
196.4655475598473
 30
0
 40
4.599999999999795
  0
CIRCLE
  8
1
 62
3
 10
486.5994984552357
 20
122.9655475598471
 30
0
 40
3.25
  0
CIRCLE
  8
1
 62
3
 10
486.5994984552357
 20
122.9655475598471
 30
0
 40
4.599999999999795
  0
CIRCLE
  8
1
 62
3
 10
467.4494969075672
 20
114.2155611252957
 30
0
 40
2.015999999999622
  0
CIRCLE
  8
1
 62
3
 10
432.2495000029045
 20
114.2155611252957
 30
0
 40
2.015999999999679
  0
POLYLINE
  8
1
 62
3
 66
1
  0
VERTEX
  8
1
 10
309.9449398598338
 20
306.5970273449609
 30
0
 42
-0.001154420490667571
  0
VERTEX
  8
1
 10
310.6765315106896
 20
306.5184123203169
 30
0
 42
-0.003468734099826926
  0
VERTEX
  8
1
 10
311.4067885786444
 20
306.4331061732935
 30
0
 42
-0.00579654717656703
  0
VERTEX
  8
1
 10
312.1343764807971
 20
306.3344177815115
 30
0
 42
-0.00813697755884109
  0
VERTEX
  8
1
 10
312.8579606342466
 20
306.2156560225915
 30
0
 42
-0.01756846700860707
  0
VERTEX
  8
1
 10
314.054113821723
 20
305.955634247898
 30
0
 42
-0.003142605946858394
  0
VERTEX
  8
1
 10
314.5302248745305
 20
305.8320795651748
 30
0
 42
-5.559773182750451e-005
  0
VERTEX
  8
1
 10
315.00573961355
 20
305.7054290078513
 30
0
 42
0.00303068383937969
  0
VERTEX
  8
1
 10
315.4818580378164
 20
305.5816458577941
 30
0
 42
0.006125008534524241
  0
VERTEX
  8
1
 10
315.9597801463652
 20
305.4666933968701
 30
0
 42
0.009595418813198668
  0
VERTEX
  8
1
 10
316.6080982629654
 20
305.332163929085
 30
0
 42
0.003443420274710499
  0
VERTEX
  8
1
 10
317.259992908658
 20
305.2145323280192
 30
0
 42
0.00192127706172251
  0
VERTEX
  8
1
 10
317.9135841397839
 20
305.1038218231175
 30
0
 42
-0.003059807641713382
  0
VERTEX
  8
1
 10
318.5669920126842
 20
304.9900556438247
 30
0
 42
-0.006880434131738965
  0
VERTEX
  8
1
 10
319.2183365837
 20
304.8632570195853
 30
0
 42
-0.005683946695209987
  0
VERTEX
  8
1
 10
319.8038603633185
 20
304.7322203712515
 30
0
 42
-0.001199148558269262
  0
VERTEX
  8
1
 10
320.38772771307
 20
304.5930914342908
 30
0
 42
0.003285732452908147
  0
VERTEX
  8
1
 10
320.9714998159953
 20
304.4565529996305
 30
0
 42
0.007799462787456606
  0
VERTEX
  8
1
 10
321.5567378551345
 20
304.3332878581971
 30
0
 42
0.01237618344529957
  0
VERTEX
  8
1
 10
322.145003013528
 20
304.2339788009178
 30
0
 42
0.01495152526733482
  0
VERTEX
  8
1
 10
322.7599255639199
 20
304.1644518347978
 30
0
 42
0.009328849676476883
  0
VERTEX
  8
1
 10
323.3788015525313
 20
304.1247709084186
 30
0
 42
0.008782865383075688
  0
VERTEX
  8
1
 10
324.0006426198073
 20
304.1074745118452
 30
0
 42
0.003218905574624149
  0
VERTEX
  8
1
 10
324.6244604061932
 20
304.1051011351423
 30
0
 42
0.00275508248304122
  0
VERTEX
  8
1
 10
325.249266552134
 20
304.1101892683746
 30
0
  0
SEQEND
  8
1
  0
POLYLINE
  8
1
 62
3
 66
1
  0
VERTEX
  8
1
 10
308.9228196085631
 20
307.697845371639
 30
0
 42
-7.052380771289834e-005
  0
VERTEX
  8
1
 10
309.2133199710247
 20
307.6744700933927
 30
0
 42
-0.0002115044989131763
  0
VERTEX
  8
1
 10
309.5038530557034
 20
307.6509272234127
 30
0
 42
-0.0003522839052945569
  0
VERTEX
  8
1
 10
309.794451584816
 20
307.6270491699654
 30
0
 42
-0.0004927261345939187
  0
VERTEX
  8
1
 10
310.0851482805797
 20
307.602668341317
 30
0
 42
-0.0006326927683516064
  0
VERTEX
  8
1
 10
310.3759758652115
 20
307.5776171457339
 30
0
 42
-0.002829224898400816
  0
VERTEX
  8
1
 10
311.0455857746878
 20
307.515779049417
 30
0
 42
-0.005262177555072429
  0
VERTEX
  8
1
 10
311.7142723637089
 20
307.4430991762881
 30
0
 42
-0.007717915863716955
  0
VERTEX
  8
1
 10
312.3802457846257
 20
307.3531737982979
 30
0
 42
-0.01019790816415971
  0
VERTEX
  8
1
 10
313.0417161897889
 20
307.2395991873974
 30
0
 42
-0.02165487244667221
  0
VERTEX
  8
1
 10
314.162595946199
 20
306.9726237591594
 30
0
 42
-0.003174607387681339
  0
VERTEX
  8
1
 10
314.6259529153998
 20
306.8390453273026
 30
0
 42
0.001341736710852363
  0
VERTEX
  8
1
 10
315.0887817825301
 20
306.7037800040199
 30
0
 42
0.005867617843792928
  0
VERTEX
  8
1
 10
315.5528996909685
 20
306.5753714733644
 30
0
 42
0.01043616403249412
  0
VERTEX
  8
1
 10
316.0201237840932
 20
306.4623634193893
 30
0
 42
0.01572676402654256
  0
VERTEX
  8
1
 10
316.6612619347126
 20
306.3423868902289
 30
0
 42
0.004938296709306136
  0
VERTEX
  8
1
 10
317.3080708872998
 20
306.2488194016952
 30
0
 42
0.001884020283001506
  0
VERTEX
  8
1
 10
317.9571492264244
 20
306.1639480856726
 30
0
 42
-0.006909369922498318
  0
VERTEX
  8
1
 10
318.6050955366559
 20
306.0700600740452
 30
0
 42
-0.01379629701655866
  0
VERTEX
  8
1
 10
319.2485084025641
 20
305.9494424986973
 30
0
 42
-0.01224550147367206
  0
VERTEX
  8
1
 10
319.8484456069788
 20
305.8011433317009
 30
0
 42
-0.004376625229209154
  0
VERTEX
  8
1
 10
320.4442274565726
 20
305.6326967589536
 30
0
 42
0.003443735131351231
  0
VERTEX
  8
1
 10
321.0387417107145
 20
305.463403220292
 30
0
 42
0.0113507569301868
  0
VERTEX
  8
1
 10
321.6348761287743
 20
305.3125631555528
 30
0
 42
0.01951810480768677
  0
VERTEX
  8
1
 10
322.2355184701211
 20
305.1994770045726
 30
0
 42
0.02289053426940712
  0
VERTEX
  8
1
 10
322.8297687940438
 20
305.1390771675898
 30
0
 42
0.01385585263756467
  0
VERTEX
  8
1
 10
323.4296853129531
 20
305.1223894674466
 30
0
 42
0.01336861782332533
  0
VERTEX
  8
1
 10
324.0338514781024
 20
305.1384858699332
 30
0
 42
0.00453591509414351
  0
VERTEX
  8
1
 10
324.6408507407448
 20
305.1764383408398
 30
0
 42
0.00432663283545787
  0
VERTEX
  8
1
 10
325.249266552134
 20
305.2253188459562
 30
0
  0
SEQEND
  8
1
  0
POLYLINE
  8
1
 62
3
 66
1
  0
VERTEX
  8
1
 10
325.249266552134
 20
294.197845371639
 30
0
 42
-0.001607743817705167
  0
VERTEX
  8
1
 10
324.3411376331987
 20
294.2015107844869
 30
0
 42
-0.004839459238664952
  0
VERTEX
  8
1
 10
323.4346548208857
 20
294.2168500522384
 30
0
 42
-0.008112118624508842
  0
VERTEX
  8
1
 10
322.5314642218172
 20
294.2555370297974
 30
0
 42
-0.0114263094860536
  0
VERTEX
  8
1
 10
321.6332119426152
 20
294.3292455720675
 30
0
 42
-0.01474034783448484
  0
VERTEX
  8
1
 10
320.7415440899022
 20
294.4496495339522
 30
0
 42
-0.01091907975226619
  0
VERTEX
  8
1
 10
320.1274090242983
 20
294.5658034746159
 30
0
 42
-0.01003733773350726
  0
VERTEX
  8
1
 10
319.517549606618
 20
294.7078499674232
 30
0
 42
-0.009167219348235811
  0
VERTEX
  8
1
 10
318.9122771420742
 20
294.8735672486121
 30
0
 42
-0.008316733795487166
  0
VERTEX
  8
1
 10
318.3119029358799
 20
295.0607335544202
 30
0
 42
-0.02049271564585933
  0
VERTEX
  8
1
 10
316.698153739235
 20
295.6678067667341
 30
0
 42
-0.01613454575083258
  0
VERTEX
  8
1
 10
315.7058105085054
 20
296.127847514334
 30
0
 42
-0.01882779289657449
  0
VERTEX
  8
1
 10
314.7493116909581
 20
296.6553610264832
 30
0
 42
-0.02154182287541528
  0
VERTEX
  8
1
 10
313.838260376492
 20
297.2584589657801
 30
0
 42
-0.02412403713672651
  0
VERTEX
  8
1
 10
312.9822596550061
 20
297.945252994823
 30
0
 42
-0.01837071847599456
  0
VERTEX
  8
1
 10
312.1646746296921
 20
298.7332056534391
 30
0
 42
-0.003824838419130545
  0
VERTEX
  8
1
 10
311.3793866324308
 20
299.5599918562585
 30
0
 42
0.01068385427301826
  0
VERTEX
  8
1
 10
310.5908161552389
 20
300.3680609674515
 30
0
 42
0.02605597401748799
  0
VERTEX
  8
1
 10
309.7633836901329
 20
301.0998623511883
 30
0
 42
0.04330280254899237
  0
VERTEX
  8
1
 10
308.8615097291292
 20
301.697845371639
 30
0
 42
0.03453843384896186
  0
VERTEX
  8
1
 10
308.1987706477871
 20
302.001703336886
 30
0
 42
0.01926728948037366
  0
VERTEX
  8
1
 10
307.4962251970736
 20
302.2363226586349
 30
0
 42
0.01966704674568848
  0
VERTEX
  8
1
 10
306.7638249693317
 20
302.4190129977604
 30
0
 42
0.005391877217071826
  0
VERTEX
  8
1
 10
306.0115215569043
 20
302.567084015137
 30
0
 42
0.006832092944245157
  0
VERTEX
  8
1
 10
305.249266552134
 20
302.697845371639
 30
0
  0
SEQEND
  8
1
  0
POLYLINE
  8
1
 62
3
 66
1
  0
VERTEX
  8
1
 10
325.249266552134
 20
295.197845371639
 30
0
 42
-0.001607743817767728
  0
VERTEX
  8
1
 10
324.3411376331987
 20
295.2015107844869
 30
0
 42
-0.004839459238602334
  0
VERTEX
  8
1
 10
323.4346548208857
 20
295.2168500522384
 30
0
 42
-0.008112118624445887
  0
VERTEX
  8
1
 10
322.5314642218172
 20
295.2555370297974
 30
0
 42
-0.01142630948605388
  0
VERTEX
  8
1
 10
321.6332119426152
 20
295.3292455720674
 30
0
 42
-0.01474034783442187
  0
VERTEX
  8
1
 10
320.7415440899022
 20
295.4496495339522
 30
0
 42
-0.01091907975241114
  0
VERTEX
  8
1
 10
320.1274090242983
 20
295.5658034746159
 30
0
 42
-0.01003733773333039
  0
VERTEX
  8
1
 10
319.517549606618
 20
295.7078499674232
 30
0
 42
-0.009167219348235811
  0
VERTEX
  8
1
 10
318.9122771420742
 20
295.8735672486121
 30
0
 42
-0.008316733795487166
  0
VERTEX
  8
1
 10
318.3119029358799
 20
296.0607335544202
 30
0
 42
-0.02049271564585933
  0
VERTEX
  8
1
 10
316.698153739235
 20
296.6678067667341
 30
0
 42
-0.01613454575074279
  0
VERTEX
  8
1
 10
315.7058105085054
 20
297.1278475143339
 30
0
 42
-0.01882779289652845
  0
VERTEX
  8
1
 10
314.7493116909581
 20
297.6553610264831
 30
0
 42
-0.02154182287541528
  0
VERTEX
  8
1
 10
313.838260376492
 20
298.2584589657799
 30
0
 42
-0.02412403713679122
  0
VERTEX
  8
1
 10
312.9822596550061
 20
298.9452529948229
 30
0
 42
-0.01837071847592246
  0
VERTEX
  8
1
 10
312.164674629692
 20
299.733205653439
 30
0
 42
-0.003824838419057241
  0
VERTEX
  8
1
 10
311.3793866324307
 20
300.5599918562584
 30
0
 42
0.01068385427301981
  0
VERTEX
  8
1
 10
310.5908161552388
 20
301.3680609674514
 30
0
 42
0.02605597401746877
  0
VERTEX
  8
1
 10
309.7633836901329
 20
302.0998623511882
 30
0
 42
0.04330280254900661
  0
VERTEX
  8
1
 10
308.8615097291292
 20
302.697845371639
 30
0
 42
0.03453843384898721
  0
VERTEX
  8
1
 10
308.198770647787
 20
303.001703336886
 30
0
 42
0.01926728948032013
  0
VERTEX
  8
1
 10
307.4962251970736
 20
303.2363226586349
 30
0
 42
0.01966704674575223
  0
VERTEX
  8
1
 10
306.7638249693317
 20
303.4190129977604
 30
0
 42
0.005391877217008764
  0
VERTEX
  8
1
 10
306.0115215569043
 20
303.567084015137
 30
0
 42
0.006832092944308442
  0
VERTEX
  8
1
 10
305.249266552134
 20
303.697845371639
 30
0
  0
SEQEND
  8
1
  0
POLYLINE
  8
1
 62
3
 66
1
  0
VERTEX
  8
1
 10
325.249266552134
 20
296.697845371639
 30
0
 42
-0.001902789264414824
  0
VERTEX
  8
1
 10
324.5072007164563
 20
296.652051011274
 30
0
 42
-0.005745277525820265
  0
VERTEX
  8
1
 10
323.766911093497
 20
296.6177052410002
 30
0
 42
-0.009686512557303599
  0
VERTEX
  8
1
 10
323.0301738959741
 20
296.606256650909
 30
0
 42
-0.01374928444284424
  0
VERTEX
  8
1
 10
322.2987653366061
 20
296.6291538310915
 30
0
 42
-0.0178829513067107
  0
VERTEX
  8
1
 10
321.5744616281111
 20
296.697845371639
 30
0
 42
-0.01866086244708398
  0
VERTEX
  8
1
 10
320.8145051078429
 20
296.828852153608
 30
0
 42
-0.01353317069728961
  0
VERTEX
  8
1
 10
320.0610378459364
 20
297.009351004236
 30
0
 42
-0.008418840653988905
  0
VERTEX
  8
1
 10
319.3105440637114
 20
297.2243464638796
 30
0
 42
-0.003422876774839228
  0
VERTEX
  8
1
 10
318.5595079824877
 20
297.4588430728952
 30
0
 42
0.001454396476720499
  0
VERTEX
  8
1
 10
317.8044138235851
 20
297.697845371639
 30
0
 42
0.002341100075215166
  0
VERTEX
  8
1
 10
316.9610356605789
 20
297.9577646002283
 30
0
 42
-0.008094591874728985
  0
VERTEX
  8
1
 10
316.1243778530762
 20
298.2301529684563
 30
0
 42
-0.01670365432664135
  0
VERTEX
  8
1
 10
315.3104854640394
 20
298.5403943097634
 30
0
 42
-0.02578314228292381
  0
VERTEX
  8
1
 10
314.5354035564315
 20
298.91387245759
 30
0
 42
-0.07276438933758299
  0
VERTEX
  8
1
 10
313.1008730956368
 20
299.9963053962647
 30
0
 42
-0.01438878185770546
  0
VERTEX
  8
1
 10
312.4364639059864
 20
300.6927209503922
 30
0
 42
0.002813176268205383
  0
VERTEX
  8
1
 10
311.7872721968077
 20
301.4053114130172
 30
0
 42
0.02037324986595838
  0
VERTEX
  8
1
 10
311.1186205406446
 20
302.0741702893982
 30
0
 42
0.0405942082333756
  0
VERTEX
  8
1
 10
310.3958315100411
 20
302.6393910847933
 30
0
 42
0.0571042591662131
  0
VERTEX
  8
1
 10
309.4982149998617
 20
303.0935893251188
 30
0
 42
0.03290429397073981
  0
VERTEX
  8
1
 10
308.5128008354143
 20
303.3861159768068
 30
0
 42
0.03065123788461985
  0
VERTEX
  8
1
 10
307.4615384302659
 20
303.5573889370165
 30
0
 42
0.008913767507379385
  0
VERTEX
  8
1
 10
306.3663771979835
 20
303.6478261029075
 30
0
 42
0.00990990761987918
  0
VERTEX
  8
1
 10
305.249266552134
 20
303.697845371639
 30
0
  0
SEQEND
  8
1
  0
POLYLINE
  8
1
 62
3
 66
1
  0
VERTEX
  8
1
 10
325.249266552134
 20
297.697845371639
 30
0
 42
-0.001829921716636166
  0
VERTEX
  8
1
 10
324.5080515058068
 20
297.6539186065258
 30
0
 42
-0.005521412245361695
  0
VERTEX
  8
1
 10
323.7683999748602
 20
297.6209735326909
 30
0
 42
-0.009297014988717782
  0
VERTEX
  8
1
 10
323.031875474675
 20
297.6099918414126
 30
0
 42
-0.01317426561341544
  0
VERTEX
  8
1
 10
322.3000415206318
 20
297.6319552239692
 30
0
 42
-0.01710602726110301
  0
VERTEX
  8
1
 10
321.5744616281111
 20
297.697845371639
 30
0
 42
-0.01816776250885657
  0
VERTEX
  8
1
 10
320.8122198294965
 20
297.8238356651121
 30
0
 42
-0.01395037294206467
  0
VERTEX
  8
1
 10
320.0564395688842
 20
297.9992571773859
 30
0
 42
-0.009739958315150352
  0
VERTEX
  8
1
 10
319.3047754271267
 20
298.2116835429232
 30
0
 42
-0.005623898474776706
  0
VERTEX
  8
1
 10
318.5548819850762
 20
298.4486883961867
 30
0
 42
-0.001607917713813137
  0
VERTEX
  8
1
 10
317.8044138235851
 20
298.697845371639
 30
0
 42
-0.003035046829847924
  0
VERTEX
  8
1
 10
316.9571347483184
 20
298.9844751707543
 30
0
 42
-0.01003263971666795
  0
VERTEX
  8
1
 10
316.1203555948642
 20
299.2920856128737
 30
0
 42
-0.01731546574565125
  0
VERTEX
  8
1
 10
315.3082923160065
 20
299.6420063301829
 30
0
 42
-0.02487359489817057
  0
VERTEX
  8
1
 10
314.5351608645289
 20
300.0555669548679
 30
0
 42
-0.03223808317323709
  0
VERTEX
  8
1
 10
313.8151771932151
 20
300.5540971191144
 30
0
 42
-0.02888700042255288
  0
VERTEX
  8
1
 10
313.1092218870539
 20
301.1939695776258
 30
0
 42
-0.01142416437686266
  0
VERTEX
  8
1
 10
312.4475954708037
 20
301.8980054474098
 30
0
 42
0.00515981816631535
  0
VERTEX
  8
1
 10
311.7970121393166
 20
302.6078930713429
 30
0
 42
0.02241317470667663
  0
VERTEX
  8
1
 10
311.124186087445
 20
303.265320792302
 30
0
 42
0.04260597243951215
  0
VERTEX
  8
1
 10
310.3958315100411
 20
303.8119769531636
 30
0
 42
0.05849288245864217
  0
VERTEX
  8
1
 10
309.4968242794977
 20
304.2372245358564
 30
0
 42
0.03363910028916839
  0
VERTEX
  8
1
 10
308.5109465415955
 20
304.4970895192174
 30
0
 42
0.03098575730253727
  0
VERTEX
  8
1
 10
307.4599159231744
 20
304.6329175530796
 30
0
 42
0.009028684574865224
  0
VERTEX
  8
1
 10
306.3654500510741
 20
304.6860542872758
 30
0
 42
0.009946353456323435
  0
VERTEX
  8
1
 10
305.249266552134
 20
304.697845371639
 30
0
  0
SEQEND
  8
1
  0
POLYLINE
  8
1
 62
3
 66
1
  0
VERTEX
  8
1
 10
325.249266552134
 20
299.197845371639
 30
0
 42
-0.001399310508228433
  0
VERTEX
  8
1
 10
324.6170870624287
 20
299.177696484593
 30
0
 42
-0.004208486187090918
  0
VERTEX
  8
1
 10
323.9855148580499
 20
299.1646510649933
 30
0
 42
-0.007044180568835053
  0
VERTEX
  8
1
 10
323.3551572243242
 20
299.1658125802866
 30
0
 42
-0.009906475772703521
  0
VERTEX
  8
1
 10
322.7266214465781
 20
299.1882844979191
 30
0
 42
-0.01276798874529373
  0
VERTEX
  8
1
 10
322.1005148101381
 20
299.2391702853373
 30
0
 42
-0.01604707638837508
  0
VERTEX
  8
1
 10
321.3500285814926
 20
299.3452158834669
 30
0
 42
-0.01397860901112241
  0
VERTEX
  8
1
 10
320.6052506989246
 20
299.4965065667916
 30
0
 42
-0.01197752447273194
  0
VERTEX
  8
1
 10
319.8674787032605
 20
299.6866938611955
 30
0
 42
-0.01006527445206519
  0
VERTEX
  8
1
 10
319.1380101353268
 20
299.9094292925624
 30
0
 42
-0.008241774927372192
  0
VERTEX
  8
1
 10
318.41814253595
 20
300.1583643867762
 30
0
 42
-0.003838553974045562
  0
VERTEX
  8
1
 10
317.9519970921944
 20
300.3323152437754
 30
0
 42
-0.001856704054469719
  0
VERTEX
  8
1
 10
317.4885564937508
 20
300.5113001583795
 30
0
 42
0.0001371936481141548
  0
VERTEX
  8
1
 10
317.0258484617899
 20
300.6918339980194
 30
0
 42
0.002130188905727969
  0
VERTEX
  8
1
 10
316.5619007174822
 20
300.8704316301258
 30
0
 42
0.004105463468155699
  0
VERTEX
  8
1
 10
316.0947409819981
 20
301.0436079221295
 30
0
 42
0.004136423689901836
  0
VERTEX
  8
1
 10
315.5159760693156
 20
301.2473700528375
 30
0
 42
-0.004610467601168392
  0
VERTEX
  8
1
 10
314.9377154414473
 20
301.4535635057373
 30
0
 42
-0.01190343574356153
  0
VERTEX
  8
1
 10
314.3682755728392
 20
301.6780407892987
 30
0
 42
-0.0193177642304822
  0
VERTEX
  8
1
 10
313.8159729379375
 20
301.9366544119918
 30
0
 42
-0.02658956512589433
  0
VERTEX
  8
1
 10
313.2891240111881
 20
302.2452568822866
 30
0
 42
-0.02465029267635881
  0
VERTEX
  8
1
 10
312.7308028307663
 20
302.6615978742818
 30
0
 42
-0.007303506873432219
  0
VERTEX
  8
1
 10
312.1946290801139
 20
303.1171280400678
 30
0
 42
0.009583372171329922
  0
VERTEX
  8
1
 10
311.6598547934885
 20
303.5674038694399
 30
0
 42
0.02737041927789306
  0
VERTEX
  8
1
 10
311.105732005148
 20
303.9679818521939
 30
0
 42
0.04757618206175205
  0
VERTEX
  8
1
 10
310.5115127493501
 20
304.2744184781252
 30
0
 42
0.03703160076209255
  0
VERTEX
  8
1
 10
310.0974064416101
 20
304.405706722974
 30
0
 42
0.01980714861961984
  0
VERTEX
  8
1
 10
309.6637514123569
 20
304.4906268250329
 30
0
 42
0.0208625784402798
  0
VERTEX
  8
1
 10
309.2165240198751
 20
304.5409489066508
 30
0
 42
0.004976522058945915
  0
VERTEX
  8
1
 10
308.7617006224488
 20
304.5684430901765
 30
0
 42
0.00721492084058903
  0
VERTEX
  8
1
 10
308.3052575783624
 20
304.5848794979588
 30
0
 42
-0.0005860077344837366
  0
VERTEX
  8
1
 10
307.6842099674522
 20
304.6058622400345
 30
0
 42
-0.0004655068746527296
  0
VERTEX
  8
1
 10
307.069728626985
 20
304.6279186038838
 30
0
 42
-0.000337858555895419
  0
VERTEX
  8
1
 10
306.46017198935
 20
304.6507801840632
 30
0
 42
-0.000204899279714559
  0
VERTEX
  8
1
 10
305.8538984869366
 20
304.6741785751294
 30
0
 42
-6.866814274593709e-005
  0
VERTEX
  8
1
 10
305.249266552134
 20
304.697845371639
 30
0
  0
SEQEND
  8
1
  0
POLYLINE
  8
1
 62
3
 66
1
  0
VERTEX
  8
1
 10
325.249266552134
 20
300.197845371639
 30
0
 42
-0.001437466414842011
  0
VERTEX
  8
1
 10
324.6166820224071
 20
300.1768863007263
 30
0
 42
-0.004324802430438327
  0
VERTEX
  8
1
 10
323.9848060380122
 20
300.1632332432266
 30
0
 42
-0.007243808653218946
  0
VERTEX
  8
1
 10
323.3543471442811
 20
300.1641922125532
 30
0
 42
-0.0101965697846966
  0
VERTEX
  8
1
 10
322.7260138865457
 20
300.187069222119
 30
0
 42
-0.0131552081111109
  0
VERTEX
  8
1
 10
322.1005148101381
 20
300.2391702853373
 30
0
 42
-0.01633930251813414
  0
VERTEX
  8
1
 10
321.3512991180745
 20
300.3477572823063
 30
0
 42
-0.0137816654068306
  0
VERTEX
  8
1
 10
320.6078418713162
 20
300.5016895757682
 30
0
 42
-0.01127931597955458
  0
VERTEX
  8
1
 10
319.8707552431711
 20
300.6932477808895
 30
0
 42
-0.008860671032175225
  0
VERTEX
  8
1
 10
319.1406514069464
 20
300.9147125128367
 30
0
 42
-0.006521860467652288
  0
VERTEX
  8
1
 10
318.41814253595
 20
301.1583643867762
 30
0
 42
-0.003263998879529828
  0
VERTEX
  8
1
 10
317.9490995543162
 20
301.3265194252953
 30
0
 42
-0.002743206220245409
  0
VERTEX
  8
1
 10
317.4829082980033
 20
301.5000023190868
 30
0
 42
-0.002214346597019831
  0
VERTEX
  8
1
 10
317.0188983771124
 20
301.6779320471543
 30
0
 42
-0.001680038633936542
  0
VERTEX
  8
1
 10
316.5563994017437
 20
301.8594275885008
 30
0
 42
-0.001142648290571496
  0
VERTEX
  8
1
 10
316.0947409819981
 20
302.0436079221295
 30
0
 42
-0.003025283605984358
  0
VERTEX
  8
1
 10
315.5153310547835
 20
302.2793940117491
 30
0
 42
-0.006884513992025941
  0
VERTEX
  8
1
 10
314.9406273010451
 20
302.5266484584714
 30
0
 42
-0.01075366762075587
  0
VERTEX
  8
1
 10
314.375066813833
 20
302.7939873437734
 30
0
 42
-0.01459082984933132
  0
VERTEX
  8
1
 10
313.8230866861973
 20
303.0900267491322
 30
0
 42
-0.01827915716374857
  0
VERTEX
  8
1
 10
313.2891240111881
 20
303.4233827560245
 30
0
 42
-0.01457721295482575
  0
VERTEX
  8
1
 10
312.7406351554495
 20
303.8228519875576
 30
0
 42
-0.001460479569403541
  0
VERTEX
  8
1
 10
312.2031843485665
 20
304.2411818178213
 30
0
 42
0.01170481162202724
  0
VERTEX
  8
1
 10
311.6622168433691
 20
304.6448806045286
 30
0
 42
0.02559818686944728
  0
VERTEX
  8
1
 10
311.103177892687
 20
305.0004567053923
 30
0
 42
0.04086222631770373
  0
VERTEX
  8
1
 10
310.5115127493501
 20
305.2744184781252
 30
0
 42
0.03180568557318029
  0
VERTEX
  8
1
 10
310.0927608253745
 20
305.3986373308893
 30
0
 42
0.01804985857802421
  0
VERTEX
  8
1
 10
309.6578736620426
 20
305.4816824526524
 30
0
 42
0.01830108516277241
  0
VERTEX
  8
1
 10
309.2117369435998
 20
305.5336642500168
 30
0
 42
0.005464783303454754
  0
VERTEX
  8
1
 10
308.7592363542913
 20
305.5646931295848
 30
0
 42
0.006549699693647752
  0
VERTEX
  8
1
 10
308.3052575783624
 20
305.5848794979588
 30
0
 42
0.0004093587784564934
  0
VERTEX
  8
1
 10
307.6863558964344
 20
305.6091277730859
 30
0
 42
0.0003245172126258425
  0
VERTEX
  8
1
 10
307.072589865628
 20
305.6322726479522
 30
0
 42
0.0002340549036168919
  0
VERTEX
  8
1
 10
306.4626755731626
 20
305.6545899726231
 30
0
 42
0.0001422883530247901
  0
VERTEX
  8
1
 10
305.8553291062581
 20
305.6763555971636
 30
0
 42
4.708687509230035e-005
  0
VERTEX
  8
1
 10
305.249266552134
 20
305.697845371639
 30
0
  0
SEQEND
  8
1
  0
POLYLINE
  8
1
 62
3
 66
1
  0
VERTEX
  8
1
 10
325.249266552134
 20
301.697845371639
 30
0
 42
-0.001358152088050598
  0
VERTEX
  8
1
 10
324.6173503084665
 20
301.6726296180115
 30
0
 42
-0.004084509566410179
  0
VERTEX
  8
1
 10
323.9859755386161
 20
301.6543123104868
 30
0
 42
-0.006836327826217517
  0
VERTEX
  8
1
 10
323.3556837163999
 20
301.6497918951678
 30
0
 42
-0.009614512800751058
  0
VERTEX
  8
1
 10
322.7270163156348
 20
301.6659668181572
 30
0
 42
-0.01239487570168851
  0
VERTEX
  8
1
 10
322.1005148101381
 20
301.7097355255578
 30
0
 42
-0.0172046020120946
  0
VERTEX
  8
1
 10
321.2730584356473
 20
301.8184146796021
 30
0
 42
-0.0150626821293517
  0
VERTEX
  8
1
 10
320.4519822719934
 20
301.9806822873348
 30
0
 42
-0.01298929339479518
  0
VERTEX
  8
1
 10
319.6388942219567
 20
302.1893269837311
 30
0
 42
-0.01101450300655742
  0
VERTEX
  8
1
 10
318.8354021883172
 20
302.4371374037669
 30
0
 42
-0.009143100764669338
  0
VERTEX
  8
1
 10
318.0431140738552
 20
302.7169021824175
 30
0
 42
-0.003751510980068964
  0
VERTEX
  8
1
 10
317.6074438513799
 20
302.8834759856883
 30
0
 42
-0.002072865825069027
  0
VERTEX
  8
1
 10
317.1744478384059
 20
303.0548366583796
 30
0
 42
-0.0003846956454770273
  0
VERTEX
  8
1
 10
316.7428335093207
 20
303.2281102624312
 30
0
 42
0.001309348898411465
  0
VERTEX
  8
1
 10
316.3113083385119
 20
303.4004228597826
 30
0
 42
0.003005986051758182
  0
VERTEX
  8
1
 10
315.8785798003669
 20
303.5689005123736
 30
0
 42
0.003951844711874318
  0
VERTEX
  8
1
 10
315.4145687512114
 20
303.7421614581187
 30
0
 42
0.001611805709899102
  0
VERTEX
  8
1
 10
314.9484121054272
 20
303.9103375237796
 30
0
 42
0.00128853603724653
  0
VERTEX
  8
1
 10
314.4808043850221
 20
304.0759779800623
 30
0
 42
-0.0005425218248008947
  0
VERTEX
  8
1
 10
314.0124401120036
 20
304.2416320976727
 30
0
 42
-0.001862584057215754
  0
VERTEX
  8
1
 10
313.5440138083791
 20
304.409849147317
 30
0
 42
-0.001452496948211986
  0
VERTEX
  8
1
 10
312.8911055956514
 20
304.6505566734585
 30
0
 42
0.002656236824387499
  0
VERTEX
  8
1
 10
312.2374888044212
 20
304.8897403229443
 30
0
 42
0.006791582524867543
  0
VERTEX
  8
1
 10
311.5812239162921
 20
305.1159269703508
 30
0
 42
0.0110355809408853
  0
VERTEX
  8
1
 10
310.9203714128674
 20
305.3176434902543
 30
0
 42
0.01535980820482792
  0
VERTEX
  8
1
 10
310.2529917757511
 20
305.4834167572315
 30
0
 42
0.02443126800996882
  0
VERTEX
  8
1
 10
309.2735133083728
 20
305.6454031667938
 30
0
 42
0.01606205456721063
  0
VERTEX
  8
1
 10
308.2798571227644
 20
305.7279891185689
 30
0
 42
0.01393493870862245
  0
VERTEX
  8
1
 10
307.2755676484834
 20
305.7510247270035
 30
0
 42
0.005770450064503927
  0
VERTEX
  8
1
 10
306.2641893150874
 20
305.7343601065447
 30
0
 42
0.003972978688650296
  0
VERTEX
  8
1
 10
305.249266552134
 20
305.697845371639
 30
0
  0
SEQEND
  8
1
  0
POLYLINE
  8
1
 62
3
 66
1
  0
VERTEX
  8
1
 10
325.249266552134
 20
302.697845371639
 30
0
 42
-0.00136247160975902
  0
VERTEX
  8
1
 10
324.6173225506254
 20
302.6725391913461
 30
0
 42
-0.004097610774240308
  0
VERTEX
  8
1
 10
323.9859269623941
 20
302.6541540638223
 30
0
 42
-0.006858595752646897
  0
VERTEX
  8
1
 10
323.3556282007176
 20
302.6496110418369
 30
0
 42
-0.009646437364399641
  0
VERTEX
  8
1
 10
322.7269746788732
 20
302.665831178159
 30
0
 42
-0.01243679960353226
  0
VERTEX
  8
1
 10
322.1005148101381
 20
302.7097355255578
 30
0
 42
-0.01723934499796594
  0
VERTEX
  8
1
 10
321.2731566067341
 20
302.8187344913617
 30
0
 42
-0.01504120646983113
  0
VERTEX
  8
1
 10
320.4521846520451
 20
302.9813415804373
 30
0
 42
-0.01291158192509242
  0
VERTEX
  8
1
 10
319.6391517254298
 20
303.190165852297
 30
0
 42
-0.0108810284910498
  0
VERTEX
  8
1
 10
318.8356106062469
 20
303.4378163664529
 30
0
 42
-0.008953596705535697
  0
VERTEX
  8
1
 10
318.0431140738552
 20
303.7169021824175
 30
0
 42
-0.00370378141828309
  0
VERTEX
  8
1
 10
317.6072535897879
 20
303.8828561708686
 30
0
 42
-0.002172491294068584
  0
VERTEX
  8
1
 10
317.1740816812287
 20
304.0536438288522
 30
0
 42
-0.0006319289788296348
  0
VERTEX
  8
1
 10
316.7423865873542
 20
304.2266543256059
 30
0
 42
0.0009139763726175017
  0
VERTEX
  8
1
 10
316.3109565473413
 20
304.3992768303671
 30
0
 42
0.002461932441026462
  0
VERTEX
  8
1
 10
315.8785798003669
 20
304.5689005123736
 30
0
 42
0.003473150354166522
  0
VERTEX
  8
1
 10
315.4152415796386
 20
304.7443533299839
 30
0
 42
0.00200860397915377
  0
VERTEX
  8
1
 10
314.9497815360644
 20
304.9147987153156
 30
0
 42
0.002047564781538786
  0
VERTEX
  8
1
 10
314.4825340036556
 20
305.0816125553364
 30
0
 42
0.00058247692146455
  0
VERTEX
  8
1
 10
314.0138333164233
 20
305.2461707370143
 30
0
 42
0.0006242501461999818
  0
VERTEX
  8
1
 10
313.5440138083791
 20
305.409849147317
 30
0
 42
0.000336367664842515
  0
VERTEX
  8
1
 10
312.8927236434666
 20
305.6353471278659
 30
0
 42
0.005230759132579977
  0
VERTEX
  8
1
 10
312.2389546855238
 20
305.8535825454246
 30
0
 42
0.006236406617533869
  0
VERTEX
  8
1
 10
311.5817286067745
 20
306.0563439310324
 30
0
 42
0.01123059924351651
  0
VERTEX
  8
1
 10
310.9200670794424
 20
306.2354198157289
 30
0
 42
0.01235024403522288
  0
VERTEX
  8
1
 10
310.2529917757511
 20
306.3825987305534
 30
0
 42
0.02178204566652133
  0
VERTEX
  8
1
 10
309.2685869355283
 20
306.5302672535042
 30
0
 42
0.01290993169169748
  0
VERTEX
  8
1
 10
308.2732886256384
 20
306.6095826876193
 30
0
 42
0.01287933557319916
  0
VERTEX
  8
1
 10
307.2698202134982
 20
306.6376333051076
 30
0
 42
0.004130453161903179
  0
VERTEX
  8
1
 10
306.2609050665245
 20
306.6315073781781
 30
0
 42
0.004305287326954631
  0
VERTEX
  8
1
 10
305.249266552134
 20
306.6082931790396
 30
0
  0
SEQEND
  8
1
  0
POLYLINE
  8
1
 62
3
 66
1
  0
VERTEX
  8
1
 10
325.249266552134
 20
306.697845371639
 30
0
 42
-0.001888937841193283
  0
VERTEX
  8
1
 10
324.615500559623
 20
306.659148742525
 30
0
 42
-0.005694027757289404
  0
VERTEX
  8
1
 10
323.9827384781399
 20
306.6301262706894
 30
0
 42
-0.009568406320081973
  0
VERTEX
  8
1
 10
323.3519842187128
 20
306.6204521134108
 30
0
 42
-0.01351495323532053
  0
VERTEX
  8
1
 10
322.7242416923696
 20
306.6398004279679
 30
0
 42
-0.04014634871256267
  0
VERTEX
  8
1
 10
321.2866823924275
 20
306.8398581992428
 30
0
 42
-0.009124304351102921
  0
VERTEX
  8
1
 10
320.477782585245
 20
307.0300729313011
 30
0
 42
0.001534250010417737
  0
VERTEX
  8
1
 10
319.6700589132895
 20
307.2329593679496
 30
0
 42
0.01220105072977655
  0
VERTEX
  8
1
 10
318.85975490126
 20
307.412987309324
 30
0
 42
0.02318308017373887
  0
VERTEX
  8
1
 10
318.0431140738552
 20
307.5346265555603
 30
0
 42
0.0152974728387233
  0
VERTEX
  8
1
 10
317.6127595808408
 20
307.5651956241274
 30
0
 42
0.005656696756784497
  0
VERTEX
  8
1
 10
317.1803886219385
 20
307.577741082832
 30
0
 42
0.006368138960437194
  0
VERTEX
  8
1
 10
316.7467414821948
 20
307.579891114652
 30
0
 42
-0.0006029030482145007
  0
VERTEX
  8
1
 10
316.3125584466555
 20
307.5792739025656
 30
0
 42
-0.005000141994922888
  0
VERTEX
  8
1
 10
315.8785798003669
 20
307.5835176295509
 30
0
 42
-0.006579526751765946
  0
VERTEX
  8
1
 10
315.4107000758323
 20
307.6000002016147
 30
0
 42
-0.004151305535363385
  0
VERTEX
  8
1
 10
314.9436130560804
 20
307.6265030076717
 30
0
 42
-0.001715361460807431
  0
VERTEX
  8
1
 10
314.4770092993972
 20
307.6584752891889
 30
0
 42
0.0007228359940678357
  0
VERTEX
  8
1
 10
314.0105793640681
 20
307.6913662876331
 30
0
 42
0.003162479871098686
  0
VERTEX
  8
1
 10
313.5440138083791
 20
307.7206252444713
 30
0
 42
0.006187227354166011
  0
VERTEX
  8
1
 10
312.8867273157024
 20
307.7495184957669
 30
0
 42
0.003818458239232971
  0
VERTEX
  8
1
 10
312.2287705661203
 20
307.7652591160432
 30
0
 42
0.003855524038772401
  0
VERTEX
  8
1
 10
311.5703548596139
 20
307.7709025590098
 30
0
 42
0.001491465786150887
  0
VERTEX
  8
1
 10
310.9116914961639
 20
307.7695042783758
 30
0
 42
0.001534251241407947
  0
VERTEX
  8
1
 10
310.2529917757511
 20
307.7641197278508
 30
0
 42
0.0004844600513342206
  0
VERTEX
  8
1
 10
309.2517614385959
 20
307.7534469433548
 30
0
 42
0.0003770640250829125
  0
VERTEX
  8
1
 10
308.2508546297286
 20
307.7410527676946
 30
0
 42
0.0002694207364258504
  0
VERTEX
  8
1
 10
307.2501904670771
 20
307.7273675486612
 30
0
 42
0.0001617307302205485
  0
VERTEX
  8
1
 10
306.2496880685695
 20
307.7128216340456
 30
0
 42
5.389327211457709e-005
  0
VERTEX
  8
1
 10
305.249266552134
 20
307.697845371639
 30
0
  0
SEQEND
  8
1
  0
POLYLINE
  8
1
 62
3
 66
1
  0
VERTEX
  8
1
 10
325.249266552134
 20
307.697845371639
 30
0
 42
-0.00188893784110391
  0
VERTEX
  8
1
 10
324.615500559623
 20
307.6591487425249
 30
0
 42
-0.005694027757110153
  0
VERTEX
  8
1
 10
323.9827384781399
 20
307.6301262706894
 30
0
 42
-0.009568406319991981
  0
VERTEX
  8
1
 10
323.3519842187128
 20
307.6204521134108
 30
0
 42
-0.01351495323541081
  0
VERTEX
  8
1
 10
322.7242416923696
 20
307.6398004279678
 30
0
 42
-0.04014634871249673
  0
VERTEX
  8
1
 10
321.2866823924275
 20
307.8398581992429
 30
0
 42
-0.009124304351170039
  0
VERTEX
  8
1
 10
320.477782585245
 20
308.0300729313011
 30
0
 42
0.001534250010616246
  0
VERTEX
  8
1
 10
319.6700589132895
 20
308.2329593679496
 30
0
 42
0.01220105072957757
  0
VERTEX
  8
1
 10
318.85975490126
 20
308.4129873093241
 30
0
 42
0.02318308017403812
  0
VERTEX
  8
1
 10
318.0431140738552
 20
308.5346265555603
 30
0
 42
0.01529747283842058
  0
VERTEX
  8
1
 10
317.6127595808408
 20
308.5651956241273
 30
0
 42
0.005656696757084711
  0
VERTEX
  8
1
 10
317.1803886219385
 20
308.5777410828318
 30
0
 42
0.006368138960137866
  0
VERTEX
  8
1
 10
316.7467414821948
 20
308.5798911146518
 30
0
 42
-0.00060290304795271
  0
VERTEX
  8
1
 10
316.3125584466555
 20
308.5792739025654
 30
0
 42
-0.005000141994661035
  0
VERTEX
  8
1
 10
315.8785798003669
 20
308.5835176295507
 30
0
 42
-0.006579526751523407
  0
VERTEX
  8
1
 10
315.4107000758323
 20
308.6000002016145
 30
0
 42
-0.004151305535242147
  0
VERTEX
  8
1
 10
314.9436130560804
 20
308.6265030076716
 30
0
 42
-0.001715361460807431
  0
VERTEX
  8
1
 10
314.4770092993972
 20
308.6584752891888
 30
0
 42
0.0007228359944315448
  0
VERTEX
  8
1
 10
314.0105793640681
 20
308.6913662876331
 30
0
 42
0.003162479870734751
  0
VERTEX
  8
1
 10
313.5440138083791
 20
308.7206252444713
 30
0
 42
0.006187227354549719
  0
VERTEX
  8
1
 10
312.8867273157023
 20
308.749518495767
 30
0
 42
0.003818458238890351
  0
VERTEX
  8
1
 10
312.2287705661203
 20
308.7652591160433
 30
0
 42
0.003855524039115909
  0
VERTEX
  8
1
 10
311.5703548596139
 20
308.7709025590098
 30
0
 42
0.001491465785807828
  0
VERTEX
  8
1
 10
310.9116914961639
 20
308.7695042783759
 30
0
 42
0.001534251241794083
  0
VERTEX
  8
1
 10
310.2529917757511
 20
308.7641197278508
 30
0
 42
0.0004844600512775992
  0
VERTEX
  8
1
 10
309.2517614385959
 20
308.7534469433549
 30
0
 42
0.0003770640251963773
  0
VERTEX
  8
1
 10
308.2508546297286
 20
308.7410527676946
 30
0
 42
0.0002694207362839638
  0
VERTEX
  8
1
 10
307.2501904670771
 20
308.7273675486612
 30
0
 42
0.000161730730362213
  0
VERTEX
  8
1
 10
306.2496880685695
 20
308.7128216340456
 30
0
 42
5.389327197291263e-005
  0
VERTEX
  8
1
 10
305.249266552134
 20
308.697845371639
 30
0
  0
SEQEND
  8
1
  0
POLYLINE
  8
1
 62
3
 66
1
  0
VERTEX
  8
1
 10
325.249266552134
 20
309.197845371639
 30
0
 42
-0.001012204110926472
  0
VERTEX
  8
1
 10
324.6180267112323
 20
309.1785263653662
 30
0
 42
-0.003041506933932473
  0
VERTEX
  8
1
 10
323.9871592434562
 20
309.16433509173
 30
0
 42
-0.005083541123795788
  0
VERTEX
  8
1
 10
323.3570365219314
 20
309.1603992833672
 30
0
 42
-0.007140173251189556
  0
VERTEX
  8
1
 10
322.7280309197835
 20
309.1718466729144
 30
0
 42
-0.02015103824165886
  0
VERTEX
  8
1
 10
321.3634442313535
 20
309.271264711656
 30
0
 42
-0.005713191267173731
  0
VERTEX
  8
1
 10
320.6278144592001
 20
309.3618894215174
 30
0
 42
-0.001504699509170777
  0
VERTEX
  8
1
 10
319.8924827490204
 20
309.4632675392569
 30
0
 42
0.002686391856148353
  0
VERTEX
  8
1
 10
319.1563063561562
 20
309.5629874815389
 30
0
 42
0.006874857216620748
  0
VERTEX
  8
1
 10
318.41814253595
 20
309.648637665028
 30
0
 42
0.006540794941150919
  0
VERTEX
  8
1
 10
317.9541078531037
 20
309.689898318314
 30
0
 42
0.00604678778755725
  0
VERTEX
  8
1
 10
317.4892970003076
 20
309.7194577967373
 30
0
 42
0.007915314743358397
  0
VERTEX
  8
1
 10
317.0241633335394
 20
309.7360167489601
 30
0
 42
0.007448605157901087
  0
VERTEX
  8
1
 10
316.559160208777
 20
309.7382758236444
 30
0
 42
0.01990100913028903
  0
VERTEX
  8
1
 10
315.5313168410131
 20
309.6870102409072
 30
0
 42
0.006705255687779172
  0
VERTEX
  8
1
 10
314.9692346596967
 20
309.6288859570261
 30
0
 42
0.006951790059813525
  0
VERTEX
  8
1
 10
314.4083028517919
 20
309.5553479584933
 30
0
 42
0.002464144040981527
  0
VERTEX
  8
1
 10
313.8483298310414
 20
309.4711813859933
 30
0
 42
0.002737693092929308
  0
VERTEX
  8
1
 10
313.2891240111881
 20
309.3811713802104
 30
0
 42
-0.0001339878578999334
  0
VERTEX
  8
1
 10
312.7342391888412
 20
309.2904009533057
 30
0
 42
-0.001401259120632585
  0
VERTEX
  8
1
 10
312.179478924852
 20
309.2013984727786
 30
0
 42
-0.002671166500968237
  0
VERTEX
  8
1
 10
311.6243999458524
 20
309.1169758683786
 30
0
 42
-0.003942555143024439
  0
VERTEX
  8
1
 10
311.0685589784745
 20
309.039945069855
 30
0
 42
-0.005212195614944651
  0
VERTEX
  8
1
 10
310.5115127493501
 20
308.9731180069572
 30
0
 42
-0.004276427742322952
  0
VERTEX
  8
1
 10
310.071497598148
 20
308.9290681253615
 30
0
 42
-0.003618960281288014
  0
VERTEX
  8
1
 10
309.6306616675407
 20
308.8919562546465
 30
0
 42
-0.002963333241694142
  0
VERTEX
  8
1
 10
309.1892077954358
 20
308.8606386485656
 30
0
 42
-0.002309907759096517
  0
VERTEX
  8
1
 10
308.7473388197406
 20
308.8339715608722
 30
0
 42
-0.001658437888801276
  0
VERTEX
  8
1
 10
308.3052575783624
 20
308.8108112453194
 30
0
 42
-0.00165918181435953
  0
VERTEX
  8
1
 10
307.6940809919421
 20
308.7827994175772
 30
0
 42
-0.001291066999767656
  0
VERTEX
  8
1
 10
307.0828899929717
 20
308.7584000251724
 30
0
 42
-0.0009224660058060845
  0
VERTEX
  8
1
 10
306.4716881845883
 20
308.7367099592707
 30
0
 42
-0.0005535777014122664
  0
VERTEX
  8
1
 10
305.8604791699299
 20
308.7168261110377
 30
0
 42
-0.0001845410468981831
  0
VERTEX
  8
1
 10
305.249266552134
 20
308.697845371639
 30
0
  0
SEQEND
  8
1
  0
POLYLINE
  8
1
 62
3
 66
1
  0
VERTEX
  8
1
 10
325.249266552134
 20
310.197845371639
 30
0
 42
-0.001012204111016456
  0
VERTEX
  8
1
 10
324.6180267112323
 20
310.1785263653661
 30
0
 42
-0.003041506933662353
  0
VERTEX
  8
1
 10
323.9871592434562
 20
310.16433509173
 30
0
 42
-0.005083541123795788
  0
VERTEX
  8
1
 10
323.3570365219314
 20
310.1603992833672
 30
0
 42
-0.007140173251189556
  0
VERTEX
  8
1
 10
322.7280309197835
 20
310.1718466729144
 30
0
 42
-0.02015103824154162
  0
VERTEX
  8
1
 10
321.3634442313535
 20
310.271264711656
 30
0
 42
-0.005713191267173731
  0
VERTEX
  8
1
 10
320.6278144592001
 20
310.3618894215174
 30
0
 42
-0.001504699509094893
  0
VERTEX
  8
1
 10
319.8924827490204
 20
310.4632675392568
 30
0
 42
0.002686391856224292
  0
VERTEX
  8
1
 10
319.1563063561562
 20
310.5629874815389
 30
0
 42
0.006874857216582777
  0
VERTEX
  8
1
 10
318.41814253595
 20
310.648637665028
 30
0
 42
0.006540794941188669
  0
VERTEX
  8
1
 10
317.9541078531037
 20
310.689898318314
 30
0
 42
0.00604678778751928
  0
VERTEX
  8
1
 10
317.4892970003076
 20
310.7194577967373
 30
0
 42
0.007915314743396146
  0
VERTEX
  8
1
 10
317.0241633335394
 20
310.7360167489601
 30
0
 42
0.007448605157863115
  0
VERTEX
  8
1
 10
316.559160208777
 20
310.7382758236444
 30
0
 42
0.01990100913032724
  0
VERTEX
  8
1
 10
315.5313168410131
 20
310.6870102409072
 30
0
 42
0.006705255687791162
  0
VERTEX
  8
1
 10
314.9692346596967
 20
310.6288859570261
 30
0
 42
0.006951790059701609
  0
VERTEX
  8
1
 10
314.4083028517919
 20
310.5553479584933
 30
0
 42
0.002464144041194025
  0
VERTEX
  8
1
 10
313.8483298310414
 20
310.4711813859932
 30
0
 42
0.002737693092617777
  0
VERTEX
  8
1
 10
313.2891240111881
 20
310.3811713802104
 30
0
 42
-0.0001339878579995759
  0
VERTEX
  8
1
 10
312.7342391888412
 20
310.2904009533056
 30
0
 42
-0.001401259120532776
  0
VERTEX
  8
1
 10
312.179478924852
 20
310.2013984727786
 30
0
 42
-0.002671166500968237
  0
VERTEX
  8
1
 10
311.6243999458524
 20
310.1169758683786
 30
0
 42
-0.003942555142924129
  0
VERTEX
  8
1
 10
311.0685589784745
 20
310.039945069855
 30
0
 42
-0.005212195614843951
  0
VERTEX
  8
1
 10
310.5115127493501
 20
309.9731180069572
 30
0
 42
-0.004276427742195107
  0
VERTEX
  8
1
 10
310.071497598148
 20
309.9290681253614
 30
0
 42
-0.003618960281160114
  0
VERTEX
  8
1
 10
309.6306616675407
 20
309.8919562546465
 30
0
 42
-0.002963333241694142
  0
VERTEX
  8
1
 10
309.1892077954358
 20
309.8606386485656
 30
0
 42
-0.002309907759096517
  0
VERTEX
  8
1
 10
308.7473388197406
 20
309.8339715608722
 30
0
 42
-0.001658437888544814
  0
VERTEX
  8
1
 10
308.3052575783624
 20
309.8108112453194
 30
0
 42
-0.001659181814452345
  0
VERTEX
  8
1
 10
307.6940809919421
 20
309.7827994175773
 30
0
 42
-0.001291066999860527
  0
VERTEX
  8
1
 10
307.0828899929717
 20
309.7584000251724
 30
0
 42
-0.0009224660058060845
  0
VERTEX
  8
1
 10
306.4716881845883
 20
309.7367099592707
 30
0
 42
-0.0005535777014122664
  0
VERTEX
  8
1
 10
305.8604791699299
 20
309.7168261110377
 30
0
 42
-0.0001845410468981831
  0
VERTEX
  8
1
 10
305.249266552134
 20
309.697845371639
 30
0
  0
SEQEND
  8
1
  0
POLYLINE
  8
1
 62
3
 66
1
  0
VERTEX
  8
1
 10
325.249266552134
 20
314.197845371639
 30
0
 42
0.002401515546318256
  0
VERTEX
  8
1
 10
324.5047894901551
 20
314.2561535521915
 30
0
 42
0.00724884075323932
  0
VERTEX
  8
1
 10
323.7626914474698
 20
314.2998846876059
 30
0
 42
0.01229879808585835
  0
VERTEX
  8
1
 10
323.0253514433717
 20
314.314461732744
 30
0
 42
0.01753962731825138
  0
VERTEX
  8
1
 10
322.2951484971543
 20
314.2853076424677
 30
0
 42
0.02289826929952938
  0
VERTEX
  8
1
 10
321.5744616281111
 20
314.197845371639
 30
0
 42
0.02623792913377034
  0
VERTEX
  8
1
 10
320.8047884887841
 20
314.0265222286224
 30
0
 42
0.0153345102165171
  0
VERTEX
  8
1
 10
320.0460372096468
 20
313.790022843236
 30
0
 42
0.01262719634032189
  0
VERTEX
  8
1
 10
319.2951177197203
 20
313.5090267514416
 30
0
 42
0.002243745492276608
  0
VERTEX
  8
1
 10
318.5489399480261
 20
313.2042134892006
 30
0
 42
-0.002052424584303807
  0
VERTEX
  8
1
 10
317.8044138235851
 20
312.8962625924746
 30
0
 42
-0.004718784384161289
  0
VERTEX
  8
1
 10
317.007872030583
 20
312.5818296699613
 30
0
 42
-0.002952234778128781
  0
VERTEX
  8
1
 10
316.2101826146013
 20
312.2810201814249
 30
0
 42
-0.001148070354252983
  0
VERTEX
  8
1
 10
315.4118404320836
 20
311.9874271541452
 30
0
 42
0.0006697605110202483
  0
VERTEX
  8
1
 10
314.6133403394736
 20
311.694643615402
 30
0
 42
0.002482044596484091
  0
VERTEX
  8
1
 10
313.8151771932151
 20
311.3962625924746
 30
0
 42
0.001978882975334352
  0
VERTEX
  8
1
 10
313.1378326198329
 20
311.1361367970164
 30
0
 42
-0.002424872975737033
  0
VERTEX
  8
1
 10
312.4591566568689
 20
310.8775691930345
 30
0
 42
-0.005965402688231223
  0
VERTEX
  8
1
 10
311.7772184122784
 20
310.6307699043092
 30
0
 42
-0.009563208241377815
  0
VERTEX
  8
1
 10
311.0900869940173
 20
310.4059490546209
 30
0
 42
-0.01321986738215474
  0
VERTEX
  8
1
 10
310.3958315100411
 20
310.21331676775
 30
0
 42
-0.01938778054356339
  0
VERTEX
  8
1
 10
309.3887237492633
 20
310.0062493230338
 30
0
 42
-0.01499239441259959
  0
VERTEX
  8
1
 10
308.3668125012831
 20
309.8684973219802
 30
0
 42
-0.01059728124980586
  0
VERTEX
  8
1
 10
307.333798637901
 20
309.7827319036737
 30
0
 42
-0.006296230251568748
  0
VERTEX
  8
1
 10
306.2933830309178
 20
309.7316242071985
 30
0
 42
-0.002086734309591115
  0
VERTEX
  8
1
 10
305.249266552134
 20
309.697845371639
 30
0
  0
SEQEND
  8
1
  0
POLYLINE
  8
1
 62
3
 66
1
  0
VERTEX
  8
1
 10
325.249266552134
 20
315.197845371639
 30
0
 42
0.002401515546166598
  0
VERTEX
  8
1
 10
324.5047894901551
 20
315.2561535521915
 30
0
 42
0.007248840753390763
  0
VERTEX
  8
1
 10
323.7626914474698
 20
315.2998846876059
 30
0
 42
0.01229879808570689
  0
VERTEX
  8
1
 10
323.0253514433717
 20
315.314461732744
 30
0
 42
0.01753962731840241
  0
VERTEX
  8
1
 10
322.2951484971543
 20
315.2853076424677
 30
0
 42
0.02289826929937832
  0
VERTEX
  8
1
 10
321.5744616281111
 20
315.197845371639
 30
0
 42
0.02623792913395654
  0
VERTEX
  8
1
 10
320.8047884887841
 20
315.0265222286224
 30
0
 42
0.01533451021625969
  0
VERTEX
  8
1
 10
320.0460372096468
 20
314.790022843236
 30
0
 42
0.01262719634061348
  0
VERTEX
  8
1
 10
319.2951177197203
 20
314.5090267514416
 30
0
 42
0.002243745491983952
  0
VERTEX
  8
1
 10
318.5489399480261
 20
314.2042134892006
 30
0
 42
-0.002052424584173355
  0
VERTEX
  8
1
 10
317.8044138235851
 20
313.8962625924746
 30
0
 42
-0.004718784384037773
  0
VERTEX
  8
1
 10
317.007872030583
 20
313.5818296699613
 30
0
 42
-0.002952234778253515
  0
VERTEX
  8
1
 10
316.2101826146013
 20
313.2810201814249
 30
0
 42
-0.001148070354252983
  0
VERTEX
  8
1
 10
315.4118404320836
 20
312.9874271541452
 30
0
 42
0.0006697605110830869
  0
VERTEX
  8
1
 10
314.6133403394736
 20
312.6946436154019
 30
0
 42
0.002482044596358857
  0
VERTEX
  8
1
 10
313.8151771932151
 20
312.3962625924746
 30
0
 42
0.001978882975491117
  0
VERTEX
  8
1
 10
313.1378326198329
 20
312.1361367970164
 30
0
 42
-0.002424872975737033
  0
VERTEX
  8
1
 10
312.4591566568689
 20
311.8775691930345
 30
0
 42
-0.005965402688231223
  0
VERTEX
  8
1
 10
311.7772184122784
 20
311.6307699043092
 30
0
 42
-0.009563208241377815
  0
VERTEX
  8
1
 10
311.0900869940173
 20
311.4059490546209
 30
0
 42
-0.01321986738200261
  0
VERTEX
  8
1
 10
310.3958315100411
 20
311.21331676775
 30
0
 42
-0.0193877805434551
  0
VERTEX
  8
1
 10
309.3887237492633
 20
311.0062493230338
 30
0
 42
-0.01499239441265406
  0
VERTEX
  8
1
 10
308.3668125012831
 20
310.8684973219802
 30
0
 42
-0.01059728124991534
  0
VERTEX
  8
1
 10
307.333798637901
 20
310.7827319036737
 30
0
 42
-0.006296230251623318
  0
VERTEX
  8
1
 10
306.2933830309178
 20
310.7316242071985
 30
0
 42
-0.002086734309591115
  0
VERTEX
  8
1
 10
305.249266552134
 20
310.697845371639
 30
0
  0
SEQEND
  8
1
  0
POLYLINE
  8
1
 62
3
 66
1
  0
VERTEX
  8
1
 10
325.249266552134
 20
319.197845371639
 30
0
 42
0.004358729398528399
  0
VERTEX
  8
1
 10
324.2801525014608
 20
319.193318186453
 30
0
 42
0.01337584483497571
  0
VERTEX
  8
1
 10
323.3279308403443
 20
319.1550764862919
 30
0
 42
0.02383563990222768
  0
VERTEX
  8
1
 10
322.4094939583413
 20
319.0494057561809
 30
0
 42
0.03589190169522144
  0
VERTEX
  8
1
 10
321.5417342450083
 20
318.8425914811448
 30
0
 42
0.04895632414662015
  0
VERTEX
  8
1
 10
320.7415440899021
 20
318.5009191462088
 30
0
 42
0.04576326853646394
  0
VERTEX
  8
1
 10
320.083760642539
 20
318.057774933947
 30
0
 42
0.02110922930109312
  0
VERTEX
  8
1
 10
319.4738046528262
 20
317.5157185754634
 30
0
 42
0.01598160533310815
  0
VERTEX
  8
1
 10
318.8902598071295
 20
316.9140374466384
 30
0
 42
-0.00109213469106484
  0
VERTEX
  8
1
 10
318.3117097918149
 20
316.2920189233521
 30
0
 42
-0.01369804711987061
  0
VERTEX
  8
1
 10
317.7167382932482
 20
315.6889503814847
 30
0
 42
-0.02555441647293241
  0
VERTEX
  8
1
 10
316.8608145380766
 20
314.9559787807002
 30
0
 42
-0.02143501595994844
  0
VERTEX
  8
1
 10
315.9477098012627
 20
314.312346546525
 30
0
 42
-0.01692967819391998
  0
VERTEX
  8
1
 10
314.9891190782104
 20
313.7413838374581
 30
0
 42
-0.01233822321837234
  0
VERTEX
  8
1
 10
313.9967373643235
 20
313.226420811998
 30
0
 42
-0.007800748263449645
  0
VERTEX
  8
1
 10
312.9822596550061
 20
312.7507876286436
 30
0
 42
-0.005362192224162446
  0
VERTEX
  8
1
 10
312.1753874113099
 20
312.3960118755231
 30
0
 42
-0.007366627213585168
  0
VERTEX
  8
1
 10
311.3609791004665
 20
312.0623826823019
 30
0
 42
-0.009412356290870564
  0
VERTEX
  8
1
 10
310.5379319188835
 20
311.7570308646564
 30
0
 42
-0.01149368119258183
  0
VERTEX
  8
1
 10
309.7051430629686
 20
311.487087238263
 30
0
 42
-0.02517093435353733
  0
VERTEX
  8
1
 10
308.1490379670814
 20
311.1058371537351
 30
0
 42
-0.008504618118709924
  0
VERTEX
  8
1
 10
307.4299149561328
 20
310.9796436990928
 30
0
 42
-0.006047552492765696
  0
VERTEX
  8
1
 10
306.7058035085086
 20
310.8741892522662
 30
0
 42
-0.003614339530351925
  0
VERTEX
  8
1
 10
305.9783664364339
 20
310.78256081065
 30
0
 42
-0.001202089796741958
  0
VERTEX
  8
1
 10
305.249266552134
 20
310.697845371639
 30
0
  0
SEQEND
  8
1
  0
POLYLINE
  8
1
 62
3
 66
1
  0
VERTEX
  8
1
 10
325.249266552134
 20
320.197845371639
 30
0
 42
0.004358729398528399
  0
VERTEX
  8
1
 10
324.2801525014608
 20
320.193318186453
 30
0
 42
0.01337584483497571
  0
VERTEX
  8
1
 10
323.3279308403443
 20
320.1550764862919
 30
0
 42
0.02383563990222768
  0
VERTEX
  8
1
 10
322.4094939583413
 20
320.0494057561809
 30
0
 42
0.03589190169522144
  0
VERTEX
  8
1
 10
321.5417342450083
 20
319.8425914811448
 30
0
 42
0.04895632414662015
  0
VERTEX
  8
1
 10
320.7415440899021
 20
319.5009191462088
 30
0
 42
0.04576326853646394
  0
VERTEX
  8
1
 10
320.083760642539
 20
319.057774933947
 30
0
 42
0.02110922930109312
  0
VERTEX
  8
1
 10
319.4738046528262
 20
318.5157185754634
 30
0
 42
0.0159816053331317
  0
VERTEX
  8
1
 10
318.8902598071295
 20
317.9140374466384
 30
0
 42
-0.001092134691019432
  0
VERTEX
  8
1
 10
318.3117097918149
 20
317.2920189233521
 30
0
 42
-0.01369804711996489
  0
VERTEX
  8
1
 10
317.7167382932482
 20
316.6889503814847
 30
0
 42
-0.02555441647293241
  0
VERTEX
  8
1
 10
316.8608145380766
 20
315.9559787807002
 30
0
 42
-0.02143501595994844
  0
VERTEX
  8
1
 10
315.9477098012627
 20
315.312346546525
 30
0
 42
-0.01692967819391998
  0
VERTEX
  8
1
 10
314.9891190782104
 20
314.7413838374581
 30
0
 42
-0.0123382232184625
  0
VERTEX
  8
1
 10
313.9967373643235
 20
314.226420811998
 30
0
 42
-0.007800748263449645
  0
VERTEX
  8
1
 10
312.9822596550061
 20
313.7507876286436
 30
0
 42
-0.005362192224280521
  0
VERTEX
  8
1
 10
312.1753874113099
 20
313.3960118755231
 30
0
 42
-0.007366627213585168
  0
VERTEX
  8
1
 10
311.3609791004665
 20
313.0623826823019
 30
0
 42
-0.009412356290870564
  0
VERTEX
  8
1
 10
310.5379319188835
 20
312.7570308646564
 30
0
 42
-0.0114936811926434
  0
VERTEX
  8
1
 10
309.7051430629686
 20
312.4870872382631
 30
0
 42
-0.02517093435360066
  0
VERTEX
  8
1
 10
308.1490379670814
 20
312.1058371537351
 30
0
 42
-0.008504618118709924
  0
VERTEX
  8
1
 10
307.4299149561328
 20
311.9796436990928
 30
0
 42
-0.006047552492765696
  0
VERTEX
  8
1
 10
306.7058035085086
 20
311.8741892522662
 30
0
 42
-0.003614339530351925
  0
VERTEX
  8
1
 10
305.9783664364339
 20
311.78256081065
 30
0
 42
-0.00120208979658808
  0
VERTEX
  8
1
 10
305.249266552134
 20
311.697845371639
 30
0
  0
SEQEND
  8
1
  0
POLYLINE
  8
1
 62
3
 66
1
  0
VERTEX
  8
1
 10
263.1393141077443
 20
306.5970273449609
 30
0
 42
-0.0002943625235917869
  0
VERTEX
  8
1
 10
262.4163324870256
 20
306.4851807842304
 30
0
 42
-0.0008817296300369763
  0
VERTEX
  8
1
 10
261.6925329416737
 20
306.3749509851421
 30
0
 42
-0.001464990072520506
  0
VERTEX
  8
1
 10
260.9670975470553
 20
306.2679547093384
 30
0
 42
-0.002041299421533222
  0
VERTEX
  8
1
 10
260.2392083785371
 20
306.1658087184617
 30
0
 42
-0.00260766312017092
  0
VERTEX
  8
1
 10
259.508047511486
 20
306.0701297741541
 30
0
 42
-0.003565789052262975
  0
VERTEX
  8
1
 10
259.0305846506703
 20
306.0131800466331
 30
0
 42
-0.006974058786737888
  0
VERTEX
  8
1
 10
258.5524438786748
 20
305.9663377552555
 30
0
 42
-0.01046734541281197
  0
VERTEX
  8
1
 10
258.0746771680597
 20
305.9362909383826
 30
0
 42
-0.01406324816688524
  0
VERTEX
  8
1
 10
257.5983364913857
 20
305.9297276343755
 30
0
 42
-0.04238687832034733
  0
VERTEX
  8
1
 10
256.4695670601542
 20
306.0419411700568
 30
0
 42
-0.01275655711049601
  0
VERTEX
  8
1
 10
255.81888422519
 20
306.1770753510709
 30
0
 42
-0.003311590302282478
  0
VERTEX
  8
1
 10
255.1697991270217
 20
306.3337392889475
 30
0
 42
0.006018803926594983
  0
VERTEX
  8
1
 10
254.5196855763507
 20
306.4869338479963
 30
0
 42
0.01543555655988874
  0
VERTEX
  8
1
 10
253.8659173838782
 20
306.6116598925272
 30
0
 42
0.01835179206129001
  0
VERTEX
  8
1
 10
253.2854491620787
 20
306.6822099813508
 30
0
 42
0.01056861445976594
  0
VERTEX
  8
1
 10
252.7013281819035
 20
306.7191233735515
 30
0
 42
0.01150728188691405
  0
VERTEX
  8
1
 10
252.1147746696453
 20
306.7302462647479
 30
0
 42
0.003776246101048679
  0
VERTEX
  8
1
 10
251.5270088515967
 20
306.7234248505582
 30
0
 42
0.004810538921461108
  0
VERTEX
  8
1
 10
250.9392509540502
 20
306.7065053266008
 30
0
 42
0.0009324995727458661
  0
VERTEX
  8
1
 10
250.3167392843456
 20
306.6847892714243
 30
0
 42
0.0007280294781963131
  0
VERTEX
  8
1
 10
249.6953335892965
 20
306.6610453153596
 30
0
 42
0.0005209755888217935
  0
VERTEX
  8
1
 10
249.0747573752392
 20
306.635780433629
 30
0
 42
0.0003134104114311925
  0
VERTEX
  8
1
 10
248.4547341485097
 20
306.6095016014543
 30
0
 42
0.0001042969048595021
  0
VERTEX
  8
1
 10
247.8349874154441
 20
306.5827157940576
 30
0
  0
SEQEND
  8
1
  0
POLYLINE
  8
1
 62
3
 66
1
  0
VERTEX
  8
1
 10
264.1614343590152
 20
307.697845371639
 30
0
 42
0.0003148701003386575
  0
VERTEX
  8
1
 10
263.8702471432052
 20
307.6767087859553
 30
0
 42
0.0009449789259565944
  0
VERTEX
  8
1
 10
263.5791989185154
 20
307.6548449353972
 30
0
 42
0.001576883993646828
  0
VERTEX
  8
1
 10
263.2884286760657
 20
307.6315265550905
 30
0
 42
0.002211090619907394
  0
VERTEX
  8
1
 10
262.9980754069761
 20
307.6060263801608
 30
0
 42
0.002848557154331157
  0
VERTEX
  8
1
 10
262.7082781023668
 20
307.5776171457339
 30
0
 42
0.006756412269241627
  0
VERTEX
  8
1
 10
262.0436484655007
 20
307.4995466189001
 30
0
 42
0.003949607810008433
  0
VERTEX
  8
1
 10
261.3809706780486
 20
307.4072819837328
 30
0
 42
0.002819681200445126
  0
VERTEX
  8
1
 10
260.7185159223956
 20
307.3058880589625
 30
0
 42
0.0004244089955996883
  0
VERTEX
  8
1
 10
260.0545553809274
 20
307.2004296633203
 30
0
 42
-0.001526779813678023
  0
VERTEX
  8
1
 10
259.3873602360291
 20
307.0959716155371
 30
0
 42
-0.003828713700514553
  0
VERTEX
  8
1
 10
258.9220286111189
 20
307.0278553008479
 30
0
 42
-0.008077299979996766
  0
VERTEX
  8
1
 10
258.4556740904637
 20
306.9708791808341
 30
0
 42
-0.01246650744843921
  0
VERTEX
  8
1
 10
257.9896623770094
 20
306.9332646470227
 30
0
 42
-0.01702945909614451
  0
VERTEX
  8
1
 10
257.5253591737013
 20
306.9232330909405
 30
0
 42
-0.05240043144343799
  0
VERTEX
  8
1
 10
256.4142587244169
 20
307.0541257365228
 30
0
 42
-0.01461122410692901
  0
VERTEX
  8
1
 10
255.7699353121871
 20
307.2150233108347
 30
0
 42
-0.002053019632184883
  0
VERTEX
  8
1
 10
255.1277091676444
 20
307.3982449156949
 30
0
 42
0.01039734553728064
  0
VERTEX
  8
1
 10
254.4841295116372
 20
307.5703368397482
 30
0
 42
0.0231606879110068
  0
VERTEX
  8
1
 10
253.835745565014
 20
307.697845371639
 30
0
 42
0.02682260581789044
  0
VERTEX
  8
1
 10
253.2450561328437
 20
307.7536729028132
 30
0
 42
0.01284867864466514
  0
VERTEX
  8
1
 10
252.649335299893
 20
307.7625523518285
 30
0
 42
0.01264018664577108
  0
VERTEX
  8
1
 10
252.0502581762718
 20
307.7409338511185
 30
0
 42
0.002393804698136016
  0
VERTEX
  8
1
 10
251.4494998720899
 20
307.7052675331163
 30
0
 42
-0.004389826407127629
  0
VERTEX
  8
1
 10
250.8487354974572
 20
307.6720035302558
 30
0
 42
-0.007114942061523052
  0
VERTEX
  8
1
 10
250.2439470189709
 20
307.6541421638368
 30
0
 42
-0.00556355205095253
  0
VERTEX
  8
1
 10
249.6405177818736
 20
307.6516339538816
 30
0
 42
-0.003986604090447129
  0
VERTEX
  8
1
 10
249.0381079758183
 20
307.6606406112742
 30
0
 42
-0.002396062566049795
  0
VERTEX
  8
1
 10
248.4363777904575
 20
307.6773238468986
 30
0
 42
-0.0007992743058735138
  0
VERTEX
  8
1
 10
247.8349874154441
 20
307.697845371639
 30
0
  0
SEQEND
  8
1
  0
POLYLINE
  8
1
 62
3
 66
1
  0
VERTEX
  8
1
 10
247.8349874154441
 20
296.697845371639
 30
0
 42
0.000152056353142536
  0
VERTEX
  8
1
 10
248.7354181274802
 20
296.743756705198
 30
0
 42
0.0004559430652219901
  0
VERTEX
  8
1
 10
249.6361272846188
 20
296.7907804134829
 30
0
 42
0.0007586958597444461
  0
VERTEX
  8
1
 10
250.5373933319626
 20
296.8400288712196
 30
0
 42
0.00105984356305247
  0
VERTEX
  8
1
 10
251.4394947146142
 20
296.8926144531341
 30
0
 42
0.001358440646104411
  0
VERTEX
  8
1
 10
252.3427098776761
 20
296.9496495339522
 30
0
 42
0.001876121247684828
  0
VERTEX
  8
1
 10
252.9525018246727
 20
296.9921181189431
 30
0
 42
0.005028464223639092
  0
VERTEX
  8
1
 10
253.5614028466483
 20
297.0429824751548
 30
0
 42
0.006786548224147482
  0
VERTEX
  8
1
 10
254.167888474791
 20
297.1081073969868
 30
0
 42
0.01000373869092048
  0
VERTEX
  8
1
 10
254.770434240289
 20
297.1933576788384
 30
0
 42
0.01181943118269526
  0
VERTEX
  8
1
 10
255.3675156743303
 20
297.3045981151089
 30
0
 42
0.02260296103170681
  0
VERTEX
  8
1
 10
256.3579454704745
 20
297.5606967627499
 30
0
 42
0.0177682957790962
  0
VERTEX
  8
1
 10
257.3275725939595
 20
297.8968994279938
 30
0
 42
0.01769407885010595
  0
VERTEX
  8
1
 10
258.2754326831966
 20
298.3028871145484
 30
0
 42
0.01304024145651231
  0
VERTEX
  8
1
 10
259.200561376597
 20
298.7683408261215
 30
0
 42
0.0132520998136348
  0
VERTEX
  8
1
 10
260.1019943125721
 20
299.282941566421
 30
0
 42
0.006507225468277291
  0
VERTEX
  8
1
 10
260.921050127457
 20
299.7944441239372
 30
0
 42
0.0003492312930186219
  0
VERTEX
  8
1
 10
261.730696355412
 20
300.3156371121771
 30
0
 42
-0.006990503468273891
  0
VERTEX
  8
1
 10
262.5428896685124
 20
300.8225692021806
 30
0
 42
-0.01414273780463104
  0
VERTEX
  8
1
 10
263.3695867388331
 20
301.2912890649878
 30
0
 42
-0.02139598757927912
  0
VERTEX
  8
1
 10
264.2227442384493
 20
301.697845371639
 30
0
 42
-0.01756986365218977
  0
VERTEX
  8
1
 10
264.9168032398146
 20
301.9614829180983
 30
0
 42
-0.01351685745494546
  0
VERTEX
  8
1
 10
265.6297886638689
 20
302.1826954335847
 30
0
 42
-0.00952874576611753
  0
VERTEX
  8
1
 10
266.3569689049402
 20
302.3720891758414
 30
0
 42
-0.005654478827575102
  0
VERTEX
  8
1
 10
267.093612357356
 20
302.5402704026118
 30
0
 42
-0.001873214916165234
  0
VERTEX
  8
1
 10
267.8349874154441
 20
302.697845371639
 30
0
  0
SEQEND
  8
1
  0
POLYLINE
  8
1
 62
3
 66
1
  0
VERTEX
  8
1
 10
247.8349874154441
 20
297.697845371639
 30
0
 42
0.000152056353142536
  0
VERTEX
  8
1
 10
248.7354181274802
 20
297.743756705198
 30
0
 42
0.0004559430652219901
  0
VERTEX
  8
1
 10
249.6361272846188
 20
297.7907804134829
 30
0
 42
0.0007586958597444461
  0
VERTEX
  8
1
 10
250.5373933319626
 20
297.8400288712196
 30
0
 42
0.00105984356305247
  0
VERTEX
  8
1
 10
251.4394947146142
 20
297.8926144531341
 30
0
 42
0.001358440646104411
  0
VERTEX
  8
1
 10
252.3427098776761
 20
297.9496495339522
 30
0
 42
0.001876121247638476
  0
VERTEX
  8
1
 10
252.9525018246727
 20
297.992118118943
 30
0
 42
0.005028464223824394
  0
VERTEX
  8
1
 10
253.5614028466483
 20
298.0429824751549
 30
0
 42
0.006786548223822893
  0
VERTEX
  8
1
 10
254.167888474791
 20
298.1081073969868
 30
0
 42
0.01000373869129161
  0
VERTEX
  8
1
 10
254.770434240289
 20
298.1933576788384
 30
0
 42
0.01181943118232439
  0
VERTEX
  8
1
 10
255.3675156743303
 20
298.3045981151089
 30
0
 42
0.0226029610320777
  0
VERTEX
  8
1
 10
256.3579454704745
 20
298.5606967627499
 30
0
 42
0.01776829577869895
  0
VERTEX
  8
1
 10
257.3275725939595
 20
298.8968994279937
 30
0
 42
0.01769407885055551
  0
VERTEX
  8
1
 10
258.2754326831966
 20
299.3028871145484
 30
0
 42
0.0130402414560375
  0
VERTEX
  8
1
 10
259.200561376597
 20
299.7683408261215
 30
0
 42
0.01325209981410939
  0
VERTEX
  8
1
 10
260.1019943125721
 20
300.282941566421
 30
0
 42
0.006507225467803317
  0
VERTEX
  8
1
 10
260.921050127457
 20
300.7944441239372
 30
0
 42
0.0003492312934923541
  0
VERTEX
  8
1
 10
261.730696355412
 20
301.3156371121771
 30
0
 42
-0.006990503468222819
  0
VERTEX
  8
1
 10
262.5428896685124
 20
301.8225692021806
 30
0
 42
-0.0141427378045804
  0
VERTEX
  8
1
 10
263.3695867388331
 20
302.2912890649878
 30
0
 42
-0.02139598757938775
  0
VERTEX
  8
1
 10
264.2227442384493
 20
302.697845371639
 30
0
 42
-0.01756986365218977
  0
VERTEX
  8
1
 10
264.9168032398146
 20
302.9614829180983
 30
0
 42
-0.01351685745479977
  0
VERTEX
  8
1
 10
265.6297886638689
 20
303.1826954335847
 30
0
 42
-0.00952874576611753
  0
VERTEX
  8
1
 10
266.3569689049402
 20
303.3720891758414
 30
0
 42
-0.005654478827428326
  0
VERTEX
  8
1
 10
267.093612357356
 20
303.5402704026118
 30
0
 42
-0.001873214916312005
  0
VERTEX
  8
1
 10
267.8349874154441
 20
303.697845371639
 30
0
  0
SEQEND
  8
1
  0
POLYLINE
  8
1
 62
3
 66
1
  0
VERTEX
  8
1
 10
247.8349874154441
 20
299.197845371639
 30
0
 42
0.001250144812356613
  0
VERTEX
  8
1
 10
248.5730701806755
 20
299.1681452120798
 30
0
 42
0.003757595866992701
  0
VERTEX
  8
1
 10
249.3103725008002
 20
299.1458700924104
 30
0
 42
0.006297950553665731
  0
VERTEX
  8
1
 10
250.0461139307116
 20
299.1384450525206
 30
0
 42
0.008870900991232533
  0
VERTEX
  8
1
 10
250.7795140253028
 20
299.1532951323002
 30
0
 42
0.01147156471205259
  0
VERTEX
  8
1
 10
251.5097923394672
 20
299.197845371639
 30
0
 42
0.0125479215528839
  0
VERTEX
  8
1
 10
252.2649432583501
 20
299.2804580770334
 30
0
 42
0.007042539110128952
  0
VERTEX
  8
1
 10
253.0177020863281
 20
299.3927985661291
 30
0
 42
0.005557307952596435
  0
VERTEX
  8
1
 10
253.7698902353172
 20
299.5245079768746
 30
0
 42
9.171228502619829e-005
  0
VERTEX
  8
1
 10
254.5233291172335
 20
299.6652274472183
 30
0
 42
-0.002321053770503747
  0
VERTEX
  8
1
 10
255.2798401439932
 20
299.8045981151089
 30
0
 42
-0.001201310525954828
  0
VERTEX
  8
1
 10
256.0968759670246
 20
299.9464754516151
 30
0
 42
0.005027277254631635
  0
VERTEX
  8
1
 10
256.9119417121445
 20
300.0944308524884
 30
0
 42
0.0113504480358108
  0
VERTEX
  8
1
 10
257.7174132087857
 20
300.2680696023056
 30
0
 42
0.01794427143865461
  0
VERTEX
  8
1
 10
258.5056662863809
 20
300.4869969856432
 30
0
 42
0.04827825323438999
  0
VERTEX
  8
1
 10
259.9668300910089
 20
301.1104168497316
 30
0
 42
0.008490223132607539
  0
VERTEX
  8
1
 10
260.6464824157746
 20
301.4966208577768
 30
0
 42
0.003152034215568769
  0
VERTEX
  8
1
 10
261.3191926505349
 20
301.8998828642666
 30
0
 42
-0.009118567119047009
  0
VERTEX
  8
1
 10
261.9961196971642
 20
302.2906554222544
 30
0
 42
-0.01940348389060309
  0
VERTEX
  8
1
 10
262.6884224575372
 20
302.6393910847933
 30
0
 42
-0.03006721513026394
  0
VERTEX
  8
1
 10
263.6598394096077
 20
303.0072722550476
 30
0
 42
-0.02315593798550667
  0
VERTEX
  8
1
 10
264.6698537213522
 20
303.2710265500451
 30
0
 42
-0.01618042258613598
  0
VERTEX
  8
1
 10
265.7088160528521
 20
303.4566856886
 30
0
 42
-0.009504695469746216
  0
VERTEX
  8
1
 10
266.7670770641889
 20
303.5902813895266
 30
0
 42
-0.003129060246778163
  0
VERTEX
  8
1
 10
267.8349874154441
 20
303.697845371639
 30
0
  0
SEQEND
  8
1
  0
POLYLINE
  8
1
 62
3
 66
1
  0
VERTEX
  8
1
 10
247.8349874154441
 20
300.197845371639
 30
0
 42
0.001152801735499505
  0
VERTEX
  8
1
 10
248.5724339620382
 20
300.1705117211779
 30
0
 42
0.003463756523333281
  0
VERTEX
  8
1
 10
249.309259118185
 20
300.150011483332
 30
0
 42
0.005799164164959338
  0
VERTEX
  8
1
 10
250.0448414934369
 20
300.1431780707168
 30
0
 42
0.008158172994223948
  0
VERTEX
  8
1
 10
250.7785596973468
 20
300.1568448959473
 30
0
 42
0.01053592694621437
  0
VERTEX
  8
1
 10
251.5097923394672
 20
300.197845371639
 30
0
 42
0.01177436222898868
  0
VERTEX
  8
1
 10
252.2666089572674
 20
300.27426226413
 30
0
 42
0.007768041546527954
  0
VERTEX
  8
1
 10
253.0210464152265
 20
300.3803588413219
 30
0
 42
0.006923755484349882
  0
VERTEX
  8
1
 10
253.7740803447382
 20
300.5089222466153
 30
0
 42
0.002936010792962897
  0
VERTEX
  8
1
 10
254.5266863771959
 20
300.6527396234108
 30
0
 42
0.002137160403598889
  0
VERTEX
  8
1
 10
255.2798401439932
 20
300.8045981151089
 30
0
 42
0.0005152325849717948
  0
VERTEX
  8
1
 10
256.0989065883757
 20
300.9742730826965
 30
0
 42
0.008980172020060696
  0
VERTEX
  8
1
 10
256.913567951732
 20
301.1592357793462
 30
0
 42
0.009777534549141228
  0
VERTEX
  8
1
 10
257.7176197559342
 20
301.3737955967728
 30
0
 42
0.01845505424854445
  0
VERTEX
  8
1
 10
258.5048575228539
 20
301.6322619266909
 30
0
 42
0.03922143116295767
  0
VERTEX
  8
1
 10
259.9622748846172
 20
302.3051514068344
 30
0
 42
0.006762279807261368
  0
VERTEX
  8
1
 10
260.6402774562398
 20
302.6973824620462
 30
0
 42
-0.001664850240858312
  0
VERTEX
  8
1
 10
261.3136155410528
 20
303.0978131734833
 30
0
 42
-0.0111397204240489
  0
VERTEX
  8
1
 10
261.992820190878
 20
303.4786193881782
 30
0
 42
-0.02096863254685348
  0
VERTEX
  8
1
 10
262.6884224575372
 20
303.8119769531636
 30
0
 42
-0.03144394759791581
  0
VERTEX
  8
1
 10
263.6596146526564
 20
304.1516137463214
 30
0
 42
-0.02411662718852649
  0
VERTEX
  8
1
 10
264.6695540454171
 20
304.3829417998373
 30
0
 42
-0.0167798077642983
  0
VERTEX
  8
1
 10
265.7085538364089
 20
304.5330382986219
 30
0
 42
-0.009824377807886697
  0
VERTEX
  8
1
 10
266.7669272262213
 20
304.6289804275857
 30
0
 42
-0.003228644692633734
  0
VERTEX
  8
1
 10
267.8349874154441
 20
304.697845371639
 30
0
  0
SEQEND
  8
1
  0
POLYLINE
  8
1
 62
3
 66
1
  0
VERTEX
  8
1
 10
247.8349874154441
 20
301.697845371639
 30
0
 42
-0.0006197544448376277
  0
VERTEX
  8
1
 10
248.4638646335803
 20
301.7185671080122
 30
0
 42
-0.001858534659166204
  0
VERTEX
  8
1
 10
249.0929601342822
 20
301.7361746559769
 30
0
 42
-0.003094675195881826
  0
VERTEX
  8
1
 10
249.7224922001157
 20
301.747553827125
 30
0
 42
-0.00432491347553843
  0
VERTEX
  8
1
 10
250.3526791136464
 20
301.7495904330479
 30
0
 42
-0.005543773682275682
  0
VERTEX
  8
1
 10
250.9837391574402
 20
301.7391702853373
 30
0
 42
-0.004520796364551247
  0
VERTEX
  8
1
 10
251.7228364446342
 20
301.7104656459642
 30
0
 42
0.0007805678299825645
  0
VERTEX
  8
1
 10
252.4620243307037
 20
301.67622352667
 30
0
 42
0.006092705141633865
  0
VERTEX
  8
1
 10
253.199900800595
 20
301.6522012356926
 30
0
 42
0.01150964957823743
  0
VERTEX
  8
1
 10
253.9350638392544
 20
301.6541560812698
 30
0
 42
0.01700876146766899
  0
VERTEX
  8
1
 10
254.6661114316281
 20
301.697845371639
 30
0
 42
0.01240697077911479
  0
VERTEX
  8
1
 10
255.1311385003131
 20
301.7532191950875
 30
0
 42
0.006037178883467151
  0
VERTEX
  8
1
 10
255.5949502231754
 20
301.8258839450253
 30
0
 42
0.005589350941975705
  0
VERTEX
  8
1
 10
256.0585885670905
 20
301.9096094290497
 30
0
 42
0.000753304159593183
  0
VERTEX
  8
1
 10
256.5230954989336
 20
301.9981654547577
 30
0
 42
-0.002573584257803115
  0
VERTEX
  8
1
 10
256.9895129855801
 20
302.0853218297464
 30
0
 42
-0.001804763929005352
  0
VERTEX
  8
1
 10
257.5642826806127
 20
302.1855404280234
 30
0
 42
0.004933510209103586
  0
VERTEX
  8
1
 10
258.1378602275577
 20
302.2892450385324
 30
0
 42
0.01176870411057798
  0
VERTEX
  8
1
 10
258.7046146240674
 20
302.4113924653681
 30
0
 42
0.0188882747604291
  0
VERTEX
  8
1
 10
259.258914867794
 20
302.5669395126247
 30
0
 42
0.05449544957774372
  0
VERTEX
  8
1
 10
260.3574859139651
 20
303.0578443483555
 30
0
 42
0.005924946793886076
  0
VERTEX
  8
1
 10
260.9039518678709
 20
303.3861336285484
 30
0
 42
5.930991546669851e-005
  0
VERTEX
  8
1
 10
261.4470009691731
 20
303.7212797761346
 30
0
 42
-0.01842206213859608
  0
VERTEX
  8
1
 10
261.9991063689371
 20
304.0288517422737
 30
0
 42
-0.03355665101525262
  0
VERTEX
  8
1
 10
262.5727412182283
 20
304.2744184781252
 30
0
 42
-0.02601541318580509
  0
VERTEX
  8
1
 10
262.995723324189
 20
304.3952359076449
 30
0
 42
-0.01999312491775323
  0
VERTEX
  8
1
 10
263.4317324380046
 20
304.4773788865526
 30
0
 42
-0.01415542656714034
  0
VERTEX
  8
1
 10
263.8768760159387
 20
304.5301592526838
 30
0
 42
-0.00863273980434523
  0
VERTEX
  8
1
 10
264.3272615142546
 20
304.562888843874
 30
0
 42
-0.003342474864872156
  0
VERTEX
  8
1
 10
264.7789963892158
 20
304.5848794979588
 30
0
 42
-0.0009058135988726434
  0
VERTEX
  8
1
 10
265.3959440418694
 20
304.6106989774968
 30
0
 42
-0.0007135431988498621
  0
VERTEX
  8
1
 10
266.0090587295844
 20
304.6343675871668
 30
0
 42
-0.0005145810278932863
  0
VERTEX
  8
1
 10
266.6192986935954
 20
304.6564230444358
 30
0
 42
-0.0003107331201364716
  0
VERTEX
  8
1
 10
267.2276221751371
 20
304.6774030667709
 30
0
 42
-0.0001039106374703495
  0
VERTEX
  8
1
 10
267.8349874154441
 20
304.697845371639
 30
0
  0
SEQEND
  8
1
  0
POLYLINE
  8
1
 62
3
 66
1
  0
VERTEX
  8
1
 10
247.8349874154441
 20
302.697845371639
 30
0
 42
-0.0005686270056112215
  0
VERTEX
  8
1
 10
248.4641858103365
 20
302.7175532326746
 30
0
 42
-0.00170558365797835
  0
VERTEX
  8
1
 10
249.0935221936056
 20
302.7344003741362
 30
0
 42
-0.002841296066369078
  0
VERTEX
  8
1
 10
249.7231345536281
 20
302.7455260764498
 30
0
 42
-0.003973764666428544
  0
VERTEX
  8
1
 10
250.3531608787808
 20
302.7480696200415
 30
0
 42
-0.005099253580780476
  0
VERTEX
  8
1
 10
250.9837391574402
 20
302.7391702853373
 30
0
 42
-0.0042224636617119
  0
VERTEX
  8
1
 10
251.7218656282059
 20
302.7135302725749
 30
0
 42
0.000543985009835584
  0
VERTEX
  8
1
 10
252.4600508765365
 20
302.6824532318742
 30
0
 42
0.005315690746814678
  0
VERTEX
  8
1
 10
253.1974101169032
 20
302.6600637061848
 30
0
 42
0.0101494650313619
  0
VERTEX
  8
1
 10
253.9330585637767
 20
302.6604862384565
 30
0
 42
0.01502468512810317
  0
VERTEX
  8
1
 10
254.6661114316281
 20
302.697845371639
 30
0
 42
0.01137546385985507
  0
VERTEX
  8
1
 10
255.1332756872374
 20
302.74647262619
 30
0
 42
0.007443944908772347
  0
VERTEX
  8
1
 10
255.5991070104577
 20
302.8127619988479
 30
0
 42
0.007896505749706293
  0
VERTEX
  8
1
 10
256.0636963612685
 20
302.893485390041
 30
0
 42
0.00399718284710213
  0
VERTEX
  8
1
 10
256.5271346996494
 20
302.9854147001978
 30
0
 42
0.004492470942390021
  0
VERTEX
  8
1
 10
256.9895129855801
 20
303.0853218297464
 30
0
 42
0.002764412573843769
  0
VERTEX
  8
1
 10
257.5639486922733
 20
303.2181959535199
 30
0
 42
0.009311519232665488
  0
VERTEX
  8
1
 10
258.1343037496202
 20
303.3647224027537
 30
0
 42
0.008520636601435911
  0
VERTEX
  8
1
 10
258.6980026507016
 20
303.5311764929396
 30
0
 42
0.01512273039576875
  0
VERTEX
  8
1
 10
259.2524698885981
 20
303.7238335395692
 30
0
 42
0.01430393938658991
  0
VERTEX
  8
1
 10
259.7951299563901
 20
303.9489688581342
 30
0
 42
0.01731454526690419
  0
VERTEX
  8
1
 10
260.3503955390986
 20
304.2216539732568
 30
0
 42
0.00350448062270149
  0
VERTEX
  8
1
 10
260.8978207995375
 20
304.513738643578
 30
0
 42
-0.006277921058109245
  0
VERTEX
  8
1
 10
261.445374394806
 20
304.8020257183372
 30
0
 42
-0.01631292714569655
  0
VERTEX
  8
1
 10
262.0010249820033
 20
305.0633180467733
 30
0
 42
-0.02662680848156927
  0
VERTEX
  8
1
 10
262.5727412182283
 20
305.2744184781252
 30
0
 42
-0.02074436175730549
  0
VERTEX
  8
1
 10
263.0001830474955
 20
305.3854113634003
 30
0
 42
-0.01631089988909931
  0
VERTEX
  8
1
 10
263.4373749919172
 20
305.4649486264765
 30
0
 42
-0.01199063797525035
  0
VERTEX
  8
1
 10
263.8814715388042
 20
305.5200355488985
 30
0
 42
-0.007845844435905174
  0
VERTEX
  8
1
 10
264.3296271754669
 20
305.557677412211
 30
0
 42
-0.003838265878928737
  0
VERTEX
  8
1
 10
264.7789963892158
 20
305.5848794979588
 30
0
 42
-0.002306500364990951
  0
VERTEX
  8
1
 10
265.3938839815867
 20
305.6152371858125
 30
0
 42
-0.001809730331396598
  0
VERTEX
  8
1
 10
266.0063119825407
 20
305.6404185315877
 30
0
 42
-0.001301101934873383
  0
VERTEX
  8
1
 10
266.6168952899321
 20
305.6617176208041
 30
0
 42
-0.0007840297046654295
  0
VERTEX
  8
1
 10
267.2262488016153
 20
305.6804285389814
 30
0
 42
-0.0002619039524187602
  0
VERTEX
  8
1
 10
267.8349874154441
 20
305.697845371639
 30
0
  0
SEQEND
  8
1
  0
POLYLINE
  8
1
 62
3
 66
1
  0
VERTEX
  8
1
 10
247.8349874154441
 20
304.197845371639
 30
0
 42
-0.0002378208919205764
  0
VERTEX
  8
1
 10
248.4645019423749
 20
304.205012113223
 30
0
 42
-0.0007133573778277431
  0
VERTEX
  8
1
 10
249.0940754246728
 20
304.2109816771069
 30
0
 42
-0.001188552287347537
  0
VERTEX
  8
1
 10
249.7237668177049
 20
304.2145568855907
 30
0
 42
-0.001663092467059213
  0
VERTEX
  8
1
 10
250.3536350768383
 20
304.2145405609743
 30
0
 42
-0.002136537293388887
  0
VERTEX
  8
1
 10
250.9837391574402
 20
304.2097355255578
 30
0
 42
-0.001865631803425538
  0
VERTEX
  8
1
 10
251.796020621551
 20
304.196265287553
 30
0
 42
0.0005141892357669075
  0
VERTEX
  8
1
 10
252.608346482306
 20
304.1805985734899
 30
0
 42
0.002895590790910165
  0
VERTEX
  8
1
 10
253.4202716846339
 20
304.1704779630373
 30
0
 42
0.005289608783375799
  0
VERTEX
  8
1
 10
254.2313511734633
 20
304.1736460358641
 30
0
 42
0.007694918188609471
  0
VERTEX
  8
1
 10
255.0411398937231
 20
304.197845371639
 30
0
 42
0.004343499979149661
  0
VERTEX
  8
1
 10
255.4731561314572
 20
304.2211757655859
 30
0
 42
0.000285997523298862
  0
VERTEX
  8
1
 10
255.9051473243376
 20
304.2485183741287
 30
0
 42
-0.001341803219790887
  0
VERTEX
  8
1
 10
256.3375838256999
 20
304.2756734546193
 30
0
 42
-0.0037669036325977
  0
VERTEX
  8
1
 10
256.7709359888793
 20
304.2984412644101
 30
0
 42
-0.006169435875749734
  0
VERTEX
  8
1
 10
257.2056741672113
 20
304.3126220608533
 30
0
 42
-0.004876619092776399
  0
VERTEX
  8
1
 10
257.6759839599218
 20
304.3162396538149
 30
0
 42
0.001180039295947077
  0
VERTEX
  8
1
 10
258.1465231800713
 20
304.3163849190481
 30
0
 42
0.007259670784879607
  0
VERTEX
  8
1
 10
258.6153641030643
 20
304.324444096447
 30
0
 42
0.01351855179292787
  0
VERTEX
  8
1
 10
259.0805790043054
 20
304.3518034259054
 30
0
 42
0.01992093400979164
  0
VERTEX
  8
1
 10
259.5402401591992
 20
304.409849147317
 30
0
 42
0.03139252909796664
  0
VERTEX
  8
1
 10
260.2088932312768
 20
304.565151743194
 30
0
 42
0.01336612539533128
  0
VERTEX
  8
1
 10
260.8667236073653
 20
304.781479620329
 30
0
 42
0.00804157592545139
  0
VERTEX
  8
1
 10
261.5193296506779
 20
305.027512960517
 30
0
 42
-0.006199739085142467
  0
VERTEX
  8
1
 10
262.1723097244275
 20
305.2719319455529
 30
0
 42
-0.01768287072619908
  0
VERTEX
  8
1
 10
262.8312621918271
 20
305.4834167572315
 30
0
 42
-0.03095415732675099
  0
VERTEX
  8
1
 10
263.8029437539364
 20
305.687695964461
 30
0
 42
-0.02393841117519154
  0
VERTEX
  8
1
 10
264.7940009711217
 20
305.7843795154585
 30
0
 42
-0.01676213531400993
  0
VERTEX
  8
1
 10
265.7995899296142
 20
305.800366324282
 30
0
 42
-0.009855059173506618
  0
VERTEX
  8
1
 10
266.8148667156447
 20
305.7625553049895
 30
0
 42
-0.003245338130062986
  0
VERTEX
  8
1
 10
267.8349874154441
 20
305.697845371639
 30
0
  0
SEQEND
  8
1
  0
POLYLINE
  8
1
 62
3
 66
1
  0
VERTEX
  8
1
 10
247.8349874154441
 20
305.197845371639
 30
0
 42
-0.0002335519104047373
  0
VERTEX
  8
1
 10
248.4645286664887
 20
305.2049266237078
 30
0
 42
-0.0007005663859825477
  0
VERTEX
  8
1
 10
249.0941221918719
 20
305.2108320704554
 30
0
 42
-0.001167288473389648
  0
VERTEX
  8
1
 10
249.7238202659324
 20
305.2143859065604
 30
0
 42
-0.001633442215188606
  0
VERTEX
  8
1
 10
250.353675163009
 20
305.2144123267016
 30
0
 42
-0.002098630677899211
  0
VERTEX
  8
1
 10
250.9837391574402
 20
305.2097355255578
 30
0
 42
-0.00183629650216449
  0
VERTEX
  8
1
 10
251.7959295631789
 20
305.1965565801345
 30
0
 42
0.0004944346747817618
  0
VERTEX
  8
1
 10
252.6081593969643
 20
305.1811970530237
 30
0
 42
0.002826535781167274
  0
VERTEX
  8
1
 10
253.4200341015089
 20
305.1712379832326
 30
0
 42
0.005169687816566819
  0
VERTEX
  8
1
 10
254.2311591195245
 20
305.1742604097686
 30
0
 42
0.007522252505565466
  0
VERTEX
  8
1
 10
255.0411398937231
 20
305.197845371639
 30
0
 42
0.004271185293955202
  0
VERTEX
  8
1
 10
255.473323325111
 20
305.2206409188732
 30
0
 42
0.0004085886510438489
  0
VERTEX
  8
1
 10
255.9054680280141
 20
305.2474924541658
 30
0
 42
-0.001118848494265163
  0
VERTEX
  8
1
 10
256.3379744425721
 20
305.2744238847625
 30
0
 42
-0.003415133681327835
  0
VERTEX
  8
1
 10
256.7712430089247
 20
305.2974591179097
 30
0
 42
-0.00569471749779067
  0
VERTEX
  8
1
 10
257.2056741672113
 20
305.3126220608533
 30
0
 42
-0.004574985680663233
  0
VERTEX
  8
1
 10
257.6753901706442
 20
305.3181391651654
 30
0
 42
0.0009489473350114373
  0
VERTEX
  8
1
 10
258.1453136162821
 20
305.3202542717518
 30
0
 42
0.006488725919174146
  0
VERTEX
  8
1
 10
258.6138356594024
 20
305.3293335348285
 30
0
 42
0.01215971397451684
  0
VERTEX
  8
1
 10
259.0793474552824
 20
305.3557431086115
 30
0
 42
0.01793657943344822
  0
VERTEX
  8
1
 10
259.5402401591992
 20
305.409849147317
 30
0
 42
0.02806143278856097
  0
VERTEX
  8
1
 10
260.2070232167324
 20
305.5511581338126
 30
0
 42
0.01206734520055349
  0
VERTEX
  8
1
 10
260.8649444398474
 20
305.7468299774502
 30
0
 42
0.007302900515722474
  0
VERTEX
  8
1
 10
261.5185763374587
 20
305.9691222861635
 30
0
 42
-0.005441792991599392
  0
VERTEX
  8
1
 10
262.1724914184805
 20
306.1902926678866
 30
0
 42
-0.01567352639368055
  0
VERTEX
  8
1
 10
262.8312621918271
 20
306.3825987305534
 30
0
 42
-0.0276361422071737
  0
VERTEX
  8
1
 10
263.807905824393
 20
306.5724419642743
 30
0
 42
-0.02140139376503546
  0
VERTEX
  8
1
 10
264.8006170650639
 20
306.6658156353127
 30
0
 42
-0.01504769255772752
  0
VERTEX
  8
1
 10
265.8053790118136
 20
306.6868371343394
 30
0
 42
-0.008883408330750561
  0
VERTEX
  8
1
 10
266.8181747626157
 20
306.6596238520248
 30
0
 42
-0.002932426850899568
  0
VERTEX
  8
1
 10
267.8349874154441
 20
306.6082931790396
 30
0
  0
SEQEND
  8
1
  0
POLYLINE
  8
1
 62
3
 66
1
  0
VERTEX
  8
1
 10
247.8349874154441
 20
309.1666832249803
 30
0
 42
-0.001460442418308592
  0
VERTEX
  8
1
 10
248.4680159315747
 20
309.2027828597102
 30
0
 42
-0.004397959821721466
  0
VERTEX
  8
1
 10
249.1002249057725
 20
309.2314156930905
 30
0
 42
-0.007379722782484975
  0
VERTEX
  8
1
 10
249.7307947961046
 20
309.2451149237718
 30
0
 42
-0.01041556889196733
  0
VERTEX
  8
1
 10
250.3589060606381
 20
309.2364137504045
 30
0
 42
-0.01348354551985463
  0
VERTEX
  8
1
 10
250.9837391574402
 20
309.197845371639
 30
0
 42
-0.01852174853757477
  0
VERTEX
  8
1
 10
251.8069043697156
 20
309.0922139596416
 30
0
 42
-0.01562583279979293
  0
VERTEX
  8
1
 10
252.6235400521983
 20
308.9301157105582
 30
0
 42
-0.01270868136951191
  0
VERTEX
  8
1
 10
253.4343332021716
 20
308.7208331674734
 30
0
 42
-0.009851910915120846
  0
VERTEX
  8
1
 10
254.2399708169188
 20
308.473648873472
 30
0
 42
-0.007085593377720106
  0
VERTEX
  8
1
 10
255.0411398937231
 20
308.197845371639
 30
0
 42
-0.0001477941850536852
  0
VERTEX
  8
1
 10
255.4711040791549
 20
308.042328765644
 30
0
 42
0.005767172919145172
  0
VERTEX
  8
1
 10
255.9012557728724
 20
307.8921719481244
 30
0
 42
0.01182779522924947
  0
VERTEX
  8
1
 10
256.3328788012228
 20
307.7583406593934
 30
0
 42
0.01824629362283931
  0
VERTEX
  8
1
 10
256.7672569905534
 20
307.6518006397645
 30
0
 42
0.02476807313182988
  0
VERTEX
  8
1
 10
257.2056741672113
 20
307.5835176295509
 30
0
 42
0.02753061669686252
  0
VERTEX
  8
1
 10
257.6665398250729
 20
307.5604855089149
 30
0
 42
0.0148133658598054
  0
VERTEX
  8
1
 10
258.1317924134941
 20
307.5766537981095
 30
0
 42
0.01190430324272917
  0
VERTEX
  8
1
 10
258.6000687721834
 20
307.6180489091141
 30
0
 42
0.002183927244518481
  0
VERTEX
  8
1
 10
259.0700057408489
 20
307.6706972539082
 30
0
 42
-0.005081831714958933
  0
VERTEX
  8
1
 10
259.5402401591992
 20
307.7206252444713
 30
0
 42
-0.01107023940317245
  0
VERTEX
  8
1
 10
260.2006426926428
 20
307.7670731326243
 30
0
 42
-0.008484735428462618
  0
VERTEX
  8
1
 10
260.859440240996
 20
307.7875505064303
 30
0
 42
-0.005824984950410507
  0
VERTEX
  8
1
 10
261.5171387258904
 20
307.7891533844977
 30
0
 42
-0.003132588015591738
  0
VERTEX
  8
1
 10
262.174244068957
 20
307.778977785435
 30
0
 42
-0.0004300197766665358
  0
VERTEX
  8
1
 10
262.8312621918271
 20
307.7641197278508
 30
0
 42
0.001259723772489901
  0
VERTEX
  8
1
 10
263.8308457575747
 20
307.7441696340347
 30
0
 42
0.0009782375385798091
  0
VERTEX
  8
1
 10
264.8312036426395
 20
307.7286830219344
 30
0
 42
0.0006981689223462457
  0
VERTEX
  8
1
 10
265.8321422671922
 20
307.716544021121
 30
0
 42
0.0004184329134697298
  0
VERTEX
  8
1
 10
266.8334680514035
 20
307.7066367611655
 30
0
 42
0.0001395634116762855
  0
VERTEX
  8
1
 10
267.8349874154441
 20
307.697845371639
 30
0
  0
SEQEND
  8
1
  0
POLYLINE
  8
1
 62
3
 66
1
  0
VERTEX
  8
1
 10
247.8349874154441
 20
310.197845371639
 30
0
 42
-0.001393915121758854
  0
VERTEX
  8
1
 10
248.4680227315522
 20
310.2262866764657
 30
0
 42
-0.004196304011973576
  0
VERTEX
  8
1
 10
249.100236805733
 20
310.2476176550857
 30
0
 42
-0.007037433262232204
  0
VERTEX
  8
1
 10
249.7308083960594
 20
310.2547279812924
 30
0
 42
-0.009926024469205114
  0
VERTEX
  8
1
 10
250.3589162606043
 20
310.2405073288791
 30
0
 42
-0.01284330496700263
  0
VERTEX
  8
1
 10
250.9837391574402
 20
310.197845371639
 30
0
 42
-0.01770265890858784
  0
VERTEX
  8
1
 10
251.8069189125486
 20
310.0893079030261
 30
0
 42
-0.01507171499089466
  0
VERTEX
  8
1
 10
252.6235576633125
 20
309.92659652726
 30
0
 42
-0.01241504341036781
  0
VERTEX
  8
1
 10
253.4343466101506
 20
309.7181538858006
 30
0
 42
-0.009804710122961443
  0
VERTEX
  8
1
 10
254.2399769534813
 20
309.4724226201071
 30
0
 42
-0.007270830576777254
  0
VERTEX
  8
1
 10
255.0411398937231
 20
309.197845371639
 30
0
 42
-0.0002864829081249951
  0
VERTEX
  8
1
 10
255.4711025436971
 20
309.0426355921934
 30
0
 42
0.005668233751524727
  0
VERTEX
  8
1
 10
255.9012538595977
 20
308.8925542728465
 30
0
 42
0.01176641970663814
  0
VERTEX
  8
1
 10
256.3328772778601
 20
308.7586450690136
 30
0
 42
0.01822351206901622
  0
VERTEX
  8
1
 10
256.7672562349196
 20
308.6519516361099
 30
0
 42
0.02478922320253063
  0
VERTEX
  8
1
 10
257.2056741672113
 20
308.5835176295507
 30
0
 42
0.02758139801199249
  0
VERTEX
  8
1
 10
257.6665402696065
 20
308.5603966789107
 30
0
 42
0.01483379378741754
  0
VERTEX
  8
1
 10
258.1317929742893
 20
308.5765417358565
 30
0
 42
0.0119312775030838
  0
VERTEX
  8
1
 10
258.6000692269732
 20
308.6179580296143
 30
0
 42
0.002190478925719462
  0
VERTEX
  8
1
 10
259.070005973372
 20
308.6706507894105
 30
0
 42
-0.005086201687145697
  0
VERTEX
  8
1
 10
259.5402401591992
 20
308.7206252444713
 30
0
 42
-0.01108267781621162
  0
VERTEX
  8
1
 10
260.2006424951561
 20
308.7671125958811
 30
0
 42
-0.008493923054693887
  0
VERTEX
  8
1
 10
260.8594399902216
 20
308.7876006180258
 30
0
 42
-0.005830763332873018
  0
VERTEX
  8
1
 10
261.5171385205716
 20
308.7891944128037
 30
0
 42
-0.003134911106186857
  0
VERTEX
  8
1
 10
262.1742439623816
 20
308.7789990821127
 30
0
 42
-0.0004288851271532043
  0
VERTEX
  8
1
 10
262.8312621918271
 20
308.7641197278508
 30
0
 42
0.001263637240729788
  0
VERTEX
  8
1
 10
263.8308458619428
 20
308.7441487784144
 30
0
 42
0.0009812774421882253
  0
VERTEX
  8
1
 10
264.831203781797
 20
308.7286552144407
 30
0
 42
0.0007003385916655078
  0
VERTEX
  8
1
 10
265.8321423889551
 20
308.7165196895641
 30
0
 42
0.0004197335024481283
  0
VERTEX
  8
1
 10
266.8334681209823
 20
308.7066228574187
 30
0
 42
0.0001399970765504431
  0
VERTEX
  8
1
 10
267.8349874154441
 20
308.697845371639
 30
0
  0
SEQEND
  8
1
  0
POLYLINE
  8
1
 62
3
 66
1
  0
VERTEX
  8
1
 10
247.8349874154441
 20
311.69188575027
 30
0
 42
-0.001487848289167672
  0
VERTEX
  8
1
 10
248.4670808098432
 20
311.7233636808893
 30
0
 42
-0.004476505034250554
  0
VERTEX
  8
1
 10
249.0985884427423
 20
311.7472701099222
 30
0
 42
-0.007497884543777428
  0
VERTEX
  8
1
 10
249.7289245526415
 20
311.7560335357824
 30
0
 42
-0.0105526530890514
  0
VERTEX
  8
1
 10
250.3575033780408
 20
311.7420824568835
 30
0
 42
-0.01360823765812571
  0
VERTEX
  8
1
 10
250.9837391574402
 20
311.697845371639
 30
0
 42
-0.01778042054242363
  0
VERTEX
  8
1
 10
251.738419628582
 20
311.5955916330938
 30
0
 42
-0.01672861272996331
  0
VERTEX
  8
1
 10
252.4863980938989
 20
311.4411041328794
 30
0
 42
-0.01573533131197821
  0
VERTEX
  8
1
 10
253.2252735510637
 20
311.2377435019376
 30
0
 42
-0.01482389590196773
  0
VERTEX
  8
1
 10
253.9526449977492
 20
310.9888703712102
 30
0
 42
-0.01400939333536038
  0
VERTEX
  8
1
 10
254.6661114316281
 20
310.697845371639
 30
0
 42
-0.005755986491865007
  0
VERTEX
  8
1
 10
255.1290835930284
 20
310.4862247151078
 30
0
 42
0.0007264045253493324
  0
VERTEX
  8
1
 10
255.5889299582156
 20
310.2704117147884
 30
0
 42
0.00726623580383652
  0
VERTEX
  8
1
 10
256.0496303980978
 20
310.063118072516
 30
0
 42
0.01402911607733969
  0
VERTEX
  8
1
 10
256.5151647835832
 20
309.8770554901255
 30
0
 42
0.0209226501196343
  0
VERTEX
  8
1
 10
256.9895129855801
 20
309.7249356694524
 30
0
 42
0.02585205553152368
  0
VERTEX
  8
1
 10
257.5355841131521
 20
309.6046576195141
 30
0
 42
0.01307870543591741
  0
VERTEX
  8
1
 10
258.0934735695794
 20
309.5266358182875
 30
0
 42
0.01031549261503919
  0
VERTEX
  8
1
 10
258.6588891593019
 20
309.4743766131058
 30
0
 42
0.000482758953573399
  0
VERTEX
  8
1
 10
259.2275386867589
 20
309.4313863513024
 30
0
 42
-0.006885535425679687
  0
VERTEX
  8
1
 10
259.7951299563901
 20
309.3811713802104
 30
0
 42
-0.008649353238040808
  0
VERTEX
  8
1
 10
260.3545622549859
 20
309.3119820228808
 30
0
 42
-0.004805729940507402
  0
VERTEX
  8
1
 10
260.9103779872045
 20
309.2279885038184
 30
0
 42
-0.0009220831191694706
  0
VERTEX
  8
1
 10
261.464238696309
 20
309.1377843260955
 30
0
 42
0.002980105105027998
  0
VERTEX
  8
1
 10
262.0178059255626
 20
309.0499629927844
 30
0
 42
0.006887240875530866
  0
VERTEX
  8
1
 10
262.5727412182283
 20
308.9731180069572
 30
0
 42
0.007194387541065089
  0
VERTEX
  8
1
 10
263.0118713006186
 20
308.9248678325919
 30
0
 42
0.004252160957188518
  0
VERTEX
  8
1
 10
263.4524722008171
 20
308.8866405723018
 30
0
 42
0.004734714785331344
  0
VERTEX
  8
1
 10
263.8941335769193
 20
308.8563077230304
 30
0
 42
0.001808389312364477
  0
VERTEX
  8
1
 10
264.3364450870204
 20
308.8317407817218
 30
0
 42
0.002305350999876389
  0
VERTEX
  8
1
 10
264.7789963892158
 20
308.8108112453194
 30
0
 42
3.675170230954975e-005
  0
VERTEX
  8
1
 10
265.390585682111
 20
308.7847580088182
 30
0
 42
0.001837690898010813
  0
VERTEX
  8
1
 10
266.0019142499065
 20
308.7610114801604
 30
0
 42
0.0005865993104888812
  0
VERTEX
  8
1
 10
266.6130472738772
 20
308.7389949823852
 30
0
 42
0.0003522223078473204
  0
VERTEX
  8
1
 10
267.2240499352981
 20
308.7181318385316
 30
0
 42
0.0001173843015205536
  0
VERTEX
  8
1
 10
267.8349874154441
 20
308.697845371639
 30
0
  0
SEQEND
  8
1
  0
POLYLINE
  8
1
 62
3
 66
1
  0
VERTEX
  8
1
 10
247.8349874154441
 20
312.69188575027
 30
0
 42
-0.001487848289167672
  0
VERTEX
  8
1
 10
248.4670808098432
 20
312.7233636808893
 30
0
 42
-0.004476505034250554
  0
VERTEX
  8
1
 10
249.0985884427423
 20
312.7472701099222
 30
0
 42
-0.007497884543777428
  0
VERTEX
  8
1
 10
249.7289245526415
 20
312.7560335357824
 30
0
 42
-0.0105526530890514
  0
VERTEX
  8
1
 10
250.3575033780408
 20
312.7420824568835
 30
0
 42
-0.01360823765830626
  0
VERTEX
  8
1
 10
250.9837391574402
 20
312.697845371639
 30
0
 42
-0.01778042054227592
  0
VERTEX
  8
1
 10
251.738419628582
 20
312.5955916330938
 30
0
 42
-0.01672861272996331
  0
VERTEX
  8
1
 10
252.4863980938989
 20
312.4411041328794
 30
0
 42
-0.01573533131197821
  0
VERTEX
  8
1
 10
253.2252735510637
 20
312.2377435019376
 30
0
 42
-0.01482389590196773
  0
VERTEX
  8
1
 10
253.9526449977492
 20
311.9888703712102
 30
0
 42
-0.01400939333522379
  0
VERTEX
  8
1
 10
254.6661114316281
 20
311.697845371639
 30
0
 42
-0.005755986492068185
  0
VERTEX
  8
1
 10
255.1290835930284
 20
311.4862247151078
 30
0
 42
0.0007264045253493324
  0
VERTEX
  8
1
 10
255.5889299582156
 20
311.2704117147884
 30
0
 42
0.00726623580383652
  0
VERTEX
  8
1
 10
256.0496303980978
 20
311.063118072516
 30
0
 42
0.01402911607733969
  0
VERTEX
  8
1
 10
256.5151647835832
 20
310.8770554901255
 30
0
 42
0.0209226501196343
  0
VERTEX
  8
1
 10
256.9895129855801
 20
310.7249356694524
 30
0
 42
0.02585205553157334
  0
VERTEX
  8
1
 10
257.5355841131521
 20
310.6046576195142
 30
0
 42
0.01307870543571814
  0
VERTEX
  8
1
 10
258.0934735695794
 20
310.5266358182875
 30
0
 42
0.01031549261543803
  0
VERTEX
  8
1
 10
258.6588891593019
 20
310.4743766131059
 30
0
 42
0.0004827589536728196
  0
VERTEX
  8
1
 10
259.2275386867589
 20
310.4313863513024
 30
0
 42
-0.006885535425679687
  0
VERTEX
  8
1
 10
259.7951299563901
 20
310.3811713802104
 30
0
 42
-0.008649353238240886
  0
VERTEX
  8
1
 10
260.3545622549859
 20
310.3119820228808
 30
0
 42
-0.004805729940507402
  0
VERTEX
  8
1
 10
260.9103779872045
 20
310.2279885038184
 30
0
 42
-0.0009220831191694706
  0
VERTEX
  8
1
 10
261.464238696309
 20
310.1377843260955
 30
0
 42
0.002980105105027998
  0
VERTEX
  8
1
 10
262.0178059255626
 20
310.0499629927844
 30
0
 42
0.006887240875530866
  0
VERTEX
  8
1
 10
262.5727412182283
 20
309.9731180069572
 30
0
 42
0.007194387541065089
  0
VERTEX
  8
1
 10
263.0118713006186
 20
309.9248678325919
 30
0
 42
0.004252160957124457
  0
VERTEX
  8
1
 10
263.4524722008171
 20
309.8866405723017
 30
0
 42
0.004734714785524305
  0
VERTEX
  8
1
 10
263.8941335769193
 20
309.8563077230304
 30
0
 42
0.001808389312107793
  0
VERTEX
  8
1
 10
264.3364450870204
 20
309.8317407817218
 30
0
 42
0.002305351000133185
  0
VERTEX
  8
1
 10
264.7789963892158
 20
309.8108112453194
 30
0
 42
3.675170209927351e-005
  0
VERTEX
  8
1
 10
265.390585682111
 20
309.7847580088182
 30
0
 42
0.001837690898128386
  0
VERTEX
  8
1
 10
266.0019142499065
 20
309.7610114801604
 30
0
 42
0.0005865993104888812
  0
VERTEX
  8
1
 10
266.6130472738772
 20
309.7389949823852
 30
0
 42
0.0003522223078938387
  0
VERTEX
  8
1
 10
267.2240499352981
 20
309.7181318385317
 30
0
 42
0.0001173843013811096
  0
VERTEX
  8
1
 10
267.8349874154441
 20
309.697845371639
 30
0
  0
SEQEND
  8
1
  0
POLYLINE
  8
1
 62
3
 66
1
  0
VERTEX
  8
1
 10
247.8349874154441
 20
314.197845371639
 30
0
 42
-0.002401515546320921
  0
VERTEX
  8
1
 10
248.579464477423
 20
314.2561535521915
 30
0
 42
-0.007270061773854455
  0
VERTEX
  8
1
 10
249.3215625201083
 20
314.2998846876059
 30
0
 42
-0.01231149283695265
  0
VERTEX
  8
1
 10
250.0589025242066
 20
314.314461732744
 30
0
 42
-0.01755354876929873
  0
VERTEX
  8
1
 10
250.789105470424
 20
314.2853076424677
 30
0
 42
-0.02286882021821507
  0
VERTEX
  8
1
 10
251.5097923394672
 20
314.197845371639
 30
0
 42
-0.02422950548636079
  0
VERTEX
  8
1
 10
252.2794654787942
 20
314.0265222286224
 30
0
 42
-0.01734588071485362
  0
VERTEX
  8
1
 10
253.0382167579315
 20
313.790022843236
 30
0
 42
-0.01066198829470844
  0
VERTEX
  8
1
 10
253.789136247858
 20
313.5090267514416
 30
0
 42
-0.004244675796584359
  0
VERTEX
  8
1
 10
254.5353140195522
 20
313.2042134892006
 30
0
 42
0.002052424584263283
  0
VERTEX
  8
1
 10
255.2798401439932
 20
312.8962625924746
 30
0
 42
0.006058712418284382
  0
VERTEX
  8
1
 10
256.0763819369952
 20
312.5818296699613
 30
0
 42
0.001620781604153223
  0
VERTEX
  8
1
 10
256.874071352977
 20
312.2810201814249
 30
0
 42
0.002483729581198288
  0
VERTEX
  8
1
 10
257.6724135354947
 20
311.9874271541453
 30
0
 42
-0.0006697605109805023
  0
VERTEX
  8
1
 10
258.4709136281046
 20
311.694643615402
 30
0
 42
-0.002478661273273925
  0
VERTEX
  8
1
 10
259.2690767743631
 20
311.3962625924746
 30
0
 42
-0.001095647322359574
  0
VERTEX
  8
1
 10
259.9464213477453
 20
311.1361367970164
 30
0
 42
0.002424872975792489
  0
VERTEX
  8
1
 10
260.6250973107094
 20
310.8775691930345
 30
0
 42
0.005958294520834761
  0
VERTEX
  8
1
 10
261.3070355552998
 20
310.6307699043092
 30
0
 42
0.00955954063334649
  0
VERTEX
  8
1
 10
261.9941669735609
 20
310.4059490546209
 30
0
 42
0.01321742970685508
  0
VERTEX
  8
1
 10
262.6884224575372
 20
310.21331676775
 30
0
 42
0.0207249285405538
  0
VERTEX
  8
1
 10
263.695530218315
 20
310.0062493230337
 30
0
 42
0.01367359041653595
  0
VERTEX
  8
1
 10
264.7174414662951
 20
309.8684973219802
 30
0
 42
0.01190594914388925
  0
VERTEX
  8
1
 10
265.7504553296772
 20
309.7827319036737
 30
0
 42
0.004970428984567867
  0
VERTEX
  8
1
 10
266.7908709366603
 20
309.7316242071985
 30
0
 42
0.003400932166047252
  0
VERTEX
  8
1
 10
267.8349874154441
 20
309.697845371639
 30
0
  0
SEQEND
  8
1
  0
POLYLINE
  8
1
 62
3
 66
1
  0
VERTEX
  8
1
 10
247.8349874154441
 20
315.197845371639
 30
0
 42
-0.002401515546169263
  0
VERTEX
  8
1
 10
248.579464477423
 20
315.2561535521915
 30
0
 42
-0.007270061773854455
  0
VERTEX
  8
1
 10
249.3215625201083
 20
315.2998846876059
 30
0
 42
-0.01231149283695265
  0
VERTEX
  8
1
 10
250.0589025242066
 20
315.314461732744
 30
0
 42
-0.01755354876929873
  0
VERTEX
  8
1
 10
250.789105470424
 20
315.2853076424677
 30
0
 42
-0.02286882021837036
  0
VERTEX
  8
1
 10
251.5097923394672
 20
315.197845371639
 30
0
 42
-0.02422950548643167
  0
VERTEX
  8
1
 10
252.2794654787942
 20
315.0265222286224
 30
0
 42
-0.01734588071492159
  0
VERTEX
  8
1
 10
253.0382167579315
 20
314.790022843236
 30
0
 42
-0.01066198829470844
  0
VERTEX
  8
1
 10
253.789136247858
 20
314.5090267514416
 30
0
 42
-0.004244675796453794
  0
VERTEX
  8
1
 10
254.5353140195522
 20
314.2042134892006
 30
0
 42
0.002052424584132832
  0
VERTEX
  8
1
 10
255.2798401439932
 20
313.8962625924746
 30
0
 42
0.00605871241841456
  0
VERTEX
  8
1
 10
256.0763819369952
 20
313.5818296699613
 30
0
 42
0.001620781604023438
  0
VERTEX
  8
1
 10
256.874071352977
 20
313.2810201814249
 30
0
 42
0.002483729581328018
  0
VERTEX
  8
1
 10
257.6724135354947
 20
312.9874271541453
 30
0
 42
-0.0006697605110428968
  0
VERTEX
  8
1
 10
258.4709136281046
 20
312.6946436154019
 30
0
 42
-0.00247866127333632
  0
VERTEX
  8
1
 10
259.2690767743631
 20
312.3962625924746
 30
0
 42
-0.001095647322359574
  0
VERTEX
  8
1
 10
259.9464213477453
 20
312.1361367970164
 30
0
 42
0.002424872975792489
  0
VERTEX
  8
1
 10
260.6250973107094
 20
311.8775691930345
 30
0
 42
0.005958294520834761
  0
VERTEX
  8
1
 10
261.3070355552998
 20
311.6307699043092
 30
0
 42
0.00955954063334649
  0
VERTEX
  8
1
 10
261.9941669735609
 20
311.4059490546209
 30
0
 42
0.01321742970685508
  0
VERTEX
  8
1
 10
262.6884224575372
 20
311.21331676775
 30
0
 42
0.0207249285405538
  0
VERTEX
  8
1
 10
263.695530218315
 20
311.0062493230337
 30
0
 42
0.01367359041656333
  0
VERTEX
  8
1
 10
264.7174414662951
 20
310.8684973219802
 30
0
 42
0.01190594914383439
  0
VERTEX
  8
1
 10
265.7504553296772
 20
310.7827319036737
 30
0
 42
0.004970428984595567
  0
VERTEX
  8
1
 10
266.7908709366603
 20
310.7316242071985
 30
0
 42
0.003400932166046753
  0
VERTEX
  8
1
 10
267.8349874154441
 20
310.697845371639
 30
0
  0
SEQEND
  8
1
  0
POLYLINE
  8
1
 62
3
 66
1
  0
VERTEX
  8
1
 10
247.8349874154441
 20
316.697845371639
 30
0
 42
-0.001282843573402849
  0
VERTEX
  8
1
 10
248.7442929527381
 20
316.5941190314321
 30
0
 42
-0.003855547891087371
  0
VERTEX
  8
1
 10
249.6516582288202
 20
316.4811606151354
 30
0
 42
-0.006445299873550559
  0
VERTEX
  8
1
 10
250.5551429824785
 20
316.3497380466596
 30
0
 42
-0.009049879607913066
  0
VERTEX
  8
1
 10
251.4528069525011
 20
316.1906192499149
 30
0
 42
-0.01164617623643137
  0
VERTEX
  8
1
 10
252.3427098776761
 20
315.9945721488117
 30
0
 42
-0.008743508454751444
  0
VERTEX
  8
1
 10
252.9590622741387
 20
315.8314888707478
 30
0
 42
-0.008173065875596708
  0
VERTEX
  8
1
 10
253.5701974094875
 20
315.6474574283477
 30
0
 42
-0.007621914706608123
  0
VERTEX
  8
1
 10
254.1756369262705
 20
315.4440781259641
 30
0
 42
-0.007091699757896596
  0
VERTEX
  8
1
 10
254.7749024670355
 20
315.2229512679498
 30
0
 42
-0.006583037128364061
  0
VERTEX
  8
1
 10
255.3675156743303
 20
314.9856771586573
 30
0
 42
-0.008713060780592799
  0
VERTEX
  8
1
 10
256.3263092406592
 20
314.5662248442469
 30
0
 42
-0.005295441891851517
  0
VERTEX
  8
1
 10
257.2725165523604
 20
314.1202826153687
 30
0
 42
-0.001863754328485581
  0
VERTEX
  8
1
 10
258.2127749447215
 20
313.6605775906943
 30
0
 42
0.001562292244667127
  0
VERTEX
  8
1
 10
259.1537217530296
 20
313.1998368888955
 30
0
 42
0.004976995968720351
  0
VERTEX
  8
1
 10
260.1019943125721
 20
312.7507876286436
 30
0
 42
0.006696095144241037
  0
VERTEX
  8
1
 10
260.905577573162
 20
312.39297542253
 30
0
 42
0.007803666421310668
  0
VERTEX
  8
1
 10
261.7191939151944
 20
312.0586150683424
 30
0
 42
0.0101129658891661
  0
VERTEX
  8
1
 10
262.5430936195197
 20
311.7540503162271
 30
0
 42
0.01131361176720841
  0
VERTEX
  8
1
 10
263.3775269669879
 20
311.4856249163303
 30
0
 42
0.02500283413442863
  0
VERTEX
  8
1
 10
264.9359784877892
 20
311.1065410967917
 30
0
 42
0.007638934575490967
  0
VERTEX
  8
1
 10
265.6553556611685
 20
310.9805822898349
 30
0
 42
0.006629896808863911
  0
VERTEX
  8
1
 10
266.3793400275773
 20
310.8750105191656
 30
0
 42
0.002849043766969375
  0
VERTEX
  8
1
 10
267.1063958560058
 20
310.783030106021
 30
0
 42
0.00187780974309196
  0
VERTEX
  8
1
 10
267.8349874154441
 20
310.697845371639
 30
0
  0
SEQEND
  8
1
  0
POLYLINE
  8
1
 62
3
 66
1
  0
VERTEX
  8
1
 10
247.8349874154441
 20
317.697845371639
 30
0
 42
-0.001282843573340899
  0
VERTEX
  8
1
 10
248.7442929527381
 20
317.594119031432
 30
0
 42
-0.003855547891272337
  0
VERTEX
  8
1
 10
249.6516582288202
 20
317.4811606151354
 30
0
 42
-0.006445299873550559
  0
VERTEX
  8
1
 10
250.5551429824785
 20
317.3497380466596
 30
0
 42
-0.009049879608035867
  0
VERTEX
  8
1
 10
251.4528069525011
 20
317.1906192499149
 30
0
 42
-0.01164617623655329
  0
VERTEX
  8
1
 10
252.3427098776761
 20
316.9945721488117
 30
0
 42
-0.008743508454751444
  0
VERTEX
  8
1
 10
252.9590622741387
 20
316.8314888707478
 30
0
 42
-0.008173065875596708
  0
VERTEX
  8
1
 10
253.5701974094875
 20
316.6474574283477
 30
0
 42
-0.007621914706608123
  0
VERTEX
  8
1
 10
254.1756369262705
 20
316.4440781259641
 30
0
 42
-0.007091699757896596
  0
VERTEX
  8
1
 10
254.7749024670355
 20
316.2229512679498
 30
0
 42
-0.006583037128364061
  0
VERTEX
  8
1
 10
255.3675156743303
 20
315.9856771586573
 30
0
 42
-0.008713060780592799
  0
VERTEX
  8
1
 10
256.3263092406592
 20
315.5662248442469
 30
0
 42
-0.005295441891703853
  0
VERTEX
  8
1
 10
257.2725165523604
 20
315.1202826153688
 30
0
 42
-0.001863754328436509
  0
VERTEX
  8
1
 10
258.2127749447215
 20
314.6605775906943
 30
0
 42
0.001562292244667127
  0
VERTEX
  8
1
 10
259.1537217530296
 20
314.1998368888955
 30
0
 42
0.004976995968720351
  0
VERTEX
  8
1
 10
260.1019943125721
 20
313.7507876286436
 30
0
 42
0.006696095144241037
  0
VERTEX
  8
1
 10
260.905577573162
 20
313.39297542253
 30
0
 42
0.007803666421310668
  0
VERTEX
  8
1
 10
261.7191939151944
 20
313.0586150683424
 30
0
 42
0.0101129658891661
  0
VERTEX
  8
1
 10
262.5430936195197
 20
312.7540503162271
 30
0
 42
0.01131361176723933
  0
VERTEX
  8
1
 10
263.3775269669879
 20
312.4856249163304
 30
0
 42
0.02500283413434954
  0
VERTEX
  8
1
 10
264.9359784877892
 20
312.1065410967917
 30
0
 42
0.00763893457558723
  0
VERTEX
  8
1
 10
265.6553556611685
 20
311.9805822898349
 30
0
 42
0.006629896808728958
  0
VERTEX
  8
1
 10
266.3793400275773
 20
311.8750105191655
 30
0
 42
0.002849043767181429
  0
VERTEX
  8
1
 10
267.1063958560058
 20
311.783030106021
 30
0
 42
0.001877809742841049
  0
VERTEX
  8
1
 10
267.8349874154441
 20
311.697845371639
 30
0
  0
SEQEND
  8
1
  0
POLYLINE
  8
1
 62
3
 66
1
  0
VERTEX
  8
1
 10
285.5039324334533
 20
311.697845371639
 30
0
 42
0.006401683005972735
  0
VERTEX
  8
1
 10
285.008351045247
 20
310.8737152026228
 30
0
 42
0.0201968645164855
  0
VERTEX
  8
1
 10
284.5738647558997
 20
310.0556175758605
 30
0
 42
0.03911197960766186
  0
VERTEX
  8
1
 10
284.2615686642703
 20
309.2495850336065
 30
0
 42
0.06467125169447718
  0
VERTEX
  8
1
 10
284.1325578692178
 20
308.4616501181146
 30
0
 42
0.0917778081071273
  0
VERTEX
  8
1
 10
284.2479274696013
 20
307.697845371639
 30
0
 42
0.0621348450113717
  0
VERTEX
  8
1
 10
284.5448674771142
 20
307.0940626578029
 30
0
 42
0.01032167272015051
  0
VERTEX
  8
1
 10
284.9519925347915
 20
306.5012855290028
 30
0
 42
-0.008968366807532911
  0
VERTEX
  8
1
 10
285.3757225268187
 20
305.9103997571208
 30
0
 42
-0.04086910226537795
  0
VERTEX
  8
1
 10
285.7224773373811
 20
305.3122911140389
 30
0
 42
-0.08398492570939621
  0
VERTEX
  8
1
 10
285.8986768506643
 20
304.697845371639
 30
0
 42
-0.05745879019256676
  0
VERTEX
  8
1
 10
285.8888996502315
 20
304.3093515565229
 30
0
 42
-0.04092577827217402
  0
VERTEX
  8
1
 10
285.7995145287565
 20
303.9131869514841
 30
0
 42
-0.02623680826015402
  0
VERTEX
  8
1
 10
285.6504234664997
 20
303.5112692540034
 30
0
 42
-0.01444012508561576
  0
VERTEX
  8
1
 10
285.4615284437218
 20
303.1055161615615
 30
0
 42
-0.00459569819296916
  0
VERTEX
  8
1
 10
285.2527314406833
 20
302.697845371639
 30
0
  0
SEQEND
  8
1
  0
POLYLINE
  8
1
 62
3
 66
1
  0
VERTEX
  8
1
 10
286.3651929800943
 20
311.697845371639
 30
0
 42
0.005610045220762405
  0
VERTEX
  8
1
 10
285.8860285064428
 20
311.096316634762
 30
0
 42
0.01766205651874041
  0
VERTEX
  8
1
 10
285.451294853373
 20
310.4951700821042
 30
0
 42
0.03408297587042598
  0
VERTEX
  8
1
 10
285.1054228414669
 20
309.894787897885
 30
0
 42
0.05686596115249418
  0
VERTEX
  8
1
 10
284.892843291306
 20
309.2955522663235
 30
0
 42
0.08472232245201128
  0
VERTEX
  8
1
 10
284.8579870234723
 20
308.697845371639
 30
0
 42
0.1038365951310019
  0
VERTEX
  8
1
 10
285.1183954155029
 20
307.9060007948336
 30
0
 42
0.01466668619488282
  0
VERTEX
  8
1
 10
285.6084494691332
 20
307.1138038417875
 30
0
 42
0.01363408149576114
  0
VERTEX
  8
1
 10
286.1656715353536
 20
306.3175291771443
 30
0
 42
-0.04258924877931501
  0
VERTEX
  8
1
 10
286.6275839651543
 20
305.513451465547
 30
0
 42
-0.09880128485624859
  0
VERTEX
  8
1
 10
286.8317091095253
 20
304.697845371639
 30
0
 42
-0.0542564205421076
  0
VERTEX
  8
1
 10
286.79677718467
 20
304.3020479770644
 30
0
 42
-0.03886192777703666
  0
VERTEX
  8
1
 10
286.68465281261
 20
303.9034488455395
 30
0
 42
-0.02511887737165078
  0
VERTEX
  8
1
 10
286.5146341051466
 20
303.5027484113019
 30
0
 42
-0.01391435860731388
  0
VERTEX
  8
1
 10
286.306019174081
 20
303.1006471085892
 30
0
 42
-0.004443253589429818
  0
VERTEX
  8
1
 10
286.0781061312143
 20
302.697845371639
 30
0
  0
SEQEND
  8
1
  0
ARC
  8
1
 62
3
 10
487.3494984552357
 20
122.2155475598476
 30
0
 40
7.499999999999886
 50
270
 51
0
  0
ARC
  8
1
 62
3
 10
412.3494984552358
 20
122.2155475598477
 30
0
 40
7.5
 50
180
 51
270
  0
ARC
  8
1
 62
3
 10
412.3494984552358
 20
197.2155475598477
 30
0
 40
7.5
 50
90
 51
180
  0
ARC
  8
1
 62
3
 10
487.3494984552358
 20
197.2155475598477
 30
0
 40
7.5
 50
0
 51
90
  0
ARC
  8
1
 62
3
 10
331.2645042979689
 20
152.1155475598473
 30
0
 40
0.8000000000000966
 50
270
 51
0
  0
ARC
  8
1
 62
3
 10
331.2645042979689
 20
167.3155475598471
 30
0
 40
0.8000000000001819
 50
0
 51
90
  0
ARC
  8
1
 62
3
 10
328.4645042979689
 20
122.2155475598473
 30
0
 40
2.599999999999994
 50
270
 51
0
  0
ARC
  8
1
 62
3
 10
328.4645042979689
 20
197.2155475598472
 30
0
 40
2.600000000000193
 50
0
 51
90
  0
ARC
  8
1
 62
3
 10
89.38125087958497
 20
197.2155475598477
 30
0
 40
7.5
 50
90
 51
180
  0
ARC
  8
1
 62
3
 10
89.38125087958503
 20
122.2155475598476
 30
0
 40
7.500000000000057
 50
180
 51
270
  0
ARC
  8
1
 62
3
 10
164.381250879585
 20
122.2155475598477
 30
0
 40
7.5
 50
270
 51
0
  0
ARC
  8
1
 62
3
 10
164.381250879585
 20
197.2155475598477
 30
0
 40
7.5
 50
0
 51
90
  0
ARC
  8
1
 62
3
 10
147.381250879585
 20
107.2155475598477
 30
0
 40
1
 50
270
 51
0
  0
ARC
  8
1
 62
3
 10
106.381250879585
 20
107.2155475598473
 30
0
 40
1
 50
180
 51
270
  0
ARC
  8
1
 62
3
 10
152.381250879585
 20
110.7155475598476
 30
0
 40
4
 50
90
 51
180
  0
ARC
  8
1
 62
3
 10
101.381250879585
 20
110.7155475598476
 30
0
 40
4
 50
0
 51
90
  0
ARC
  8
1
 62
3
 10
125.0712508795851
 20
153.7133082126129
 30
0
 40
0.6900000000001114
 50
90
 51
180
  0
ARC
  8
1
 62
3
 10
125.0712508795851
 20
153.7055475598477
 30
0
 40
0.6900000000000972
 50
180
 51
270
  0
ARC
  8
1
 62
3
 10
128.6912508795851
 20
153.7133082126129
 30
0
 40
0.689999999999884
 50
0
 51
90
  0
ARC
  8
1
 62
3
 10
128.6912508795851
 20
153.7055475598477
 30
0
 40
0.6900000000001967
 50
270
 51
0
  0
ARC
  8
1
 62
3
 10
125.051250879585
 20
153.6855475598476
 30
0
 40
1.670000000000002
 50
180
 51
270
  0
ARC
  8
1
 62
3
 10
128.7112508795851
 20
153.6855475598476
 30
0
 40
1.670000000000101
 50
270
 51
0
  0
ARC
  8
1
 62
3
 10
328.4645042979689
 20
47.41481445576537
 30
0
 40
2.600000000000193
 50
0
 51
90
  0
ARC
  8
1
 62
3
 10
328.4645042979689
 20
-27.58518554423446
 30
0
 40
2.599999999999969
 50
270
 51
0
  0
ARC
  8
1
 62
3
 10
331.2645042979689
 20
17.51481445576528
 30
0
 40
0.8000000000001819
 50
0
 51
90
  0
ARC
  8
1
 62
3
 10
331.2645042979689
 20
2.314814455765573
 30
0
 40
0.800000000000068
 50
270
 51
0
  0
ARC
  8
1
 62
3
 10
456.3494984552357
 20
200.9058376777864
 30
0
 40
0.7999999999999101
 50
81.03243571351824
 51
180
  0
ARC
  8
1
 62
3
 10
443.3494984552357
 20
200.9058376777865
 30
0
 40
0.8000000000000114
 50
0
 51
98.96756428648303
  0
ARC
  8
1
 62
3
 10
490.9494984552356
 20
133.2155475598471
 30
0
 40
1.5
 50
270
 51
0
  0
ARC
  8
1
 62
3
 10
490.9494984552356
 20
186.2155475598472
 30
0
 40
1.5
 50
0
 51
90
  0
ARC
  8
1
 62
3
 10
486.3494984552357
 20
196.2155475598473
 30
0
 40
8.5
 50
180
 51
270
  0
ARC
  8
1
 62
3
 10
476.3494984552357
 20
200.8155475598472
 30
0
 40
1.5
 50
0
 51
90
  0
ARC
  8
1
 62
3
 10
423.3494984552357
 20
200.8155475598472
 30
0
 40
1.5
 50
90
 51
180
  0
ARC
  8
1
 62
3
 10
413.3494984552357
 20
196.2155475598473
 30
0
 40
8.500000000000085
 50
270
 51
0
  0
ARC
  8
1
 62
3
 10
408.7494984552355
 20
186.2155475598472
 30
0
 40
1.5
 50
90
 51
180
  0
ARC
  8
1
 62
3
 10
408.7494984552355
 20
133.2155475598471
 30
0
 40
1.5
 50
180
 51
270
  0
ARC
  8
1
 62
3
 10
413.3494984552358
 20
123.215547559847
 30
0
 40
8.499999999999886
 50
0
 51
90
  0
ARC
  8
1
 62
3
 10
423.3494984552357
 20
116.2155475598476
 30
0
 40
1.5
 50
180
 51
270
  0
ARC
  8
1
 62
3
 10
476.3494984552357
 20
116.2155475598476
 30
0
 40
1.5
 50
270
 51
0
  0
ARC
  8
1
 62
3
 10
486.3494984552357
 20
123.215547559847
 30
0
 40
8.5000000000001
 50
90
 51
180
  0
ARC
  8
1
 62
3
 10
474.9994984552358
 20
110.7155475598476
 30
0
 40
4
 50
90
 51
180
  0
ARC
  8
1
 62
3
 10
424.6994984552356
 20
110.7155475598476
 30
0
 40
4
 50
0
 51
90
  0
ARC
  8
1
 62
3
 10
469.9994984552358
 20
107.5655475598468
 30
0
 40
1
 50
270
 51
0
  0
ARC
  8
1
 62
3
 10
429.6994984552356
 20
107.5655475598472
 30
0
 40
1
 50
180
 51
270
  0
ARC
  8
1
 62
3
 10
445.4494984552359
 20
201.4155494022761
 30
0
 40
0.5
 50
90
 51
180
  0
ARC
  8
1
 62
3
 10
454.2494984552359
 20
201.4155494022761
 30
0
 40
0.5
 50
0
 51
90
  0
ARC
  8
1
 62
3
 10
466.9652291337881
 20
114.278958942913
 30
0
 40
0.03119999999966284
 50
352.5415509440089
 51
45.0000000005167
  0
ARC
  8
1
 62
3
 10
466.9652291337881
 20
114.1521633076784
 30
0
 40
0.03119999999983607
 50
314.9999999994834
 51
7.458449056534554
  0
ARC
  8
1
 62
3
 10
467.5128947251848
 20
114.6998288990754
 30
0
 40
0.03120000000018737
 50
262.5415509436875
 51
314.9999999995571
  0
ARC
  8
1
 62
3
 10
467.3860990899502
 20
114.6998288990754
 30
0
 40
0.03120000000011743
 50
225
 51
277.458449056416
  0
ARC
  8
1
 62
3
 10
467.933764681347
 20
114.1521633076784
 30
0
 40
0.03119999999998339
 50
172.5415509435332
 51
224.9999999999262
  0
ARC
  8
1
 62
3
 10
467.933764681347
 20
114.278958942913
 30
0
 40
0.03120000000015762
 50
135.0000000000738
 51
187.4584490559234
  0
ARC
  8
1
 62
3
 10
467.3860990899502
 20
113.7312933515163
 30
0
 40
0.03120000000009612
 50
82.5415509435603
 51
135.0000000001292
  0
ARC
  8
1
 62
3
 10
467.5128947251848
 20
113.7312933515163
 30
0
 40
0.0311999999999667
 50
45.00000000001846
 51
97.45844905633619
  0
ARC
  8
1
 62
3
 10
431.7652322291253
 20
114.278958942913
 30
0
 40
0.03119999999977557
 50
352.5415509440359
 51
45.0000000005167
  0
ARC
  8
1
 62
3
 10
431.7652322291253
 20
114.1521633076784
 30
0
 40
0.03119999999983607
 50
314.9999999994834
 51
7.458449056507451
  0
ARC
  8
1
 62
3
 10
432.312897820522
 20
114.6998288990754
 30
0
 40
0.03120000000019475
 50
262.541550943584
 51
314.9999999994834
  0
ARC
  8
1
 62
3
 10
432.1861021852874
 20
114.6998288990754
 30
0
 40
0.03120000000011743
 50
225
 51
277.458449056416
  0
ARC
  8
1
 62
3
 10
432.7337677766841
 20
114.1521633076784
 30
0
 40
0.03119999999987067
 50
172.5415509435061
 51
225
  0
ARC
  8
1
 62
3
 10
432.7337677766841
 20
114.278958942913
 30
0
 40
0.03120000000011743
 50
135
 51
187.4584490559505
  0
ARC
  8
1
 62
3
 10
432.1861021852874
 20
113.7312933515163
 30
0
 40
0.03120000000009612
 50
82.5415509435603
 51
135.0000000001292
  0
ARC
  8
1
 62
3
 10
432.312897820522
 20
113.7312933515163
 30
0
 40
0.0311999999999265
 50
45.00000000009227
 51
97.4584490564397
  0
ARC
  8
1
 62
3
 10
431.8494984552357
 20
119.2155611252956
 30
0
 40
2
 50
180
 51
221.4096221092664
  0
ARC
  8
1
 62
3
 10
431.3494984552349
 20
110.7155475598462
 30
0
 40
0.9999999999992042
 50
179.9999999999544
 51
270
  0
ARC
  8
1
 62
3
 10
468.3494984552357
 20
110.7155475598462
 30
0
 40
1
 50
270
 51
0
  0
ARC
  8
1
 62
3
 10
467.8494984552357
 20
119.2155611252955
 30
0
 40
2.000000000000201
 50
318.5903778907226
 51
0
  0
ARC
  8
1
 62
3
 10
462.5362839759414
 20
177.678075843554
 30
0
 40
1
 50
270
 51
0
  0
ARC
  8
1
 62
3
 10
462.5362839759414
 20
187.678075843554
 30
0
 40
1
 50
0
 51
90
  0
ARC
  8
1
 62
3
 10
436.5362839759414
 20
187.678075843554
 30
0
 40
1
 50
90
 51
180
  0
ARC
  8
1
 62
3
 10
436.5362839759414
 20
177.678075843554
 30
0
 40
1
 50
180
 51
270
  0
TEXT
  8
1
 62
2
 10
260.7089566269271
 20
-65.94629862516163
 30
0
 40
5
  1
FY9PF40N-D3
 41
0.9
  0
TEXT
  8
1
 62
2
 10
287.940234885021
 20
0.3918940836264107
 30
0
 40
3
  1
11
 50
270
 41
0.9
 72
1
 73
2
 11
289.440234885021
 21
-2.30810591637359
 31
0
  0
TEXT
  8
1
 62
2
 10
287.8538022070131
 20
24.80567374339962
 30
0
 40
3
  1
1
 50
270
 41
0.9
 72
1
 73
2
 11
289.3538022070131
 21
23.45567374339962
 31
0
  0
TEXT
  8
1
 62
2
 10
338.9326376871092
 20
322.0595634733119
 30
0
 40
3.200000000000001
  1
1
 50
90
 41
0.9
  0
TEXT
  8
1
 62
2
 10
338.987732041113
 20
290.152645889423
 30
0
 40
3.199999999999999
  1
11
 50
90
 41
0.9
  0
TEXT
  8
1
 62
2
 10
236.9572567591933
 20
292.3866301808564
 30
0
 40
3.200000000000001
  1
9
 50
90
 41
0.9
  0
TEXT
  8
1
 62
2
 10
236.3986977053021
 20
320.7735002547854
 30
0
 40
3.200000000000001
  1
1
 50
90
 41
0.9
  0
TEXT
  8
1
 62
2
 10
274.0865869810052
 20
280.5855969469582
 30
0
 40
4
  1
付属ケーブル
 41
0.9
  0
ENDSEC
  0
EOF
