  0
SECTION
  2
HEADER
  9
$ACADVER
  1
AC1009
  9
$INSBASE
 10
0
 20
0
  9
$EXTMIN
 10
79.5054324926644
 20
-65.94629862516163
  9
$EXTMAX
 10
497.4494984552356
 20
302.8325717287543
  9
$LIMMIN
 10
79.5054324926644
 20
-65.94629862516163
  9
$LIMMAX
 10
497.4494984552356
 20
302.8325717287543
  9
$VIEWCTR
 10
10
 20
10
  9
$VIEWSIZE
 40
10
  9
$SNAPMODE
 70
0
  9
$SNAPUNIT
 10
1
 20
1
  9
$SNAPBASE
 10
0
 20
0
  9
$SNAPANG
 50
0
  9
$SNAPSTYLE
 70
0
  9
$SNAPISOPAIR
 70
0
  9
$GRIDMODE
 70
0
  9
$GRIDUNIT
 10
0
 20
0
  9
$ORTHOMODE
 70
0
  9
$REGENMODE
 70
1
  9
$FILLMODE
 70
1
  9
$QTEXTMODE
 70
0
  9
$DRAGMODE
 70
2
  9
$LTSCALE
 40
1
  9
$OSMODE
 70
0
  9
$ATTMODE
 70
1
  9
$TEXTSIZE
 40
3.5
  9
$TRACEWID
 40
0.5
  9
$TEXTSTYLE
  7
STANDARD
  9
$CLAYER
  8
0
  9
$CELTYPE
  6
BYLAYER
  9
$CECOLOR
 62
256
  9
$DIMSCALE
 40
1
  9
$DIMASZ
 40
0.18
  9
$DIMEXO
 40
0.0625
  9
$DIMDLI
 40
0.38
  9
$DIMRND
 40
0
  9
$DIMDLE
 40
0
  9
$DIMEXE
 40
0.18
  9
$DIMTP
 40
0
  9
$DIMTM
 40
0
  9
$DIMTXT
 40
0.18
  9
$DIMCEN
 40
0.09
  9
$DIMTSZ
 40
0
  9
$DIMTOL
 70
0
  9
$DIMLIM
 70
0
  9
$DIMTIH
 70
1
  9
$DIMTOH
 70
1
  9
$DIMSE1
 70
0
  9
$DIMSE2
 70
0
  9
$DIMTAD
 70
0
  9
$DIMZIN
 70
0
  9
$DIMBLK
  1

  9
$DIMASO
 70
1
  9
$DIMSHO
 70
1
  9
$DIMPOST
  1

  9
$DIMAPOST
  1

  9
$DIMALT
 70
0
  9
$DIMALTD
 70
2
  9
$DIMALTF
 40
25.4
  9
$DIMLFAC
 40
1
  9
$DIMTOFL
 70
0
  9
$DIMTVP
 40
0
  9
$DIMTIX
 70
0
  9
$DIMSOXD
 70
0
  9
$DIMSAH
 70
0
  9
$DIMBLK1
  1

  9
$DIMBLK2
  1

  9
$DIMSTYLE
  2
*UNNAMED
  9
$DIMCLRD
 70
0
  9
$DIMCLRE
 70
0
  9
$DIMCLRT
 70
0
  9
$DIMTFAC
 40
1
  9
$DIMGAP
 40
0.09
  9
$LUNITS
 70
2
  9
$LUPREC
 70
4
  9
$AXISMODE
 70
0
  9
$AXISUNIT
 10
0
 20
0
  9
$SKETCHINC
 40
0.1
  9
$FILLETRAD
 40
2
  9
$AUNITS
 70
0
  9
$AUPREC
 70
0
  9
$MENU
  1
ACAD
  9
$ELEVATION
 40
0
  9
$THICKNESS
 40
0
  9
$VIEWDIR
 10
0
 20
0
 30
1
  9
$LIMCHECK
 70
0
  9
$BLIPMODE
 70
1
  9
$CHAMFERA
 40
0
  9
$CHAMFERB
 40
0
  9
$FASTZOOM
 70
1
  9
$SKPOLY
 70
0
  9
$ANGBASE
 50
0
  9
$ANGDIR
 70
0
  9
$PDMODE
 70
0
  9
$PDSIZE
 40
0
  9
$PLINEWID
 40
0
  9
$COORDS
 70
2
  0
ENDSEC
  0
SECTION
  2
TABLES
  0
TABLE
  2
DIMSTYLE
 70
0
  0
ENDTAB
  0
TABLE
  2
LTYPE
 70
9
  0
LTYPE
  2
CONTINUOUS
 70
64
  3
Solid line
 72
65
 73
0
 40
0
  0
LTYPE
  2
BORDER
 70
64
  3
__ __ . __ __ .
 72
65
 73
6
 40
19.24742409038157
 49
5.499264025823305
 49
-2.749632012911653
 49
5.499264025823305
 49
-2.749632012911653
 49
0
 49
-2.749632012911653
  0
LTYPE
  2
CENTER
 70
64
  3
____ _ ____ _
 72
65
 73
4
 40
21.99705610329322
 49
13.74816006455826
 49
-2.749632012911653
 49
2.749632012911653
 49
-2.749632012911653
  0
LTYPE
  2
DASHDOT
 70
64
  3
__ . __ . __ .
 72
65
 73
4
 40
10.99852805164661
 49
5.499264025823305
 49
-2.749632012911653
 49
0
 49
-2.749632012911653
  0
LTYPE
  2
DASHED
 70
64
  3
__ __ __ __ __
 72
65
 73
2
 40
8.248896038734959
 49
5.499264025823305
 49
-2.749632012911653
  0
LTYPE
  2
DIVIDE
 70
64
  3
__ . . __ . . 
 72
65
 73
6
 40
13.74816006455826
 49
5.499264025823305
 49
-2.749632012911653
 49
0
 49
-2.749632012911653
 49
0
 49
-2.749632012911653
  0
LTYPE
  2
DOT
 70
64
  3
..............
 72
65
 73
4
 40
5.499264025823305
 49
0
 49
-2.749632012911653
 49
0
 49
-2.749632012911653
  0
LTYPE
  2
HIDDEN
 70
64
  3
_ _ _ _ _ _ _
 72
65
 73
2
 40
4.124448019367479
 49
2.749632012911653
 49
-1.374816006455826
  0
LTYPE
  2
PHANTOM
 70
64
  3
_____ _ _ _____ _ _ 
 72
65
 73
6
 40
27.49632012911653
 49
13.74816006455826
 49
-2.749632012911653
 49
2.749632012911653
 49
-2.749632012911653
 49
2.749632012911653
 49
-2.749632012911653
  0
ENDTAB
  0
TABLE
  2
LAYER
 70
3
  0
LAYER
  2
1
 70
0
 62
7
  6
CONTINUOUS
  0
LAYER
  2
0
 70
0
 62
7
  6
CONTINUOUS
  0
ENDTAB
  0
TABLE
  2
STYLE
 70
4
  0
STYLE
  2
STANDARD
 70
0
 40
0
 41
1
 50
0
 71
0
 42
3.5
  3
txt
  4

  0
STYLE
  2
SIMPLEX
 70
0
 40
0
 41
1
 50
0
 71
0
 42
3.5
  3
simplex
  4

  0
STYLE
  2
COMPLEX
 70
0
 40
0
 41
1
 50
0
 71
0
 42
3.5
  3
complex
  4

  0
STYLE
  2
ITALIC
 70
0
 40
0
 41
1
 50
0
 71
0
 42
3.5
  3
italic
  4

  0
ENDTAB
  0
TABLE
  2
VIEW
 70
0
  0
ENDTAB
  0
ENDSEC
  0
SECTION
  2
BLOCKS
  0
BLOCK
  8
1
  2
*X0
 70
1
 10
0
 20
0
 30
0
  0
LINE
  8
1
 62
3
 10
280.1722876035752
 20
286.536248634254
 30
0
 11
280.5286106980757
 21
286.8925717287546
 31
0
  0
LINE
  8
1
 62
3
 10
280.1722876035752
 20
286.1119845655421
 30
0
 11
280.9528747667877
 21
286.8925717287546
 31
0
  0
LINE
  8
1
 62
3
 10
280.1722876035752
 20
285.6877204968302
 30
0
 11
281.1722876035752
 21
286.6877204968302
 31
0
  0
LINE
  8
1
 62
3
 10
280.1722876035752
 20
285.2634564281183
 30
0
 11
281.1722876035752
 21
286.2634564281183
 31
0
  0
LINE
  8
1
 62
3
 10
280.1722876035752
 20
284.8391923594064
 30
0
 11
281.1722876035752
 21
285.8391923594064
 31
0
  0
LINE
  8
1
 62
3
 10
280.1722876035752
 20
284.4149282906944
 30
0
 11
281.1722876035752
 21
285.4149282906944
 31
0
  0
LINE
  8
1
 62
3
 10
280.1722876035752
 20
283.9906642219825
 30
0
 11
281.1722876035752
 21
284.9906642219825
 31
0
  0
LINE
  8
1
 62
3
 10
280.4984591790592
 20
283.8925717287546
 30
0
 11
281.1722876035752
 21
284.5664001532706
 31
0
  0
LINE
  8
1
 62
3
 10
280.9227232477711
 20
283.8925717287546
 30
0
 11
281.1722876035752
 21
284.1421360845587
 31
0
  0
ENDBLK
  8
0
  0
BLOCK
  8
1
  2
*X1
 70
1
 10
0
 20
0
 30
0
  0
LINE
  8
1
 62
3
 10
279.1722876035752
 20
283.8391923594064
 30
0
 11
279.2256669729235
 21
283.8925717287546
 31
0
  0
LINE
  8
1
 62
3
 10
279.1722876035752
 20
283.4149282906945
 30
0
 11
279.6499310416354
 21
283.8925717287546
 31
0
  0
LINE
  8
1
 62
3
 10
279.1722876035752
 20
282.9906642219826
 30
0
 11
280.0741951103473
 21
283.8925717287546
 31
0
  0
LINE
  8
1
 62
3
 10
279.1722876035752
 20
282.5664001532707
 30
0
 11
280.4984591790592
 21
283.8925717287546
 31
0
  0
LINE
  8
1
 62
3
 10
279.4227232477712
 20
282.3925717287546
 30
0
 11
280.9227232477712
 21
283.8925717287546
 31
0
  0
LINE
  8
1
 62
3
 10
279.8469873164831
 20
282.3925717287546
 30
0
 11
281.3469873164831
 21
283.8925717287546
 31
0
  0
LINE
  8
1
 62
3
 10
280.271251385195
 20
282.3925717287546
 30
0
 11
281.771251385195
 21
283.8925717287546
 31
0
  0
LINE
  8
1
 62
3
 10
280.6955154539069
 20
282.3925717287546
 30
0
 11
282.1722876035752
 21
283.8693438784229
 31
0
  0
LINE
  8
1
 62
3
 10
281.1197795226188
 20
282.3925717287546
 30
0
 11
282.1722876035752
 21
283.445079809711
 31
0
  0
LINE
  8
1
 62
3
 10
281.5440435913308
 20
282.3925717287546
 30
0
 11
282.1722876035752
 21
283.0208157409991
 31
0
  0
LINE
  8
1
 62
3
 10
281.9683076600427
 20
282.3925717287546
 30
0
 11
282.1722876035752
 21
282.5965516722872
 31
0
  0
ENDBLK
  8
0
  0
ENDSEC
  0
SECTION
  2
ENTITIES
  0
INSERT
  8
1
  2
*X0
 10
0
 20
0
 30
0
  0
INSERT
  8
1
  2
*X1
 10
0
 20
0
 30
0
  0
LINE
  8
1
 62
3
 10
487.3494984552357
 20
114.7155475598477
 30
0
 11
476.653332964699
 21
114.7155475598477
 31
0
  0
LINE
  8
1
 62
3
 10
412.3494984552357
 20
114.7155475598477
 30
0
 11
423.165506481379
 21
114.7155475598477
 31
0
  0
LINE
  8
1
 62
3
 10
404.8494984552357
 20
122.2155475598477
 30
0
 11
404.8494984552357
 21
159.7155475598476
 31
0
  0
LINE
  8
1
 62
3
 10
494.8494984552357
 20
197.2155475598477
 30
0
 11
494.8494984552357
 21
122.2155475598477
 31
0
  0
LINE
  8
1
 62
3
 10
404.8494984552357
 20
159.7155475598476
 30
0
 11
404.8494984552357
 21
197.2155475598477
 31
0
  0
LINE
  8
1
 62
3
 10
412.3494984552357
 20
204.7155475598477
 30
0
 11
449.8494984552357
 21
204.7155475598476
 31
0
  0
LINE
  8
1
 62
3
 10
449.8494984552357
 20
204.7155475598476
 30
0
 11
487.3494984552357
 21
204.7155475598477
 31
0
  0
LINE
  8
1
 62
3
 10
127.881250879585
 20
152.0155475598475
 30
0
 11
128.7112508795851
 21
152.0155475598475
 31
0
  0
LINE
  8
1
 62
3
 10
125.881250879585
 20
153.0155475598475
 30
0
 11
125.071250879585
 21
153.0155475598475
 31
0
  0
LINE
  8
1
 62
3
 10
127.881250879585
 20
154.403308212613
 30
0
 11
128.691250879585
 21
154.403308212613
 31
0
  0
LINE
  8
1
 62
3
 10
127.881250879585
 20
153.0155475598476
 30
0
 11
127.881250879585
 21
152.0155475598475
 31
0
  0
LINE
  8
1
 62
3
 10
125.881250879585
 20
153.0155475598475
 30
0
 11
125.881250879585
 21
152.0155475598475
 31
0
  0
LINE
  8
1
 62
3
 10
127.881250879585
 20
155.0303298557597
 30
0
 11
127.881250879585
 21
154.403308212613
 31
0
  0
LINE
  8
1
 62
3
 10
125.881250879585
 20
155.0303298557597
 30
0
 11
125.881250879585
 21
154.403308212613
 31
0
  0
LINE
  8
1
 62
3
 10
123.381250879585
 20
155.5786701315759
 30
0
 11
123.381250879585
 21
153.6855475598476
 31
0
  0
LINE
  8
1
 62
3
 10
124.381250879585
 20
153.7055475598477
 30
0
 11
124.381250879585
 21
153.7133082126129
 31
0
  0
LINE
  8
1
 62
3
 10
128.6912508795851
 20
153.0155475598475
 30
0
 11
127.881250879585
 21
153.0155475598476
 31
0
  0
LINE
  8
1
 62
3
 10
129.381250879585
 20
153.7133082126129
 30
0
 11
129.381250879585
 21
153.7055475598477
 31
0
  0
LINE
  8
1
 62
3
 10
125.0712508795851
 20
154.403308212613
 30
0
 11
125.881250879585
 21
154.403308212613
 31
0
  0
LINE
  8
1
 62
3
 10
130.381250879585
 20
153.6855475598476
 30
0
 11
130.381250879585
 21
155.5786701315759
 31
0
  0
LINE
  8
1
 62
3
 10
125.051250879585
 20
152.0155475598475
 30
0
 11
125.881250879585
 21
152.0155475598475
 31
0
  0
LINE
  8
1
 62
2
 10
257.9645139512047
 20
14.71481445576524
 30
0
 11
263.5070765354251
 21
5.11481445576521
 31
0
  0
LINE
  8
1
 62
2
 10
256.7645139512047
 20
14.71481445576524
 30
0
 11
262.3070765354252
 21
5.11481445576521
 31
0
  0
LINE
  8
1
 62
2
 10
255.5645139512046
 20
14.71481445576524
 30
0
 11
261.1070765354252
 21
5.11481445576521
 31
0
  0
LINE
  8
1
 62
3
 10
251.5645139512046
 20
14.71481445576524
 30
0
 11
251.5645139512046
 21
5.11481445576521
 31
0
  0
LINE
  8
1
 62
3
 10
251.5645139512046
 20
14.71481445576524
 30
0
 11
266.5645042979693
 21
14.71481445576524
 31
0
  0
LINE
  8
1
 62
3
 10
251.5645139512046
 20
5.11481445576521
 30
0
 11
266.5645042979693
 21
5.11481445576521
 31
0
  0
LINE
  8
1
 62
1
  6
CENTER
 10
249.5645139512046
 20
14.1148144557651
 30
0
 11
266.5645042979693
 21
14.1148144557651
 31
0
  0
LINE
  8
1
 62
1
  6
CENTER
 10
249.5645139512046
 20
5.714814455765175
 30
0
 11
266.5645042979693
 21
5.714814455765175
 31
0
  0
LINE
  8
1
 62
2
 10
257.9645139512047
 20
164.5155475598472
 30
0
 11
263.5070765354251
 21
154.9155475598472
 31
0
  0
LINE
  8
1
 62
2
 10
256.7645139512047
 20
164.5155475598472
 30
0
 11
262.3070765354252
 21
154.9155475598472
 31
0
  0
LINE
  8
1
 62
2
 10
255.5645139512046
 20
164.5155475598472
 30
0
 11
261.1070765354252
 21
154.9155475598472
 31
0
  0
LINE
  8
1
 62
3
 10
251.5645139512046
 20
164.5155475598472
 30
0
 11
251.5645139512046
 21
154.9155475598472
 31
0
  0
LINE
  8
1
 62
3
 10
251.5645139512046
 20
164.5155475598472
 30
0
 11
266.5645042979693
 21
164.5155475598472
 31
0
  0
LINE
  8
1
 62
3
 10
251.5645139512046
 20
154.9155475598472
 30
0
 11
266.5645042979693
 21
154.9155475598472
 31
0
  0
LINE
  8
1
 62
1
  6
CENTER
 10
249.5645139512046
 20
163.9155475598471
 30
0
 11
266.5645042979693
 21
163.9155475598471
 31
0
  0
LINE
  8
1
 62
1
  6
CENTER
 10
249.5645139512046
 20
155.5155475598472
 30
0
 11
266.5645042979693
 21
155.5155475598472
 31
0
  0
LINE
  8
1
 62
1
 10
486.5994984552357
 20
116.9855475598472
 30
0
 11
486.5994984552357
 21
128.9455475598469
 31
0
  0
LINE
  8
1
 62
1
 10
480.6194984552359
 20
122.9655475598471
 30
0
 11
492.5794984552355
 21
122.965547559847
 31
0
  0
LINE
  8
1
 62
1
 10
486.5994984552357
 20
190.4855475598472
 30
0
 11
486.5994984552357
 21
202.4455475598469
 31
0
  0
LINE
  8
1
 62
1
 10
480.6194984552359
 20
196.4655475598471
 30
0
 11
492.5794984552355
 21
196.4655475598471
 31
0
  0
LINE
  8
1
 62
1
 10
413.0994984552357
 20
190.4855475598472
 30
0
 11
413.0994984552357
 21
202.4455475598471
 31
0
  0
LINE
  8
1
 62
1
 10
407.1194984552359
 20
196.4655475598473
 30
0
 11
419.0794984552355
 21
196.4655475598473
 31
0
  0
LINE
  8
1
 62
1
 10
413.0994984552357
 20
116.9855475598473
 30
0
 11
413.0994984552357
 21
128.9455475598469
 31
0
  0
LINE
  8
1
 62
1
 10
407.1194984552359
 20
122.9655475598471
 30
0
 11
419.0794984552355
 21
122.9655475598471
 31
0
  0
LINE
  8
1
 62
3
 10
463.5362839759414
 20
177.678075843554
 30
0
 11
463.5362839759414
 21
187.678075843554
 31
0
  0
LINE
  8
1
 62
3
 10
462.5362839759414
 20
188.678075843554
 30
0
 11
436.5362839759414
 21
188.678075843554
 31
0
  0
LINE
  8
1
 62
3
 10
435.5362839759414
 20
187.678075843554
 30
0
 11
435.5362839759414
 21
177.678075843554
 31
0
  0
LINE
  8
1
 62
3
 10
436.5362839759414
 20
176.678075843554
 30
0
 11
462.5362839759414
 21
176.678075843554
 31
0
  0
LINE
  8
1
 62
3
 10
430.3494984552357
 20
123.5359953238119
 30
0
 11
430.3494984552357
 21
114.8155611252956
 31
0
  0
LINE
  8
1
 62
3
 10
469.8494984552357
 20
123.3424806009008
 30
0
 11
469.8494984552357
 21
123.8099769614013
 31
0
  0
LINE
  8
1
 62
3
 10
429.8494984552357
 20
123.3424806009008
 30
0
 11
429.8494984552357
 21
123.8099769614013
 31
0
  0
LINE
  8
1
 62
3
 10
429.8494984552357
 20
121.5715754522579
 30
0
 11
429.8494984552357
 21
123.3424806009008
 31
0
  0
LINE
  8
1
 62
3
 10
469.8494984552357
 20
123.3424806009008
 30
0
 11
469.8494984552357
 21
121.3004168117656
 31
0
  0
LINE
  8
1
 62
3
 10
469.8494984552357
 20
121.3004168117656
 30
0
 11
469.8494984552357
 21
119.2155611252955
 31
0
  0
LINE
  8
1
 62
3
 10
469.3494984552357
 20
114.8155611252956
 30
0
 11
469.3494984552357
 21
123.5359953238119
 31
0
  0
LINE
  8
1
 62
3
 10
469.3494984552357
 20
110.7155475598462
 30
0
 11
469.3494984552357
 21
113.6155611252957
 31
0
  0
LINE
  8
1
 62
3
 10
464.2494984552358
 20
109.7155475598462
 30
0
 11
468.3494984552357
 21
109.7155475598462
 31
0
  0
LINE
  8
1
 62
3
 10
431.3494984552349
 20
109.7155475598462
 30
0
 11
436.2494984552358
 21
109.7155475598462
 31
0
  0
LINE
  8
1
 62
3
 10
430.3494984552357
 20
113.6155611252957
 30
0
 11
430.3494984552357
 21
110.715547559847
 31
0
  0
LINE
  8
1
 62
3
 10
429.8494984552357
 20
119.2155611252956
 30
0
 11
429.8494984552357
 21
121.5715754522579
 31
0
  0
LINE
  8
1
 62
3
 10
432.7749078993249
 20
113.3134067358592
 30
0
 11
432.3349595520949
 21
113.7533550830893
 31
0
  0
LINE
  8
1
 62
3
 10
431.7240921064845
 20
113.3134067358592
 30
0
 11
432.1640404537143
 21
113.7533550830893
 31
0
  0
LINE
  8
1
 62
3
 10
433.151654392341
 20
114.7409690217159
 30
0
 11
432.711706045111
 21
114.3010206744861
 31
0
  0
LINE
  8
1
 62
3
 10
433.151654392341
 20
113.6901532288755
 30
0
 11
432.711706045111
 21
114.1301015761053
 31
0
  0
LINE
  8
1
 62
3
 10
432.1640404537143
 20
114.6777671675023
 30
0
 11
432.1596232898442
 21
114.6821843313726
 31
0
  0
LINE
  8
1
 62
3
 10
432.1596232898442
 20
114.6821843313726
 30
0
 11
431.7240921064845
 21
115.1177155147322
 31
0
  0
LINE
  8
1
 62
3
 10
432.7749078993249
 20
115.1177155147322
 30
0
 11
432.3349595520947
 21
114.6777671675023
 31
0
  0
LINE
  8
1
 62
3
 10
431.3473456134682
 20
113.6901532288755
 30
0
 11
431.787293960698
 21
114.1301015761053
 31
0
  0
LINE
  8
1
 62
3
 10
431.3473456134682
 20
114.7409690217159
 30
0
 11
431.787293960698
 21
114.3010206744861
 31
0
  0
LINE
  8
1
 62
3
 10
467.9749048039877
 20
113.3134067358592
 30
0
 11
467.5349564567578
 21
113.7533550830893
 31
0
  0
LINE
  8
1
 62
3
 10
466.9240890111473
 20
113.3134067358592
 30
0
 11
467.3640373583771
 21
113.7533550830893
 31
0
  0
LINE
  8
1
 62
3
 10
468.3516512970039
 20
114.7409690217159
 30
0
 11
467.9117029497738
 21
114.3010206744861
 31
0
  0
LINE
  8
1
 62
3
 10
468.3516512970039
 20
113.6901532288755
 30
0
 11
467.9117029497738
 21
114.1301015761053
 31
0
  0
LINE
  8
1
 62
3
 10
467.3640373583771
 20
114.6777671675023
 30
0
 11
467.359620194507
 21
114.6821843313726
 31
0
  0
LINE
  8
1
 62
3
 10
467.359620194507
 20
114.6821843313726
 30
0
 11
466.9240890111473
 21
115.1177155147322
 31
0
  0
LINE
  8
1
 62
3
 10
467.9749048039877
 20
115.1177155147322
 30
0
 11
467.5349564567576
 21
114.6777671675023
 31
0
  0
LINE
  8
1
 62
3
 10
466.547342518131
 20
113.6901532288755
 30
0
 11
466.9872908653608
 21
114.1301015761053
 31
0
  0
LINE
  8
1
 62
3
 10
466.547342518131
 20
114.7409690217159
 30
0
 11
466.9872908653608
 21
114.3010206744861
 31
0
  0
LINE
  8
1
 62
3
 10
464.2494984552358
 20
109.2155475598466
 30
0
 11
464.2494984552358
 21
112.1838175089913
 31
0
  0
LINE
  8
1
 62
3
 10
436.2494984552358
 20
112.1838175089913
 30
0
 11
436.2494984552358
 21
109.2155475598466
 31
0
  0
LINE
  8
1
 62
3
 10
436.2494984552358
 20
117.5155475598466
 30
0
 11
464.2494984552358
 21
117.5155475598465
 31
0
  0
LINE
  8
1
 62
3
 10
464.2494984552358
 20
117.5155475598465
 30
0
 11
464.2494984552358
 21
107.5155475598465
 31
0
  0
LINE
  8
1
 62
3
 10
464.2494984552358
 20
107.5155475598465
 30
0
 11
436.2494984552358
 21
107.5155475598466
 31
0
  0
LINE
  8
1
 62
3
 10
436.2494984552358
 20
107.5155475598466
 30
0
 11
436.2494984552358
 21
117.5155475598466
 31
0
  0
LINE
  8
1
 62
3
 10
445.4494984552359
 20
201.9155494022761
 30
0
 11
454.2494984552359
 21
201.9155494022761
 31
0
  0
LINE
  8
1
 62
3
 10
454.7494984552359
 20
201.4155494022761
 30
0
 11
454.7494984552359
 21
200.5224097278698
 31
0
  0
LINE
  8
1
 62
3
 10
444.9494984552359
 20
201.4155494022761
 30
0
 11
444.9494984552359
 21
200.5224097278698
 31
0
  0
LINE
  8
1
 62
3
 10
470.9994984552358
 20
107.5655475598468
 30
0
 11
470.9994984552358
 21
110.7155475598475
 31
0
  0
LINE
  8
1
 62
3
 10
428.6994984552356
 20
107.5655475598472
 30
0
 11
428.6994984552356
 21
110.7155475598475
 31
0
  0
LINE
  8
1
 62
3
 10
469.9994984552358
 20
106.5655475598468
 30
0
 11
429.6994984552356
 21
106.5655475598472
 31
0
  0
LINE
  8
1
 62
3
 10
423.3494984552357
 20
114.7155475598475
 30
0
 11
424.6994984552356
 21
114.7155475598475
 31
0
  0
LINE
  8
1
 62
3
 10
476.3494984552357
 20
114.7155475598475
 30
0
 11
474.9994984552358
 21
114.7155475598475
 31
0
  0
LINE
  8
1
 62
3
 10
455.5494984552356
 20
200.9058376777864
 30
0
 11
455.5494984552356
 21
200.4183730145989
 31
0
  0
LINE
  8
1
 62
3
 10
444.1494984552357
 20
200.9058376777865
 30
0
 11
444.1494984552357
 21
200.4183730145989
 31
0
  0
LINE
  8
1
 62
3
 10
490.9494984552356
 20
131.7155475598471
 30
0
 11
486.3494984552357
 21
131.7155475598471
 31
0
  0
LINE
  8
1
 62
3
 10
477.8494984552357
 20
123.2155475598471
 30
0
 11
477.8494984552357
 21
116.2155475598475
 31
0
  0
LINE
  8
1
 62
3
 10
421.8494984552357
 20
116.2155475598475
 30
0
 11
421.8494984552357
 21
123.2155475598471
 31
0
  0
LINE
  8
1
 62
3
 10
413.3494984552357
 20
131.7155475598471
 30
0
 11
408.7494984552355
 21
131.7155475598471
 31
0
  0
LINE
  8
1
 62
3
 10
407.2494984552355
 20
133.2155475598471
 30
0
 11
407.2494984552355
 21
186.2155475598472
 31
0
  0
LINE
  8
1
 62
3
 10
408.7494984552355
 20
187.7155475598472
 30
0
 11
413.3494984552357
 21
187.7155475598472
 31
0
  0
LINE
  8
1
 62
3
 10
421.8494984552357
 20
196.2155475598473
 30
0
 11
421.8494984552357
 21
200.8155475598472
 31
0
  0
LINE
  8
1
 62
3
 10
476.3494984552357
 20
202.3155475598472
 30
0
 11
423.3494984552357
 21
202.3155475598472
 31
0
  0
LINE
  8
1
 62
3
 10
477.8494984552357
 20
200.8155475598472
 30
0
 11
477.8494984552357
 21
196.2155475598473
 31
0
  0
LINE
  8
1
 62
3
 10
486.3494984552357
 20
187.7155475598472
 30
0
 11
490.9494984552356
 21
187.7155475598472
 31
0
  0
LINE
  8
1
 62
3
 10
492.4494984552356
 20
133.2155475598471
 30
0
 11
492.4494984552356
 21
186.2155475598472
 31
0
  0
LINE
  8
1
 62
1
 10
497.4494984552356
 20
159.7155475598472
 30
0
 11
402.2494984552355
 21
159.7155475598471
 31
0
  0
LINE
  8
1
 62
1
 10
449.8494984552357
 20
103.5655475598469
 30
0
 11
449.8494984552357
 21
207.2697360633714
 31
0
  0
LINE
  8
1
 62
1
 10
449.8494984552357
 20
114.1485750827831
 30
0
 11
449.8494984552357
 21
207.3155475598472
 31
0
  0
LINE
  8
1
 62
1
 10
496.1708018924178
 20
159.7155475598471
 30
0
 11
403.5286000575555
 21
159.7155475598471
 31
0
  0
LINE
  8
1
 62
3
 10
276.0645042979693
 20
-35.08518554423424
 30
0
 11
269.5645042979693
 21
-35.08518554423463
 31
0
  0
LINE
  8
1
 62
3
 10
279.5645120361855
 20
-32.68518554423454
 30
0
 11
279.5645120361855
 21
-31.58518554423452
 31
0
  0
LINE
  8
1
 62
3
 10
276.0645042979693
 20
-32.68518554423454
 30
0
 11
279.5645120361855
 21
-32.68518554423454
 31
0
  0
LINE
  8
1
 62
3
 10
279.5645120361853
 20
52.51481445576545
 30
0
 11
276.0645042979693
 21
52.51481445576545
 31
0
  0
LINE
  8
1
 62
3
 10
276.0645042979693
 20
54.91481445576571
 30
0
 11
269.5645042979693
 21
54.91481445576571
 31
0
  0
LINE
  8
1
 62
3
 10
279.5645120361853
 20
30.0148144557663
 30
0
 11
283.2645042979693
 21
30.01481445576545
 31
0
  0
LINE
  8
1
 62
3
 10
279.5645120361853
 20
-10.18518554423454
 30
0
 11
283.2645042979693
 21
-10.18518554423454
 31
0
  0
LINE
  8
1
 62
3
 10
286.1645120361909
 20
17.60618505277748
 30
0
 11
286.6650344930504
 21
17.41481445576548
 31
0
  0
LINE
  8
1
 62
3
 10
286.1645120361909
 20
20.22344385875354
 30
0
 11
286.6650344930504
 21
20.41481445576548
 31
0
  0
LINE
  8
1
 62
3
 10
286.6650344930504
 20
-0.585185544234518
 30
0
 11
286.1645120361909
 21
-0.3938149472225216
 31
0
  0
LINE
  8
1
 62
3
 10
286.1645120361909
 20
2.223443858753656
 30
0
 11
286.6650344930504
 21
2.414814455765482
 31
0
  0
LINE
  8
1
 62
3
 10
286.6645120361909
 20
2.223443858753656
 30
0
 11
286.6650344930504
 21
2.414814455765482
 31
0
  0
LINE
  8
1
 62
3
 10
286.6650344930504
 20
-0.585185544234518
 30
0
 11
286.6645120361909
 21
-0.3938149472225216
 31
0
  0
LINE
  8
1
 62
3
 10
286.6650344930504
 20
2.414814455765482
 30
0
 11
286.6650344930504
 21
-0.585185544234518
 31
0
  0
LINE
  8
1
 62
3
 10
286.6645120361909
 20
23.91481445576548
 30
0
 11
286.1645120361909
 21
23.91481445576548
 31
0
  0
LINE
  8
1
 62
3
 10
286.6645120361909
 20
-4.085185544234518
 30
0
 11
287.1650344930504
 21
-4.085185544234518
 31
0
  0
LINE
  8
1
 62
3
 10
281.1650344930504
 20
23.91481445576548
 30
0
 11
281.1650344930504
 21
-4.085185544234518
 31
0
  0
LINE
  8
1
 62
3
 10
287.1650344930504
 20
23.91481445576548
 30
0
 11
286.6645120361909
 21
23.91481445576548
 31
0
  0
LINE
  8
1
 62
3
 10
287.1650344930504
 20
-4.085185544234518
 30
0
 11
287.1650344930504
 21
23.91481445576548
 31
0
  0
LINE
  8
1
 62
3
 10
281.1650344930504
 20
-4.085185544234518
 30
0
 11
286.1645120361909
 21
-4.085185544234518
 31
0
  0
LINE
  8
1
 62
3
 10
286.1645120361909
 20
-0.3938149472225216
 30
0
 11
286.1645120361909
 21
-4.085185544234518
 31
0
  0
LINE
  8
1
 62
3
 10
286.1645120361909
 20
-4.085185544234518
 30
0
 11
286.6645120361909
 21
-4.085185544234518
 31
0
  0
LINE
  8
1
 62
3
 10
286.1645120361909
 20
2.223443858753656
 30
0
 11
286.1645120361909
 21
17.60618505277748
 31
0
  0
LINE
  8
1
 62
3
 10
286.1645120361909
 20
23.91481445576548
 30
0
 11
281.1650344930504
 21
23.91481445576548
 31
0
  0
LINE
  8
1
 62
3
 10
286.6645120361909
 20
20.22344385875354
 30
0
 11
286.6650344930504
 21
20.41481445576548
 31
0
  0
LINE
  8
1
 62
3
 10
286.6650344930504
 20
17.41481445576548
 30
0
 11
286.6645120361909
 21
17.60618505277742
 31
0
  0
LINE
  8
1
 62
3
 10
286.6650344930504
 20
20.41481445576548
 30
0
 11
286.6650344930504
 21
17.41481445576548
 31
0
  0
LINE
  8
1
 62
3
 10
286.1645120361909
 20
20.22344385875354
 30
0
 11
286.1645120361909
 21
23.91481445576548
 31
0
  0
LINE
  8
1
 62
3
 10
283.2645042979693
 20
23.91481445576548
 30
0
 11
283.2645042979693
 21
49.61480578561796
 31
0
  0
LINE
  8
1
 62
3
 10
283.9645042979682
 20
23.91481445576548
 30
0
 11
283.964504297968
 21
48.41481445576503
 31
0
  0
LINE
  8
1
 62
3
 10
284.4645042979689
 20
23.91481445576548
 30
0
 11
284.4645042979689
 21
51.01481445576528
 31
0
  0
LINE
  8
1
 62
3
 10
281.1650344930504
 20
25.41481445576542
 30
0
 11
281.1650344930504
 21
-5.585185544234404
 31
0
  0
LINE
  8
1
 62
3
 10
281.1645120361853
 20
29.41481445576554
 30
0
 11
279.5645120361853
 21
29.41481445576554
 31
0
  0
LINE
  8
1
 62
3
 10
281.1650344930504
 20
29.61481445576564
 30
0
 11
281.1650344930504
 21
25.41481445576542
 31
0
  0
LINE
  8
1
 62
3
 10
281.1650344930504
 20
25.41481445576542
 30
0
 11
281.9274599551094
 21
25.41481445576571
 31
0
  0
LINE
  8
1
 62
3
 10
282.9650344930503
 20
27.87731445576591
 30
0
 11
282.7900344930504
 21
27.87731445576591
 31
0
  0
LINE
  8
1
 62
3
 10
282.7900344930504
 20
27.87731445576591
 30
0
 11
282.7900344930504
 21
27.15231445576555
 31
0
  0
LINE
  8
1
 62
3
 10
282.7900344930504
 20
27.15231445576555
 30
0
 11
282.9650344930503
 21
27.15231445576555
 31
0
  0
LINE
  8
1
 62
3
 10
281.9274599551094
 20
29.61481445576541
 30
0
 11
281.1650344930504
 21
29.61481445576564
 31
0
  0
LINE
  8
1
 62
3
 10
279.5645120361853
 20
-9.585185544234518
 30
0
 11
281.1645120361853
 21
-9.585185544234518
 31
0
  0
LINE
  8
1
 62
3
 10
281.1650344930504
 20
-5.585185544234404
 30
0
 11
281.1650344930504
 21
-9.78518554423462
 31
0
  0
LINE
  8
1
 62
1
 10
246.799311622006
 20
9.914814455765368
 30
0
 11
337.0645042979691
 21
9.914814455765596
 31
0
  0
LINE
  8
1
 62
3
 10
269.5645042979693
 20
-35.08518554423463
 30
0
 11
270.5645042979695
 21
-35.08518554423441
 31
0
  0
LINE
  8
1
 62
3
 10
281.9274599551094
 20
-5.585185544234745
 30
0
 11
281.1650344930504
 21
-5.585185544234404
 31
0
  0
LINE
  8
1
 62
3
 10
282.7900344930504
 20
-8.04768554423495
 30
0
 11
282.9650344930503
 21
-8.04768554423495
 31
0
  0
LINE
  8
1
 62
3
 10
282.7900344930504
 20
-7.322685544234529
 30
0
 11
282.7900344930504
 21
-8.04768554423495
 31
0
  0
LINE
  8
1
 62
3
 10
282.9650344930503
 20
-7.322685544234529
 30
0
 11
282.7900344930504
 21
-7.322685544234529
 31
0
  0
LINE
  8
1
 62
3
 10
281.1650344930504
 20
-9.78518554423462
 30
0
 11
281.9274599551094
 21
-9.78518554423445
 31
0
  0
LINE
  8
1
 62
3
 10
284.464504297969
 20
-28.58517687408656
 30
0
 11
283.9645042979689
 21
-28.58517687408656
 31
0
  0
LINE
  8
1
 62
3
 10
284.4645042979682
 20
48.41481445576503
 30
0
 11
283.964504297968
 21
48.41481445576503
 31
0
  0
LINE
  8
1
 62
3
 10
283.9645042979689
 20
-28.58517687408656
 30
0
 11
283.9645042979686
 21
-4.085185544234518
 31
0
  0
LINE
  8
1
 62
3
 10
279.5645120361853
 20
51.41481445576548
 30
0
 11
279.5645120361855
 21
-31.58518554423452
 31
0
  0
LINE
  8
1
 62
3
 10
269.5645042979693
 20
51.41481445576571
 30
0
 11
269.5645042979693
 21
-33.74271462847386
 31
0
  0
LINE
  8
1
 62
3
 10
284.4645042979689
 20
-31.18518554423437
 30
0
 11
284.464504297969
 21
-28.58517687408656
 31
0
  0
LINE
  8
1
 62
3
 10
286.0645042979688
 20
-31.18518554423437
 30
0
 11
284.4645042979689
 21
-31.18518554423437
 31
0
  0
LINE
  8
1
 62
3
 10
332.0645042979691
 20
17.23363471354585
 30
0
 11
332.0645042979691
 21
2.314814455765573
 31
0
  0
LINE
  8
1
 62
3
 10
332.0645042979691
 20
2.595994197985165
 30
0
 11
332.0645042979691
 21
2.314814455765573
 31
0
  0
LINE
  8
1
 62
3
 10
331.2645042979689
 20
1.514814455765505
 30
0
 11
331.0645042979691
 21
1.514814455765505
 31
0
  0
LINE
  8
1
 62
3
 10
331.0645042979691
 20
1.514814455765505
 30
0
 11
331.0645042979691
 21
2.414814455765596
 31
0
  0
LINE
  8
1
 62
3
 10
332.0645042979691
 20
17.51481445576528
 30
0
 11
332.0645042979691
 21
17.23363471354585
 31
0
  0
LINE
  8
1
 62
3
 10
331.0645042979691
 20
18.31481445576557
 30
0
 11
331.2645042979689
 21
18.31481445576557
 31
0
  0
LINE
  8
1
 62
3
 10
331.0645042979691
 20
2.414814455765596
 30
0
 11
331.0645042979691
 21
18.31481445576557
 31
0
  0
LINE
  8
1
 62
3
 10
331.0645042979691
 20
18.91481445576537
 30
0
 11
331.0645042979691
 21
2.414814455765596
 31
0
  0
LINE
  8
1
 62
3
 10
284.464504297969
 20
-28.58517687408656
 30
0
 11
284.4645042979689
 21
-4.085185544234518
 31
0
  0
LINE
  8
1
 62
3
 10
284.4645042979689
 20
51.01481445576528
 30
0
 11
286.0645042979688
 21
51.01481445576528
 31
0
  0
LINE
  8
1
 62
3
 10
287.0645042979688
 20
-30.18518554423437
 30
0
 11
328.4645042979689
 21
-30.18518554423443
 31
0
  0
LINE
  8
1
 62
3
 10
331.0645042979691
 20
-27.58518554423446
 30
0
 11
331.0645042979691
 21
2.414814455765596
 31
0
  0
LINE
  8
1
 62
3
 10
331.0645042979691
 20
47.41481445576537
 30
0
 11
331.0645042979691
 21
18.91481445576537
 31
0
  0
LINE
  8
1
 62
3
 10
287.0645042979688
 20
50.01481445576528
 30
0
 11
328.4645042979689
 21
50.01481445576528
 31
0
  0
LINE
  8
1
 62
3
 10
283.2645042979693
 20
-31.58518554423452
 30
0
 11
283.2645042979693
 21
-24.12927460533254
 31
0
  0
LINE
  8
1
 62
3
 10
279.5645120361855
 20
-31.58518554423452
 30
0
 11
283.2645042979693
 21
-31.58518554423452
 31
0
  0
LINE
  8
1
 62
3
 10
283.2645042979693
 20
-24.12927460533254
 30
0
 11
283.2645042979693
 21
-4.085185544234518
 31
0
  0
LINE
  8
1
 62
3
 10
266.5645042979693
 20
14.91481445576571
 30
0
 11
266.5645042979693
 21
46.91481445576571
 31
0
  0
LINE
  8
1
 62
3
 10
266.5645042979693
 20
14.91481445576571
 30
0
 11
266.5645042979693
 21
-27.08518554423429
 31
0
  0
LINE
  8
1
 62
3
 10
266.5645042979693
 20
-27.08518554423429
 30
0
 11
266.5645042979693
 21
-31.23518554423421
 31
0
  0
LINE
  8
1
 62
3
 10
266.9145042979691
 20
-31.58518554423407
 30
0
 11
266.5645042979693
 21
-31.23518554423421
 31
0
  0
LINE
  8
1
 62
3
 10
269.5645042979693
 20
-31.58518554423407
 30
0
 11
266.9145042979691
 21
-31.58518554423407
 31
0
  0
LINE
  8
1
 62
3
 10
269.5645042979693
 20
-31.58518554423407
 30
0
 11
269.5645042979693
 21
-35.08518554423463
 31
0
  0
LINE
  8
1
 62
3
 10
266.9145042979691
 20
51.41481445576571
 30
0
 11
266.5645042979693
 21
51.06481445576586
 31
0
  0
LINE
  8
1
 62
3
 10
266.5645042979693
 20
51.06481445576586
 30
0
 11
266.5645042979693
 21
46.91481445576571
 31
0
  0
LINE
  8
1
 62
3
 10
266.9145042979691
 20
51.41481445576571
 30
0
 11
269.5645042979693
 21
51.41481445576571
 31
0
  0
LINE
  8
1
 62
3
 10
269.5645042979693
 20
54.91481445576571
 30
0
 11
269.5645042979693
 21
51.41481445576571
 31
0
  0
LINE
  8
1
 62
3
 10
279.5645120361853
 20
51.41481445576548
 30
0
 11
279.5645120361853
 21
52.51481445576545
 31
0
  0
LINE
  8
1
 62
3
 10
279.5645120361853
 20
51.41481445576548
 30
0
 11
283.2645042979693
 21
51.41481445576548
 31
0
  0
LINE
  8
1
 62
3
 10
283.2645042979693
 20
51.41481445576548
 30
0
 11
283.2645042979693
 21
49.61480578561796
 31
0
  0
LINE
  8
1
 62
3
 10
276.0645042979693
 20
54.91481445576571
 30
0
 11
276.0645042979693
 21
-35.08518554423424
 31
0
  0
LINE
  8
1
 62
3
 10
276.0645042979693
 20
-22.23518554423416
 30
0
 11
277.5645042979693
 21
-22.23518554423416
 31
0
  0
LINE
  8
1
 62
3
 10
277.5645042979693
 20
-31.43518554423415
 30
0
 11
276.0645042979693
 21
-31.43518554423415
 31
0
  0
LINE
  8
1
 62
3
 10
277.5645042979693
 20
-22.23518554423416
 30
0
 11
277.5645042979693
 21
-31.43518554423415
 31
0
  0
LINE
  8
1
 62
3
 10
277.5645042979693
 20
51.26481445576818
 30
0
 11
277.5645042979693
 21
42.0648144557683
 31
0
  0
LINE
  8
1
 62
3
 10
277.5645042979693
 20
51.26481445576818
 30
0
 11
276.0645042979693
 21
51.26481445576818
 31
0
  0
LINE
  8
1
 62
3
 10
277.5645042979693
 20
42.0648144557683
 30
0
 11
276.0645042979693
 21
42.0648144557683
 31
0
  0
LINE
  8
1
 62
3
 10
279.5645120361853
 20
37.91481445576588
 30
0
 11
276.0645042979693
 21
37.91481445576588
 31
0
  0
LINE
  8
1
 62
3
 10
279.5645120361853
 20
-18.08518554423452
 30
0
 11
276.0645042979693
 21
-18.08518554423452
 31
0
  0
LINE
  8
1
 62
1
 10
282.4566625713508
 20
159.7155475598472
 30
0
 11
335.300983395157
 21
159.7155475598472
 31
0
  0
LINE
  8
1
 62
3
 10
284.4645042979689
 20
200.8155475598471
 30
0
 11
286.0645042979689
 21
200.8155475598471
 31
0
  0
LINE
  8
1
 62
3
 10
286.0645042979689
 20
118.6155475598474
 30
0
 11
284.4645042979689
 21
118.6155475598474
 31
0
  0
LINE
  8
1
 62
1
 10
248.635438225822
 20
159.7155475598471
 30
0
 11
271.564504297969
 21
159.7155475598473
 31
0
  0
LINE
  8
1
 62
3
 10
279.5645120361854
 20
131.7155475598472
 30
0
 11
276.0645042979693
 21
131.7155475598472
 31
0
  0
LINE
  8
1
 62
3
 10
279.5645120361854
 20
187.7155475598476
 30
0
 11
276.0645042979693
 21
187.7155475598476
 31
0
  0
LINE
  8
1
 62
3
 10
277.5645042979693
 20
191.8655475598499
 30
0
 11
276.0645042979693
 21
191.8655475598499
 31
0
  0
LINE
  8
1
 62
3
 10
277.5645042979693
 20
201.0655475598499
 30
0
 11
276.0645042979693
 21
201.0655475598499
 31
0
  0
LINE
  8
1
 62
3
 10
277.5645042979693
 20
201.0655475598499
 30
0
 11
277.5645042979693
 21
191.8655475598499
 31
0
  0
LINE
  8
1
 62
3
 10
277.5645042979693
 20
127.5655475598476
 30
0
 11
277.5645042979693
 21
118.3655475598476
 31
0
  0
LINE
  8
1
 62
3
 10
277.5645042979693
 20
118.3655475598476
 30
0
 11
276.0645042979693
 21
118.3655475598476
 31
0
  0
LINE
  8
1
 62
3
 10
276.0645042979693
 20
127.5655475598476
 30
0
 11
277.5645042979693
 21
127.5655475598476
 31
0
  0
LINE
  8
1
 62
3
 10
276.0645042979693
 20
204.7155475598474
 30
0
 11
276.0645042979693
 21
114.7155475598475
 31
0
  0
LINE
  8
1
 62
1
 10
168.381250879585
 20
159.7155475598476
 30
0
 11
171.881250879585
 21
159.7155475598476
 31
0
  0
LINE
  8
1
 62
1
 10
163.881250879585
 20
159.7155475598476
 30
0
 11
168.381250879585
 21
159.7155475598476
 31
0
  0
LINE
  8
1
 62
1
 10
139.881250879585
 20
159.7155475598476
 30
0
 11
163.881250879585
 21
159.7155475598476
 31
0
  0
LINE
  8
1
 62
1
 10
136.881250879585
 20
159.7155475598476
 30
0
 11
139.881250879585
 21
159.7155475598476
 31
0
  0
LINE
  8
1
 62
1
 10
135.881250879585
 20
159.7155475598476
 30
0
 11
136.881250879585
 21
159.7155475598476
 31
0
  0
LINE
  8
1
 62
1
 10
167.5469114263154
 20
122.9655475598476
 30
0
 11
166.8812508795849
 21
122.9655475598476
 31
0
  0
LINE
  8
1
 62
1
 10
166.8812508795849
 20
122.9655475598476
 30
0
 11
160.6910747928233
 21
122.9655475598476
 31
0
  0
LINE
  8
1
 62
1
 10
93.38125087958503
 20
122.9655475598476
 30
0
 11
85.99338128148139
 21
122.9655475598476
 31
0
  0
LINE
  8
1
 62
1
 10
93.38125087958503
 20
196.4655475598476
 30
0
 11
85.69107479282354
 21
196.4655475598477
 31
0
  0
LINE
  8
1
 62
1
 10
94.57142696634645
 20
196.4655475598477
 30
0
 11
93.38125087958503
 21
196.4655475598476
 31
0
  0
LINE
  8
1
 62
1
 10
90.13125087958497
 20
192.0253714730862
 30
0
 11
90.13125087958497
 21
200.9057236466091
 31
0
  0
LINE
  8
1
 62
1
 10
168.0714269663465
 20
122.9655475598476
 30
0
 11
159.1910747928235
 21
122.9655475598476
 31
0
  0
LINE
  8
1
 62
1
 10
163.631250879585
 20
118.5253714730862
 30
0
 11
163.631250879585
 21
127.4057236466091
 31
0
  0
LINE
  8
1
 62
3
 10
89.38125087958497
 20
114.7155475598477
 30
0
 11
98.38125087958503
 21
114.7155475598476
 31
0
  0
LINE
  8
1
 62
3
 10
101.381250879585
 20
114.7155475598476
 30
0
 11
98.38125087958503
 21
114.7155475598476
 31
0
  0
LINE
  8
1
 62
3
 10
102.3812508795853
 20
114.7155475598474
 30
0
 11
155.3812508795853
 21
114.7155475598476
 31
0
  0
LINE
  8
1
 62
3
 10
152.381250879585
 20
114.7155475598476
 30
0
 11
155.3812508795853
 21
114.7155475598476
 31
0
  0
LINE
  8
1
 62
3
 10
147.381250879585
 20
106.2155475598477
 30
0
 11
106.381250879585
 21
106.2155475598473
 31
0
  0
LINE
  8
1
 62
3
 10
148.381250879585
 20
110.7155475598476
 30
0
 11
148.381250879585
 21
107.2155475598477
 31
0
  0
LINE
  8
1
 62
3
 10
105.381250879585
 20
110.7155475598476
 30
0
 11
105.381250879585
 21
107.2155475598473
 31
0
  0
LINE
  8
1
 62
1
 10
171.881250879585
 20
159.7155475598476
 30
0
 11
175.6430623396514
 21
159.7155475598476
 31
0
  0
LINE
  8
1
 62
3
 10
98.38125087958503
 20
114.7155475598476
 30
0
 11
102.3812508795853
 21
114.7155475598474
 31
0
  0
LINE
  8
1
 62
3
 10
81.88125087958497
 20
122.2155475598477
 30
0
 11
81.88125087958497
 21
197.2155475598477
 31
0
  0
LINE
  8
1
 62
3
 10
89.38125087958497
 20
204.7155475598477
 30
0
 11
126.881250879585
 21
204.7155475598476
 31
0
  0
LINE
  8
1
 62
3
 10
155.3812508795853
 20
114.7155475598476
 30
0
 11
164.381250879585
 21
114.7155475598477
 31
0
  0
LINE
  8
1
 62
1
 10
126.881250879585
 20
211.4202995096615
 30
0
 11
126.881250879585
 21
103.9292340875673
 31
0
  0
LINE
  8
1
 62
1
 10
126.881250879585
 20
159.7155475598477
 30
0
 11
126.881250879585
 21
109.6322335100388
 31
0
  0
LINE
  8
1
 62
1
 10
168.1501089054112
 20
196.4655475598477
 30
0
 11
158.2877488664926
 21
196.4655475598475
 31
0
  0
LINE
  8
1
 62
1
 10
163.631250879585
 20
200.9057236466091
 30
0
 11
163.631250879585
 21
192.0253714730862
 31
0
  0
LINE
  8
1
 62
1
 10
90.13125087958503
 20
127.4057236466091
 30
0
 11
90.13125087958503
 21
118.5253714730862
 31
0
  0
LINE
  8
1
 62
1
 10
96.07142696634634
 20
122.9655475598476
 30
0
 11
93.38125087958503
 21
122.9655475598476
 31
0
  0
LINE
  8
1
 62
3
 10
171.881250879585
 20
159.7155475598476
 30
0
 11
171.881250879585
 21
122.2155475598477
 31
0
  0
LINE
  8
1
 62
3
 10
126.881250879585
 20
204.7155475598476
 30
0
 11
164.381250879585
 21
204.7155475598477
 31
0
  0
LINE
  8
1
 62
3
 10
171.881250879585
 20
197.2155475598477
 30
0
 11
171.881250879585
 21
159.7155475598476
 31
0
  0
LINE
  8
1
 62
3
 10
279.5645120361855
 20
204.7155475598472
 30
0
 11
279.7145120361919
 21
204.7155475598474
 31
0
  0
LINE
  8
1
 62
3
 10
283.2645042979693
 20
201.4168664838337
 30
0
 11
283.2645042979693
 21
199.4155388896997
 31
0
  0
LINE
  8
1
 62
3
 10
279.5645120361854
 20
201.4168664838337
 30
0
 11
283.2645042979693
 21
201.4168664838337
 31
0
  0
LINE
  8
1
 62
3
 10
279.5645120361854
 20
201.4168664838337
 30
0
 11
279.5645120361855
 21
204.7155475598472
 31
0
  0
LINE
  8
1
 62
3
 10
279.7145120361919
 20
204.7155475598474
 30
0
 11
269.5645042979693
 21
204.7155475598474
 31
0
  0
LINE
  8
1
 62
3
 10
269.5645042979693
 20
204.7155475598474
 30
0
 11
269.5645042979693
 21
201.2155475598474
 31
0
  0
LINE
  8
1
 62
3
 10
266.9145042979691
 20
201.2155475598474
 30
0
 11
269.5645042979693
 21
201.2155475598474
 31
0
  0
LINE
  8
1
 62
3
 10
266.5645042979693
 20
200.8655475598476
 30
0
 11
266.5645042979693
 21
196.7155475598474
 31
0
  0
LINE
  8
1
 62
3
 10
266.9145042979691
 20
201.2155475598474
 30
0
 11
266.5645042979693
 21
200.8655475598476
 31
0
  0
LINE
  8
1
 62
3
 10
279.5645042979696
 20
106.2155475598478
 30
0
 11
270.5645042979696
 21
106.2155475598476
 31
0
  0
LINE
  8
1
 62
3
 10
269.5645042979693
 20
118.2155475598477
 30
0
 11
269.5645042979693
 21
114.7155475598471
 31
0
  0
LINE
  8
1
 62
3
 10
269.5645042979693
 20
118.2155475598477
 30
0
 11
266.9145042979691
 21
118.2155475598477
 31
0
  0
LINE
  8
1
 62
3
 10
266.9145042979691
 20
118.2155475598477
 30
0
 11
266.5645042979693
 21
118.5655475598475
 31
0
  0
LINE
  8
1
 62
3
 10
266.5645042979693
 20
122.7155475598474
 30
0
 11
266.5645042979693
 21
118.5655475598475
 31
0
  0
LINE
  8
1
 62
3
 10
266.5645042979693
 20
164.7155475598474
 30
0
 11
266.5645042979693
 21
122.7155475598474
 31
0
  0
LINE
  8
1
 62
3
 10
266.5645042979693
 20
164.7155475598474
 30
0
 11
266.5645042979693
 21
196.7155475598474
 31
0
  0
LINE
  8
1
 62
3
 10
279.5645042979696
 20
106.2155475598478
 30
0
 11
279.5645042979696
 21
111.4655475598473
 31
0
  0
LINE
  8
1
 62
3
 10
279.5645042979696
 20
114.7155475598477
 30
0
 11
279.5645042979696
 21
111.4655475598473
 31
0
  0
LINE
  8
1
 62
3
 10
283.2645042979693
 20
144.7155475598476
 30
0
 11
283.2645042979693
 21
199.4155388896997
 31
0
  0
LINE
  8
1
 62
3
 10
283.2645042979693
 20
125.6714584987492
 30
0
 11
283.2645042979693
 21
144.7155475598476
 31
0
  0
LINE
  8
1
 62
3
 10
279.5645120361854
 20
123.3424806009012
 30
0
 11
283.2645042979693
 21
123.3424806009012
 31
0
  0
LINE
  8
1
 62
3
 10
279.5645120361855
 20
114.7155475598477
 30
0
 11
279.5645120361854
 21
123.3424806009012
 31
0
  0
LINE
  8
1
 62
3
 10
279.5645042979696
 20
114.7155475598477
 30
0
 11
279.5645120361855
 21
114.7155475598477
 31
0
  0
LINE
  8
1
 62
3
 10
283.2645042979693
 20
123.3424806009012
 30
0
 11
283.2645042979693
 21
125.6714584987492
 31
0
  0
LINE
  8
1
 62
1
 10
334.9799235144343
 20
159.7155475598476
 30
0
 11
265.1352627404173
 21
159.7155475598476
 31
0
  0
LINE
  8
1
 62
1
 10
79.5054324926644
 20
159.7155475598476
 30
0
 11
135.881250879585
 21
159.7155475598476
 31
0
  0
LINE
  8
1
 62
3
 10
287.0645042979689
 20
199.8155475598471
 30
0
 11
328.4645042979689
 21
199.8155475598471
 31
0
  0
LINE
  8
1
 62
3
 10
331.0645042979691
 20
197.2155475598472
 30
0
 11
331.0645042979691
 21
168.7155475598472
 31
0
  0
LINE
  8
1
 62
3
 10
331.0645042979691
 20
122.2155475598473
 30
0
 11
331.0645042979691
 21
152.2155475598473
 31
0
  0
LINE
  8
1
 62
3
 10
287.0645042979689
 20
119.6155475598474
 30
0
 11
328.4645042979689
 21
119.6155475598473
 31
0
  0
LINE
  8
1
 62
3
 10
284.4645042979689
 20
200.8155475598471
 30
0
 11
286.0645042979689
 21
200.8155475598471
 31
0
  0
LINE
  8
1
 62
3
 10
284.4645042979691
 20
121.2155562299952
 30
0
 11
284.4645042979689
 21
200.8155475598471
 31
0
  0
LINE
  8
1
 62
3
 10
331.0645042979691
 20
168.7155475598472
 30
0
 11
331.0645042979691
 21
152.2155475598473
 31
0
  0
LINE
  8
1
 62
3
 10
331.0645042979691
 20
152.2155475598473
 30
0
 11
331.0645042979691
 21
168.1155475598473
 31
0
  0
LINE
  8
1
 62
3
 10
331.0645042979691
 20
168.1155475598473
 30
0
 11
331.2645042979689
 21
168.1155475598473
 31
0
  0
LINE
  8
1
 62
3
 10
332.0645042979691
 20
167.3155475598471
 30
0
 11
332.0645042979691
 21
167.0343678176276
 31
0
  0
LINE
  8
1
 62
3
 10
331.0645042979691
 20
151.3155475598472
 30
0
 11
331.0645042979691
 21
152.2155475598473
 31
0
  0
LINE
  8
1
 62
3
 10
331.2645042979689
 20
151.3155475598472
 30
0
 11
331.0645042979691
 21
151.3155475598472
 31
0
  0
LINE
  8
1
 62
3
 10
332.0645042979691
 20
152.3967273020669
 30
0
 11
332.0645042979691
 21
152.1155475598473
 31
0
  0
LINE
  8
1
 62
3
 10
332.0645042979691
 20
167.0343678176276
 30
0
 11
332.0645042979691
 21
152.1155475598473
 31
0
  0
LINE
  8
1
 62
3
 10
286.0645042979689
 20
118.6155475598474
 30
0
 11
284.4645042979689
 21
118.6155475598474
 31
0
  0
LINE
  8
1
 62
3
 10
284.4645042979689
 20
118.6155475598474
 30
0
 11
284.4645042979691
 21
121.2155562299952
 31
0
  0
LINE
  8
1
 62
3
 10
269.5645042979693
 20
201.2155475598474
 30
0
 11
269.5645042979693
 21
116.0580184756079
 31
0
  0
LINE
  8
1
 62
3
 10
279.5645120361854
 20
201.4168664838337
 30
0
 11
279.5645120361854
 21
123.3424806009012
 31
0
  0
LINE
  8
1
 62
3
 10
279.5645042979696
 20
114.7155475598477
 30
0
 11
269.5645042979693
 21
114.7155475598471
 31
0
  0
LINE
  8
1
 62
3
 10
283.9645042979689
 20
121.2155562299952
 30
0
 11
283.964504297968
 21
198.2155475598468
 31
0
  0
LINE
  8
1
 62
3
 10
284.4645042979682
 20
198.2155475598468
 30
0
 11
283.964504297968
 21
198.2155475598468
 31
0
  0
LINE
  8
1
 62
3
 10
284.4645042979691
 20
121.2155562299952
 30
0
 11
283.9645042979689
 21
121.2155562299952
 31
0
  0
LINE
  8
1
 62
3
 10
281.1645120361916
 20
109.2083475598466
 30
0
 11
279.5645042979696
 21
109.2083475598466
 31
0
  0
LINE
  8
1
 62
3
 10
281.1645120361909
 20
112.508347559847
 30
0
 11
281.1645120361916
 21
109.2083475598466
 31
0
  0
LINE
  8
1
 62
3
 10
287.1645120361909
 20
117.508347559847
 30
0
 11
287.1645120361909
 21
107.508347559847
 31
0
  0
LINE
  8
1
 62
3
 10
287.1645120361909
 20
107.508347559847
 30
0
 11
286.1645120361909
 21
107.508347559847
 31
0
  0
LINE
  8
1
 62
3
 10
286.1645120361909
 20
107.508347559847
 30
0
 11
286.1645120361909
 21
112.508347559847
 31
0
  0
LINE
  8
1
 62
3
 10
286.1645120361909
 20
112.508347559847
 30
0
 11
282.5431817881125
 21
112.508347559847
 31
0
  0
LINE
  8
1
 62
3
 10
283.9145120361909
 20
112.508347559847
 30
0
 11
283.9145120361909
 21
108.508347559847
 31
0
  0
LINE
  8
1
 62
3
 10
283.9145120361909
 20
108.508347559847
 30
0
 11
284.4145120361909
 21
108.508347559847
 31
0
  0
LINE
  8
1
 62
3
 10
284.4145120361909
 20
108.508347559847
 30
0
 11
284.4145120361909
 21
112.508347559847
 31
0
  0
LINE
  8
1
 62
3
 10
279.5645042979696
 20
109.2083475598466
 30
0
 11
279.5645042979696
 21
114.7155475598477
 31
0
  0
LINE
  8
1
 62
3
 10
281.1650344930504
 20
112.1078908589526
 30
0
 11
281.9274599551094
 21
112.1078908589528
 31
0
  0
LINE
  8
1
 62
3
 10
282.9650344930503
 20
114.5703908589527
 30
0
 11
282.7900344930504
 21
114.5703908589527
 31
0
  0
LINE
  8
1
 62
3
 10
282.7900344930504
 20
114.5703908589527
 30
0
 11
282.7900344930504
 21
113.8453908589523
 31
0
  0
LINE
  8
1
 62
3
 10
282.7900344930504
 20
113.8453908589523
 30
0
 11
282.9650344930503
 21
113.8453908589523
 31
0
  0
LINE
  8
1
 62
3
 10
281.1650344930508
 20
123.3424806009011
 30
0
 11
281.1650344930504
 21
112.1078908589526
 31
0
  0
LINE
  8
1
 62
1
 10
282.4566625713508
 20
159.7155475598472
 30
0
 11
335.300983395157
 21
159.7155475598472
 31
0
  0
LINE
  8
1
 62
1
 10
334.9799235144343
 20
159.7155475598476
 30
0
 11
265.1352627404173
 21
159.7155475598476
 31
0
  0
LINE
  8
1
 62
3
 10
279.5645042979696
 20
114.7155475598477
 30
0
 11
279.5645042979696
 21
111.4655475598473
 31
0
  0
LINE
  8
1
 62
3
 10
281.1650344930506
 20
117.508347559847
 30
0
 11
287.1645120361909
 21
117.508347559847
 31
0
  0
LINE
  8
1
 62
3
 10
281.9274599551094
 20
116.3078908589525
 30
0
 11
281.1650344930504
 21
116.3078908589528
 31
0
  0
LINE
  8
1
 62
3
 10
270.5645042979696
 20
106.2155475598476
 30
0
 11
270.5645042979696
 21
114.7155475598473
 31
0
  0
LINE
  8
1
 62
3
 10
269.5645042979693
 20
114.7155475598471
 30
0
 11
270.5645042979696
 21
114.7155475598473
 31
0
  0
LINE
  8
1
 62
1
 10
248.635438225822
 20
159.7155475598471
 30
0
 11
271.564504297969
 21
159.7155475598473
 31
0
  0
LINE
  8
1
 62
2
 10
353.0183951746564
 20
286.4473953104522
 30
0
 11
354.9183951746566
 21
286.4473953104522
 31
0
  0
LINE
  8
1
 62
2
 10
354.9183951746566
 20
286.4473953104522
 30
0
 11
354.9183951746566
 21
284.5473953104522
 31
0
  0
LINE
  8
1
 62
2
 10
353.0183951746564
 20
284.5473953104522
 30
0
 11
353.0183951746564
 21
286.4473953104522
 31
0
  0
LINE
  8
1
 62
2
 10
354.9183951746566
 20
284.5473953104522
 30
0
 11
353.0183951746564
 21
284.5473953104522
 31
0
  0
LINE
  8
1
 62
3
 10
352.2183951746564
 20
287.2473953104524
 30
0
 11
352.2183951746564
 21
283.7473953104524
 31
0
  0
LINE
  8
1
 62
3
 10
352.2183951746564
 20
283.7473953104524
 30
0
 11
355.7183951746564
 21
283.7473953104519
 31
0
  0
LINE
  8
1
 62
3
 10
355.7183951746564
 20
287.2473953104519
 30
0
 11
355.7183951746564
 21
283.7473953104519
 31
0
  0
LINE
  8
1
 62
3
 10
352.2183951746564
 20
287.2473953104524
 30
0
 11
355.7183951746564
 21
287.2473953104519
 31
0
  0
LINE
  8
1
 62
2
 10
353.0183951746564
 20
290.6473953104521
 30
0
 11
354.9183951746566
 21
290.6473953104521
 31
0
  0
LINE
  8
1
 62
2
 10
353.0183951746564
 20
288.7473953104524
 30
0
 11
353.0183951746564
 21
290.6473953104521
 31
0
  0
LINE
  8
1
 62
2
 10
354.9183951746566
 20
288.7473953104524
 30
0
 11
353.0183951746564
 21
288.7473953104524
 31
0
  0
LINE
  8
1
 62
2
 10
354.9183951746566
 20
290.6473953104521
 30
0
 11
354.9183951746566
 21
288.7473953104524
 31
0
  0
LINE
  8
1
 62
3
 10
355.7183951746564
 20
291.4473953104522
 30
0
 11
355.7183951746564
 21
287.9473953104522
 31
0
  0
LINE
  8
1
 62
3
 10
352.2183951746564
 20
291.4473953104524
 30
0
 11
352.2183951746564
 21
287.9473953104522
 31
0
  0
LINE
  8
1
 62
3
 10
352.2183951746564
 20
287.9473953104522
 30
0
 11
355.7183951746564
 21
287.9473953104522
 31
0
  0
LINE
  8
1
 62
3
 10
352.2183951746564
 20
291.4473953104524
 30
0
 11
355.7183951746564
 21
291.4473953104522
 31
0
  0
LINE
  8
1
 62
2
 10
357.2183951746564
 20
280.3473953104524
 30
0
 11
357.2183951746564
 21
282.2473953104523
 31
0
  0
LINE
  8
1
 62
2
 10
357.2183951746564
 20
282.2473953104523
 30
0
 11
359.1183951746561
 21
282.2473953104523
 31
0
  0
LINE
  8
1
 62
2
 10
359.1183951746561
 20
282.2473953104523
 30
0
 11
359.1183951746561
 21
280.3473953104524
 31
0
  0
LINE
  8
1
 62
2
 10
359.1183951746561
 20
280.3473953104524
 30
0
 11
357.2183951746564
 21
280.3473953104524
 31
0
  0
LINE
  8
1
 62
3
 10
359.9183951746566
 20
283.0473953104522
 30
0
 11
359.9183951746566
 21
279.5473953104522
 31
0
  0
LINE
  8
1
 62
3
 10
356.4183951746566
 20
283.0473953104522
 30
0
 11
356.4183951746566
 21
279.5473953104522
 31
0
  0
LINE
  8
1
 62
3
 10
356.4183951746566
 20
279.5473953104522
 30
0
 11
359.9183951746566
 21
279.5473953104522
 31
0
  0
LINE
  8
1
 62
3
 10
356.4183951746566
 20
283.0473953104522
 30
0
 11
359.9183951746566
 21
283.0473953104522
 31
0
  0
LINE
  8
1
 62
2
 10
357.2183951746564
 20
292.9473953104528
 30
0
 11
357.2183951746564
 21
294.8473953104526
 31
0
  0
LINE
  8
1
 62
2
 10
357.2183951746564
 20
294.8473953104526
 30
0
 11
359.1183951746564
 21
294.8473953104526
 31
0
  0
LINE
  8
1
 62
2
 10
359.1183951746564
 20
294.8473953104526
 30
0
 11
359.1183951746564
 21
292.9473953104528
 31
0
  0
LINE
  8
1
 62
2
 10
359.1183951746564
 20
292.9473953104528
 30
0
 11
357.2183951746564
 21
292.9473953104528
 31
0
  0
LINE
  8
1
 62
3
 10
359.9183951746566
 20
295.6473953104527
 30
0
 11
359.9183951746566
 21
292.1473953104527
 31
0
  0
LINE
  8
1
 62
3
 10
356.4183951746566
 20
295.6473953104527
 30
0
 11
356.4183951746566
 21
292.1473953104527
 31
0
  0
LINE
  8
1
 62
3
 10
356.4183951746566
 20
292.1473953104527
 30
0
 11
359.9183951746566
 21
292.1473953104527
 31
0
  0
LINE
  8
1
 62
3
 10
356.4183951746566
 20
295.6473953104527
 30
0
 11
359.9183951746566
 21
295.6473953104527
 31
0
  0
LINE
  8
1
 62
3
 10
362.0683951746563
 20
296.0973953104517
 30
0
 11
362.0683951746562
 21
279.0973953104526
 31
0
  0
LINE
  8
1
 62
3
 10
361.0683951746562
 20
278.5973953104526
 30
0
 11
361.5683951746562
 21
278.5973953104526
 31
0
  0
LINE
  8
1
 62
3
 10
361.0683951746563
 20
296.5973953104517
 30
0
 11
361.5683951746563
 21
296.5973953104517
 31
0
  0
LINE
  8
1
 62
3
 10
351.4683951746564
 20
284.8973953104521
 30
0
 11
351.4683951746564
 21
283.5973953104517
 31
0
  0
LINE
  8
1
 62
3
 10
350.9683951746564
 20
283.5973953104517
 30
0
 11
351.4683951746564
 21
283.5973953104517
 31
0
  0
LINE
  8
1
 62
3
 10
350.9683951746564
 20
278.5973953104526
 30
0
 11
351.4683951746564
 21
278.5973953104526
 31
0
  0
LINE
  8
1
 62
3
 10
350.4683951746564
 20
279.0973953104526
 30
0
 11
350.4683951746564
 21
283.0973953104517
 31
0
  0
LINE
  8
1
 62
3
 10
350.4683951746564
 20
296.0973953104517
 30
0
 11
350.4683951746564
 21
292.0973953104517
 31
0
  0
LINE
  8
1
 62
3
 10
351.4683951746564
 20
296.5973953104517
 30
0
 11
351.4683951746564
 21
291.5973953104517
 31
0
  0
LINE
  8
1
 62
3
 10
350.9683951746564
 20
291.5973953104517
 30
0
 11
351.4683951746564
 21
291.5973953104517
 31
0
  0
LINE
  8
1
 62
3
 10
350.9683951746564
 20
296.5973953104517
 30
0
 11
351.4683951746564
 21
296.5973953104517
 31
0
  0
LINE
  8
1
 62
2
 10
353.0183951746564
 20
294.8473953104524
 30
0
 11
354.9183951746566
 21
294.8473953104524
 31
0
  0
LINE
  8
1
 62
2
 10
353.0183951746564
 20
292.9473953104524
 30
0
 11
353.0183951746564
 21
294.8473953104524
 31
0
  0
LINE
  8
1
 62
2
 10
354.9183951746566
 20
292.9473953104524
 30
0
 11
353.0183951746564
 21
292.9473953104524
 31
0
  0
LINE
  8
1
 62
2
 10
354.9183951746566
 20
294.8473953104524
 30
0
 11
354.9183951746566
 21
292.9473953104524
 31
0
  0
LINE
  8
1
 62
2
 10
357.2183951746564
 20
288.7473953104527
 30
0
 11
357.2183951746564
 21
290.6473953104521
 31
0
  0
LINE
  8
1
 62
2
 10
357.2183951746564
 20
290.6473953104521
 30
0
 11
359.1183951746564
 21
290.6473953104521
 31
0
  0
LINE
  8
1
 62
2
 10
359.1183951746564
 20
290.6473953104521
 30
0
 11
359.1183951746561
 21
288.7473953104527
 31
0
  0
LINE
  8
1
 62
2
 10
359.1183951746561
 20
288.7473953104527
 30
0
 11
357.2183951746564
 21
288.7473953104527
 31
0
  0
LINE
  8
1
 62
2
 10
357.2183951746564
 20
284.5473953104522
 30
0
 11
357.2183951746564
 21
286.4473953104524
 31
0
  0
LINE
  8
1
 62
2
 10
357.2183951746564
 20
286.4473953104524
 30
0
 11
359.1183951746561
 21
286.4473953104524
 31
0
  0
LINE
  8
1
 62
2
 10
359.1183951746561
 20
286.4473953104524
 30
0
 11
359.1183951746561
 21
284.5473953104522
 31
0
  0
LINE
  8
1
 62
2
 10
359.1183951746561
 20
284.5473953104522
 30
0
 11
357.2183951746564
 21
284.5473953104522
 31
0
  0
LINE
  8
1
 62
2
 10
354.9183951746566
 20
280.3473953104524
 30
0
 11
353.0183951746564
 21
280.3473953104524
 31
0
  0
LINE
  8
1
 62
2
 10
353.0183951746564
 20
280.3473953104524
 30
0
 11
353.0183951746564
 21
282.2473953104524
 31
0
  0
LINE
  8
1
 62
2
 10
353.0183951746564
 20
282.2473953104524
 30
0
 11
354.9183951746566
 21
282.2473953104524
 31
0
  0
LINE
  8
1
 62
2
 10
354.9183951746566
 20
282.2473953104524
 30
0
 11
354.9183951746566
 21
280.3473953104524
 31
0
  0
LINE
  8
1
 62
3
 10
347.9683951746564
 20
289.0973953104526
 30
0
 11
350.2139426560316
 21
289.0973953104517
 31
0
  0
LINE
  8
1
 62
3
 10
347.9683951746564
 20
286.0973953104517
 30
0
 11
350.2139426560316
 21
286.0973953104517
 31
0
  0
LINE
  8
1
 62
2
 10
350.2139426560316
 20
289.0973953104517
 30
0
 11
350.2139426560316
 21
286.0973953104517
 31
0
  0
LINE
  8
1
 62
3
 10
347.9683951746564
 20
290.2973953104522
 30
0
 11
348.1090292313942
 21
290.2973953104522
 31
0
  0
LINE
  8
1
 62
3
 10
347.9683951746564
 20
284.8973953104521
 30
0
 11
348.1090292313942
 21
284.8973953104521
 31
0
  0
LINE
  8
1
 62
2
 10
348.1090292313942
 20
290.2973953104522
 30
0
 11
348.1090292313942
 21
284.8973953104521
 31
0
  0
LINE
  8
1
 62
3
 10
348.1090292313942
 20
290.2973953104522
 30
0
 11
348.9683951746564
 21
290.2973953104522
 31
0
  0
LINE
  8
1
 62
3
 10
348.1090292313942
 20
284.8973953104521
 30
0
 11
348.9683951746564
 21
284.8973953104521
 31
0
  0
LINE
  8
1
 62
3
 10
348.9683951746564
 20
290.2973953104522
 30
0
 11
348.9683951746564
 21
284.8973953104521
 31
0
  0
LINE
  8
1
 62
3
 10
347.9683951746564
 20
290.2973953104522
 30
0
 11
347.9683951746564
 21
284.8973953104521
 31
0
  0
LINE
  8
1
 62
3
 10
351.4683951746564
 20
286.0973953104517
 30
0
 11
351.4683951746564
 21
284.8973953104521
 31
0
  0
LINE
  8
1
 62
3
 10
348.9683951746564
 20
284.8973953104521
 30
0
 11
351.4683951746564
 21
284.8973953104521
 31
0
  0
LINE
  8
1
 62
3
 10
351.4683951746564
 20
289.0973953104517
 30
0
 11
351.4683951746564
 21
286.0973953104517
 31
0
  0
LINE
  8
1
 62
3
 10
350.2139426560316
 20
286.0973953104517
 30
0
 11
351.4683951746564
 21
286.0973953104517
 31
0
  0
LINE
  8
1
 62
3
 10
351.4683951746564
 20
290.2973953104522
 30
0
 11
351.4683951746564
 21
289.0973953104517
 31
0
  0
LINE
  8
1
 62
3
 10
350.2139426560316
 20
289.0973953104517
 30
0
 11
351.4683951746564
 21
289.0973953104517
 31
0
  0
LINE
  8
1
 62
3
 10
351.4683951746564
 20
291.5973953104517
 30
0
 11
351.4683951746564
 21
290.2973953104522
 31
0
  0
LINE
  8
1
 62
3
 10
348.9683951746564
 20
290.2973953104522
 30
0
 11
351.4683951746564
 21
290.2973953104522
 31
0
  0
LINE
  8
1
 62
3
 10
359.9183951746566
 20
291.4473953104524
 30
0
 11
359.9183951746566
 21
287.9473953104524
 31
0
  0
LINE
  8
1
 62
3
 10
356.4183951746566
 20
291.4473953104524
 30
0
 11
356.4183951746566
 21
287.9473953104524
 31
0
  0
LINE
  8
1
 62
3
 10
356.4183951746566
 20
287.9473953104524
 30
0
 11
359.9183951746566
 21
287.9473953104524
 31
0
  0
LINE
  8
1
 62
3
 10
356.4183951746566
 20
291.4473953104524
 30
0
 11
359.9183951746566
 21
291.4473953104524
 31
0
  0
LINE
  8
1
 62
3
 10
359.9183951746566
 20
287.2473953104524
 30
0
 11
359.9183951746566
 21
283.7473953104524
 31
0
  0
LINE
  8
1
 62
3
 10
356.4183951746566
 20
287.2473953104524
 30
0
 11
356.4183951746566
 21
283.7473953104524
 31
0
  0
LINE
  8
1
 62
3
 10
356.4183951746566
 20
283.7473953104524
 30
0
 11
359.9183951746566
 21
283.7473953104524
 31
0
  0
LINE
  8
1
 62
3
 10
356.4183951746566
 20
287.2473953104524
 30
0
 11
359.9183951746566
 21
287.2473953104524
 31
0
  0
LINE
  8
1
 62
3
 10
355.7183951746564
 20
295.6473953104521
 30
0
 11
355.7183951746564
 21
292.1473953104521
 31
0
  0
LINE
  8
1
 62
3
 10
352.2183951746564
 20
295.6473953104521
 30
0
 11
352.2183951746564
 21
292.1473953104521
 31
0
  0
LINE
  8
1
 62
3
 10
352.2183951746564
 20
292.1473953104521
 30
0
 11
355.7183951746564
 21
292.1473953104521
 31
0
  0
LINE
  8
1
 62
3
 10
352.2183951746564
 20
295.6473953104521
 30
0
 11
355.7183951746564
 21
295.6473953104521
 31
0
  0
LINE
  8
1
 62
3
 10
355.7183951746564
 20
283.0473953104522
 30
0
 11
355.7183951746564
 21
279.5473953104522
 31
0
  0
LINE
  8
1
 62
3
 10
352.2183951746564
 20
283.0473953104522
 30
0
 11
352.2183951746564
 21
279.5473953104522
 31
0
  0
LINE
  8
1
 62
3
 10
352.2183951746564
 20
279.5473953104522
 30
0
 11
355.7183951746564
 21
279.5473953104522
 31
0
  0
LINE
  8
1
 62
3
 10
352.2183951746564
 20
283.0473953104522
 30
0
 11
355.7183951746564
 21
283.0473953104522
 31
0
  0
LINE
  8
1
 62
3
 10
361.0683951746563
 20
296.5973953104517
 30
0
 11
361.0683951746562
 21
278.5973953104526
 31
0
  0
LINE
  8
1
 62
3
 10
351.4683951746564
 20
283.5973953104517
 30
0
 11
351.4683951746564
 21
278.5973953104526
 31
0
  0
LINE
  8
1
 62
3
 10
351.4683951746564
 20
278.5973953104526
 30
0
 11
361.0683951746562
 21
278.5973953104526
 31
0
  0
LINE
  8
1
 62
3
 10
351.4683951746564
 20
296.5973953104517
 30
0
 11
361.0683951746563
 21
296.5973953104517
 31
0
  0
LINE
  8
1
 62
3
 10
324.2052255722791
 20
295.5973953104524
 30
0
 11
315.605225572279
 21
295.5973953104523
 31
0
  0
LINE
  8
1
 62
3
 10
324.2052255722791
 20
291.3973953104526
 30
0
 11
315.605225572279
 21
291.3973953104526
 31
0
  0
LINE
  8
1
 62
3
 10
324.2052255722791
 20
282.9973953104523
 30
0
 11
315.605225572279
 21
282.9973953104523
 31
0
  0
LINE
  8
1
 62
3
 10
315.605225572279
 20
292.1973953104524
 30
0
 11
324.2052255722791
 21
292.1973953104524
 31
0
  0
LINE
  8
1
 62
3
 10
320.8839906355252
 20
287.9973953104523
 30
0
 11
324.2052255722791
 21
287.9973953104523
 31
0
  0
LINE
  8
1
 62
3
 10
315.605225572279
 20
283.7973953104522
 30
0
 11
324.2052255722791
 21
283.7973953104522
 31
0
  0
LINE
  8
1
 62
3
 10
315.605225572279
 20
279.5973953104523
 30
0
 11
324.2052255722791
 21
279.5973953104523
 31
0
  0
LINE
  8
1
 62
3
 10
305.7406423199763
 20
296.5973953104523
 30
0
 11
315.605225572279
 21
296.5973953104517
 31
0
  0
LINE
  8
1
 62
3
 10
305.7406423199763
 20
291.5973953104524
 30
0
 11
305.7406423199763
 21
296.5973953104523
 31
0
  0
LINE
  8
1
 62
3
 10
304.605225572279
 20
291.5973953104523
 30
0
 11
305.7406423199763
 21
291.5973953104524
 31
0
  0
LINE
  8
1
 62
3
 10
305.7406423199763
 20
283.5973953104523
 30
0
 11
304.605225572279
 21
283.5973953104523
 31
0
  0
LINE
  8
1
 62
3
 10
305.7406423199763
 20
283.5973953104523
 30
0
 11
305.7406423199763
 21
278.5973953104517
 31
0
  0
LINE
  8
1
 62
3
 10
304.605225572279
 20
279.8195967525695
 30
0
 11
304.605225572279
 21
278.5973953104517
 31
0
  0
LINE
  8
1
 62
3
 10
305.7406423199763
 20
278.5973953104517
 30
0
 11
304.605225572279
 21
278.5973953104517
 31
0
  0
LINE
  8
1
 62
3
 10
304.605225572279
 20
296.5973953104517
 30
0
 11
305.7406423199763
 21
296.5973953104523
 31
0
  0
LINE
  8
1
 62
3
 10
315.605225572279
 20
278.5973953104524
 30
0
 11
305.7406423199763
 21
278.5973953104517
 31
0
  0
LINE
  8
1
 62
3
 10
309.5572585621061
 20
290.2973953104522
 30
0
 11
314.297249701526
 21
290.2973953104522
 31
0
  0
LINE
  8
1
 62
3
 10
309.557258562106
 20
289.0973953104517
 30
0
 11
314.297249701526
 21
289.0973953104524
 31
0
  0
LINE
  8
1
 62
3
 10
309.557258562106
 20
289.0973953104517
 30
0
 11
309.5572585621061
 21
290.2973953104522
 31
0
  0
LINE
  8
1
 62
3
 10
309.557258562106
 20
286.0973953104517
 30
0
 11
308.4492086853592
 21
286.0973953104517
 31
0
  0
LINE
  8
1
 62
3
 10
309.557258562106
 20
284.8973953104521
 30
0
 11
308.4492086853592
 21
284.8973953104521
 31
0
  0
LINE
  8
1
 62
3
 10
309.557258562106
 20
284.8973953104521
 30
0
 11
309.557258562106
 21
286.0973953104517
 31
0
  0
LINE
  8
1
 62
3
 10
308.4492086853593
 20
290.2973953104522
 30
0
 11
309.5572585621061
 21
290.2973953104522
 31
0
  0
LINE
  8
1
 62
3
 10
308.4492086853592
 20
289.0973953104517
 30
0
 11
308.4492086853593
 21
290.2973953104522
 31
0
  0
LINE
  8
1
 62
3
 10
308.4492086853592
 20
284.8973953104521
 30
0
 11
307.105225572279
 21
284.8973953104521
 31
0
  0
LINE
  8
1
 62
3
 10
308.4492086853592
 20
284.8973953104521
 30
0
 11
308.4492086853592
 21
286.0973953104517
 31
0
  0
LINE
  8
1
 62
3
 10
315.605225572279
 20
289.0973953104517
 30
0
 11
314.297249701526
 21
289.0973953104524
 31
0
  0
LINE
  8
1
 62
3
 10
314.297249701526
 20
289.0973953104524
 30
0
 11
314.297249701526
 21
290.2973953104522
 31
0
  0
LINE
  8
1
 62
3
 10
314.297249701526
 20
286.0973953104517
 30
0
 11
309.557258562106
 21
286.0973953104517
 31
0
  0
LINE
  8
1
 62
3
 10
314.297249701526
 20
284.8973953104526
 30
0
 11
309.557258562106
 21
284.8973953104521
 31
0
  0
LINE
  8
1
 62
3
 10
314.297249701526
 20
284.8973953104526
 30
0
 11
314.297249701526
 21
286.0973953104517
 31
0
  0
LINE
  8
1
 62
3
 10
320.883990635525
 20
289.0973953104523
 30
0
 11
320.883990635525
 21
286.0973953104523
 31
0
  0
LINE
  8
1
 62
3
 10
308.4492086853592
 20
289.0973953104517
 30
0
 11
309.557258562106
 21
289.0973953104517
 31
0
  0
LINE
  8
1
 62
3
 10
308.4492086853592
 20
286.0973953104517
 30
0
 11
308.4492086853592
 21
289.0973953104517
 31
0
  0
LINE
  8
1
 62
3
 10
315.605225572279
 20
286.0973953104517
 30
0
 11
320.883990635525
 21
286.0973953104523
 31
0
  0
LINE
  8
1
 62
3
 10
307.105225572279
 20
290.297395310452
 30
0
 11
308.4492086853593
 21
290.2973953104522
 31
0
  0
LINE
  8
1
 62
3
 10
307.105225572279
 20
284.8973953104521
 30
0
 11
307.105225572279
 21
290.297395310452
 31
0
  0
LINE
  8
1
 62
3
 10
324.2052255722791
 20
282.9973953104523
 30
0
 11
324.2052255722791
 21
279.5973953104523
 31
0
  0
LINE
  8
1
 62
3
 10
324.2052255722791
 20
287.1973953104522
 30
0
 11
324.2052255722791
 21
283.7973953104522
 31
0
  0
LINE
  8
1
 62
3
 10
324.2052255722791
 20
291.3973953104526
 30
0
 11
324.2052255722791
 21
287.9973953104523
 31
0
  0
LINE
  8
1
 62
3
 10
324.2052255722791
 20
295.5973953104524
 30
0
 11
324.2052255722791
 21
292.1973953104524
 31
0
  0
LINE
  8
1
 62
3
 10
315.605225572279
 20
286.0973953104517
 30
0
 11
315.605225572279
 21
278.5973953104524
 31
0
  0
LINE
  8
1
 62
3
 10
314.297249701526
 20
286.0973953104517
 30
0
 11
315.605225572279
 21
286.0973953104517
 31
0
  0
LINE
  8
1
 62
3
 10
315.605225572279
 20
289.0973953104517
 30
0
 11
315.605225572279
 21
296.5973953104517
 31
0
  0
LINE
  8
1
 62
3
 10
320.883990635525
 20
289.0973953104523
 30
0
 11
315.605225572279
 21
289.0973953104517
 31
0
  0
LINE
  8
1
 62
3
 10
324.2052255722791
 20
287.1973953104522
 30
0
 11
320.8839906355252
 21
287.1973953104524
 31
0
  0
LINE
  8
1
 62
3
 10
304.605225572279
 20
283.5973953104523
 30
0
 11
304.605225572279
 21
278.5973953104517
 31
0
  0
LINE
  8
1
 62
3
 10
295.5599737430312
 20
287.8293794986357
 30
0
 11
304.605225572279
 21
293.442171406752
 31
0
  0
LINE
  8
1
 62
3
 10
304.605225572279
 20
294.5615922212674
 30
0
 11
292.2731102798551
 21
286.9526192141524
 31
0
  0
LINE
  8
1
 62
3
 10
292.2731102798551
 20
286.9526192141524
 30
0
 11
304.605225572279
 21
290.2421714067518
 31
0
  0
LINE
  8
1
 62
3
 10
292.2731102798551
 20
283.9227505922369
 30
0
 11
304.605225572279
 21
280.6331983996373
 31
0
  0
LINE
  8
1
 62
3
 10
292.2731102798551
 20
285.9526192141511
 30
0
 11
304.6052255722789
 21
289.2421714067506
 31
0
  0
LINE
  8
1
 62
3
 10
304.6052255722789
 20
281.7526192141525
 30
0
 11
292.2731102798551
 21
285.042171406752
 31
0
  0
LINE
  8
1
 62
3
 10
304.605225572279
 20
291.5973953104523
 30
0
 11
304.605225572279
 21
296.5973953104517
 31
0
  0
LINE
  8
1
 62
3
 10
304.605225572279
 20
283.5973953104523
 30
0
 11
304.605225572279
 21
291.5973953104523
 31
0
  0
LINE
  8
1
 62
3
 10
304.605225572279
 20
279.8195967525695
 30
0
 11
304.605225572279
 21
278.5973953104517
 31
0
  0
LINE
  8
1
 62
3
 10
304.605225572279
 20
283.5973953104523
 30
0
 11
304.605225572279
 21
278.5973953104517
 31
0
  0
LINE
  8
1
 62
1
 10
280.6722876035752
 20
281.651562974266
 30
0
 11
280.6722876035752
 21
288.0471847671129
 31
0
  0
LINE
  8
1
 62
3
 10
281.1722876035752
 20
286.8925717287546
 30
0
 11
281.1722876035752
 21
283.8925717287546
 31
0
  0
LINE
  8
1
 62
3
 10
280.1722876035752
 20
286.8925717287546
 30
0
 11
280.1722876035752
 21
283.8925717287546
 31
0
  0
LINE
  8
1
 62
3
 10
282.1722876035752
 20
282.3925717287546
 30
0
 11
282.1722876035752
 21
283.8925717287546
 31
0
  0
LINE
  8
1
 62
3
 10
279.1722876035752
 20
282.3925717287546
 30
0
 11
282.1722876035752
 21
282.3925717287546
 31
0
  0
LINE
  8
1
 62
3
 10
279.1722876035752
 20
283.8925717287546
 30
0
 11
279.1722876035752
 21
282.3925717287546
 31
0
  0
LINE
  8
1
 62
3
 10
278.8638433844461
 20
286.9526192141524
 30
0
 11
292.2731102798551
 21
286.9526192141524
 31
0
  0
LINE
  8
1
 62
3
 10
278.1339553576016
 20
283.9227505922369
 30
0
 11
292.2731102798551
 21
283.9227505922369
 31
0
  0
LINE
  8
1
 62
3
 10
304.605225572279
 20
285.042171406752
 30
0
 11
278.6803552720018
 21
285.042171406752
 31
0
  0
LINE
  8
1
 62
3
 10
236.7680913597699
 20
296.8925717287543
 30
0
 11
236.7680913597699
 21
288.4802278320191
 31
0
  0
LINE
  8
1
 62
3
 10
236.7680913597699
 20
299.3925717287543
 30
0
 11
236.7680913597699
 21
288.4802278320191
 31
0
  0
LINE
  8
1
 62
3
 10
236.7680913597699
 20
288.4802278320191
 30
0
 11
236.7680913597699
 21
287.3650982544373
 31
0
  0
LINE
  8
1
 62
3
 10
236.7680913597699
 20
288.4802278320191
 30
0
 11
236.7680913597699
 21
287.3650982544373
 31
0
  0
LINE
  8
1
 62
3
 10
236.7680913597699
 20
287.3650982544373
 30
0
 11
236.7680913597699
 21
273.8925717287546
 31
0
  0
LINE
  8
1
 62
3
 10
236.7680913597699
 20
287.3650982544373
 30
0
 11
236.7680913597699
 21
276.3925717287546
 31
0
  0
LINE
  8
1
 62
3
 10
236.7680913597699
 20
277.3925717287546
 30
0
 11
236.7680913597699
 21
278.3925717287546
 31
0
  0
LINE
  8
1
 62
3
 10
236.7680913597699
 20
272.3925717287546
 30
0
 11
236.7680913597699
 21
273.3925717287546
 31
0
  0
LINE
  8
1
 62
3
 10
236.7680913597699
 20
271.3925717287546
 30
0
 11
236.7680913597699
 21
279.4425717287543
 31
0
  0
LINE
  8
1
 62
3
 10
236.7680913597699
 20
296.8925717287543
 30
0
 11
236.7680913597699
 21
273.8925717287546
 31
0
  0
LINE
  8
1
 62
3
 10
236.7680913597699
 20
299.3925717287543
 30
0
 11
236.7680913597699
 21
276.3925717287546
 31
0
  0
LINE
  8
1
 62
3
 10
236.7680913597699
 20
272.3925717287546
 30
0
 11
236.7680913597699
 21
273.3925717287546
 31
0
  0
LINE
  8
1
 62
3
 10
236.7680913597699
 20
271.3925717287546
 30
0
 11
236.7680913597699
 21
279.4425717287543
 31
0
  0
LINE
  8
1
 62
3
 10
256.7680913597699
 20
285.8925717287543
 30
0
 11
276.7320884747172
 21
285.9330707233737
 31
0
  0
LINE
  8
1
 62
3
 10
256.7680913597699
 20
284.8925717287543
 30
0
 11
277.1779161736953
 21
284.8925717287546
 31
0
  0
LINE
  8
1
 62
3
 10
233.6127560308087
 20
277.4425717287543
 30
0
 11
234.1734742593088
 21
277.4425717287543
 31
0
  0
LINE
  8
1
 62
3
 10
233.6127560308087
 20
279.4425717287543
 30
0
 11
228.8680913597696
 21
279.4425717287543
 31
0
  0
LINE
  8
1
 62
3
 10
233.6127560308087
 20
279.4425717287543
 30
0
 11
233.6127560308087
 21
277.4425717287543
 31
0
  0
LINE
  8
1
 62
3
 10
233.6127560308087
 20
291.3425717287539
 30
0
 11
234.1734742593088
 21
291.3425717287539
 31
0
  0
LINE
  8
1
 62
3
 10
233.6127560308087
 20
293.3425717287545
 30
0
 11
228.8680913597696
 21
293.3425717287545
 31
0
  0
LINE
  8
1
 62
3
 10
233.6127560308087
 20
293.3425717287545
 30
0
 11
233.6127560308087
 21
291.3425717287539
 31
0
  0
LINE
  8
1
 62
3
 10
232.2670322824097
 20
271.3925717287546
 30
0
 11
232.7156068652095
 21
271.3925717287546
 31
0
  0
LINE
  8
1
 62
3
 10
232.2670322824097
 20
274.3925717287546
 30
0
 11
232.7156068652095
 21
274.3925717287546
 31
0
  0
LINE
  8
1
 62
3
 10
232.2670322824097
 20
274.3925717287546
 30
0
 11
232.2670322824097
 21
271.3925717287546
 31
0
  0
LINE
  8
1
 62
3
 10
230.9960709644765
 20
274.3925717287546
 30
0
 11
232.2670322824097
 21
274.3925717287546
 31
0
  0
LINE
  8
1
 62
3
 10
230.9960709644765
 20
271.3925717287546
 30
0
 11
232.2670322824097
 21
271.3925717287546
 31
0
  0
LINE
  8
1
 62
3
 10
230.9960709644765
 20
271.3925717287546
 30
0
 11
230.9960709644765
 21
274.3925717287546
 31
0
  0
LINE
  8
1
 62
3
 10
232.2670322824097
 20
296.3925717287543
 30
0
 11
232.7156068652095
 21
296.3925717287543
 31
0
  0
LINE
  8
1
 62
3
 10
232.2670322824097
 20
299.3925717287543
 30
0
 11
230.9960709644765
 21
299.3925717287543
 31
0
  0
LINE
  8
1
 62
3
 10
232.2670322824097
 20
299.3925717287543
 30
0
 11
232.2670322824097
 21
296.3925717287543
 31
0
  0
LINE
  8
1
 62
3
 10
230.9960709644765
 20
299.3925717287543
 30
0
 11
229.9867781531768
 21
299.3925717287543
 31
0
  0
LINE
  8
1
 62
3
 10
230.9960709644765
 20
296.3925717287543
 30
0
 11
232.2670322824097
 21
296.3925717287543
 31
0
  0
LINE
  8
1
 62
3
 10
230.9960709644765
 20
296.3925717287543
 30
0
 11
230.9960709644765
 21
299.3925717287543
 31
0
  0
LINE
  8
1
 62
3
 10
232.7156068652095
 20
271.3925717287546
 30
0
 11
236.7680913597699
 21
271.3925717287546
 31
0
  0
LINE
  8
1
 62
3
 10
232.7156068652095
 20
274.3925717287546
 30
0
 11
232.7156068652095
 21
271.3925717287546
 31
0
  0
LINE
  8
1
 62
3
 10
229.9867781531768
 20
274.3925717287546
 30
0
 11
230.9960709644765
 21
274.3925717287546
 31
0
  0
LINE
  8
1
 62
3
 10
229.9867781531768
 20
271.3925717287546
 30
0
 11
230.9960709644765
 21
271.3925717287546
 31
0
  0
LINE
  8
1
 62
3
 10
229.9867781531768
 20
271.3925717287546
 30
0
 11
229.9867781531768
 21
274.3925717287546
 31
0
  0
LINE
  8
1
 62
3
 10
232.7156068652095
 20
299.3925717287543
 30
0
 11
232.2670322824097
 21
299.3925717287543
 31
0
  0
LINE
  8
1
 62
3
 10
232.7156068652095
 20
296.3925717287543
 30
0
 11
232.7156068652095
 21
299.3925717287543
 31
0
  0
LINE
  8
1
 62
3
 10
229.9867781531768
 20
296.3925717287543
 30
0
 11
230.9960709644765
 21
296.3925717287543
 31
0
  0
LINE
  8
1
 62
3
 10
229.9867781531768
 20
299.3925717287543
 30
0
 11
228.8680913597696
 21
299.3925717287543
 31
0
  0
LINE
  8
1
 62
3
 10
229.9867781531768
 20
299.3925717287543
 30
0
 11
229.9867781531768
 21
296.3925717287543
 31
0
  0
LINE
  8
1
 62
3
 10
228.8680913597696
 20
293.3425717287545
 30
0
 11
228.8680913597696
 21
291.3425717287539
 31
0
  0
LINE
  8
1
 62
3
 10
234.1734742593088
 20
293.3425717287545
 30
0
 11
233.6127560308087
 21
293.3425717287545
 31
0
  0
LINE
  8
1
 62
3
 10
234.1734742593088
 20
291.3425717287539
 30
0
 11
234.1734742593088
 21
293.3425717287545
 31
0
  0
LINE
  8
1
 62
3
 10
228.8680913597696
 20
291.3425717287539
 30
0
 11
233.6127560308087
 21
291.3425717287539
 31
0
  0
LINE
  8
1
 62
3
 10
228.8680913597696
 20
291.3425717287539
 30
0
 11
228.8680913597696
 21
279.4425717287543
 31
0
  0
LINE
  8
1
 62
3
 10
228.8680913597696
 20
279.4425717287543
 30
0
 11
228.8680913597696
 21
291.3425717287539
 31
0
  0
LINE
  8
1
 62
3
 10
228.8680913597696
 20
279.4425717287543
 30
0
 11
228.8680913597696
 21
277.4425717287543
 31
0
  0
LINE
  8
1
 62
3
 10
234.1734742593088
 20
279.4425717287543
 30
0
 11
233.6127560308087
 21
279.4425717287543
 31
0
  0
LINE
  8
1
 62
3
 10
234.1734742593088
 20
277.4425717287543
 30
0
 11
234.1734742593088
 21
279.4425717287543
 31
0
  0
LINE
  8
1
 62
3
 10
228.8680913597696
 20
277.4425717287543
 30
0
 11
228.8680913597696
 21
271.3925717287546
 31
0
  0
LINE
  8
1
 62
3
 10
228.8680913597696
 20
277.4425717287543
 30
0
 11
233.6127560308087
 21
277.4425717287543
 31
0
  0
LINE
  8
1
 62
3
 10
228.8680913597696
 20
271.3925717287546
 30
0
 11
229.9867781531768
 21
271.3925717287546
 31
0
  0
LINE
  8
1
 62
3
 10
228.8680913597696
 20
299.3925717287543
 30
0
 11
228.8680913597696
 21
293.3425717287545
 31
0
  0
LINE
  8
1
 62
3
 10
236.7680913597699
 20
299.3925717287543
 30
0
 11
232.7156068652095
 21
299.3925717287543
 31
0
  0
LINE
  8
1
 62
3
 10
236.7680913597699
 20
271.3925717287546
 30
0
 11
236.7680913597699
 21
299.3925717287543
 31
0
  0
LINE
  8
1
 62
3
 10
256.7680913597699
 20
286.8925717287543
 30
0
 11
277.1779161736955
 21
286.8925717287546
 31
0
  0
LINE
  8
1
 62
3
 10
256.7680913597699
 20
283.8925717287543
 30
0
 11
276.7320943309549
 21
283.8925717287546
 31
0
  0
LINE
  8
1
 62
3
 10
278.0506009541076
 20
285.9526192141524
 30
0
 11
304.6052255722789
 21
285.9526192141524
 31
0
  0
ARC
  8
1
 62
3
 10
126.881250879585
 20
159.7155475598477
 30
0
 40
5.418833348290308
 50
310.2175277521193
 51
310.2328491927941
  0
ARC
  8
1
 62
3
 10
126.881250879585
 20
159.7155475598477
 30
0
 40
5.418833348290442
 50
310.2328491927941
 51
229.767150807206
  0
ARC
  8
1
 62
3
 10
449.8494984552357
 20
159.7155475598471
 30
0
 40
42.50000000000009
 50
298.0724869358529
 51
298.9932044200964
  0
ARC
  8
1
 62
3
 10
449.8494984552357
 20
159.7155475598471
 30
0
 40
42.5
 50
180
 51
241.9275130641471
  0
ARC
  8
1
 62
3
 10
432.2495000029045
 20
114.2155611252957
 30
0
 40
1.043999999999944
 50
210.2161982852532
 51
239.7838017147607
  0
ARC
  8
1
 62
3
 10
432.2495000029045
 20
114.2155611252957
 30
0
 40
0.4571999999997616
 50
262.5415509437237
 51
277.4584490563258
  0
ARC
  8
1
 62
3
 10
432.2495000029045
 20
114.2155611252957
 30
0
 40
1.044000000000211
 50
300.2161982852582
 51
329.7838017147531
  0
ARC
  8
1
 62
3
 10
432.2495000029045
 20
114.2155611252957
 30
0
 40
0.4572000000002224
 50
352.5415509437079
 51
7.458449056330972
  0
ARC
  8
1
 62
3
 10
432.2495000029045
 20
114.2155611252957
 30
0
 40
1.044000000000147
 50
30.21619828524758
 51
59.7838017147422
  0
ARC
  8
1
 62
3
 10
432.2495000029045
 20
114.2155611252957
 30
0
 40
0.4572000000000246
 50
82.54155094367769
 51
97.45844905627287
  0
ARC
  8
1
 62
3
 10
432.2495000029045
 20
114.2155611252957
 30
0
 40
1.044000000000023
 50
120.2161982852389
 51
149.7838017147462
  0
ARC
  8
1
 62
3
 10
432.2495000029045
 20
114.2155611252957
 30
0
 40
0.4571999999999248
 50
172.5415509436635
 51
187.4584490562977
  0
ARC
  8
1
 62
3
 10
467.4494969075672
 20
114.2155611252957
 30
0
 40
1.043999999999845
 50
210.2161982852563
 51
239.7838017147661
  0
ARC
  8
1
 62
3
 10
467.4494969075672
 20
114.2155611252957
 30
0
 40
0.4571999999997469
 50
262.5415509437378
 51
277.458449056347
  0
ARC
  8
1
 62
3
 10
467.4494969075672
 20
114.2155611252957
 30
0
 40
1.044000000000268
 50
300.2161982852635
 51
329.7838017147578
  0
ARC
  8
1
 62
3
 10
467.4494969075672
 20
114.2155611252957
 30
0
 40
0.4572000000002788
 50
352.5415509437088
 51
7.458449056330047
  0
ARC
  8
1
 62
3
 10
467.4494969075672
 20
114.2155611252957
 30
0
 40
1.044000000000295
 50
30.21619828524287
 51
59.7838017147368
  0
ARC
  8
1
 62
3
 10
467.4494969075672
 20
114.2155611252957
 30
0
 40
0.4572000000000467
 50
82.5415509436565
 51
97.45844905625873
  0
ARC
  8
1
 62
3
 10
467.4494969075672
 20
114.2155611252957
 30
0
 40
1.043999999999965
 50
120.2161982852335
 51
149.783801714743
  0
ARC
  8
1
 62
3
 10
467.4494969075672
 20
114.2155611252957
 30
0
 40
0.4571999999999248
 50
172.5415509436635
 51
187.4584490562977
  0
ARC
  8
1
 62
3
 10
449.8494984552357
 20
159.7155475598471
 30
0
 40
42.50000000000019
 50
298.9932044200964
 51
81.03243571352603
  0
ARC
  8
1
 62
3
 10
449.8494984552357
 20
159.7155475598471
 30
0
 40
42.50000000000001
 50
98.96756428647397
 51
180
  0
ARC
  8
1
 62
3
 10
443.3543079268525
 20
163.4655475598471
 30
0
 40
1.500000000000033
 50
81.01759807295844
 51
180
  0
ARC
  8
1
 62
3
 10
449.8494984552357
 20
152.2155475598471
 30
0
 40
1.500000000000014
 50
201.0175980729424
 51
270
  0
ARC
  8
1
 62
3
 10
456.3446889836189
 20
163.4655475598471
 30
0
 40
1.499999999999899
 50
321.0175980729417
 51
0
  0
ARC
  8
1
 62
3
 10
443.3543079268525
 20
163.4655475598471
 30
0
 40
1.5
 50
180
 51
218.9824019270514
  0
ARC
  8
1
 62
3
 10
456.3446889836189
 20
163.4655475598471
 30
0
 40
1.5
 50
0
 51
98.98240192705443
  0
ARC
  8
1
 62
3
 10
449.8494984552357
 20
152.2155475598471
 30
0
 40
1.5
 50
270
 51
338.9824019270591
  0
ARC
  8
1
 62
3
 10
280.3758267837225
 20
27.16481445576571
 30
0
 40
2.982960852904993
 50
37.11575597786343
 51
43.39968678394103
  0
ARC
  8
1
 62
3
 10
280.3008267837225
 20
26.44020649556543
 30
0
 40
3.567081604788448
 50
51.05128425086001
 51
62.86991214901015
  0
ARC
  8
1
 62
3
 10
278.178742217186
 20
27.5148144557655
 30
0
 40
4.799999999999795
 50
342.417223991579
 51
355.6688512692116
  0
ARC
  8
1
 62
3
 10
280.3008267837221
 20
28.33561829145205
 30
0
 40
3.343206622513417
 50
299.1139955129297
 51
317.2165542171604
  0
ARC
  8
1
 62
3
 10
278.178742217186
 20
27.5148144557655
 30
0
 40
4.799999999999848
 50
4.331148730793808
 51
17.58277600842628
  0
ARC
  8
1
 62
3
 10
280.3758267837225
 20
-7.335185544234745
 30
0
 40
2.982960852904733
 50
316.600313216059
 51
322.8842440221374
  0
ARC
  8
1
 62
3
 10
280.3008267837225
 20
-6.610577584034415
 30
0
 40
3.567081604788639
 50
297.1300878509894
 51
308.9487157491395
  0
ARC
  8
1
 62
3
 10
278.178742217186
 20
-7.685185544234541
 30
0
 40
4.799999999999818
 50
4.331148730789072
 51
17.58277600842106
  0
ARC
  8
1
 62
3
 10
280.3008267837221
 20
-8.505989379921031
 30
0
 40
3.343206622513361
 50
42.78344578283885
 51
60.88600448706988
  0
ARC
  8
1
 62
3
 10
278.178742217186
 20
-7.685185544234541
 30
0
 40
4.799999999999915
 50
342.4172239915744
 51
355.6688512692062
  0
ARC
  8
1
 62
3
 10
287.0645042979688
 20
-31.18518554423437
 30
0
 40
1
 50
90
 51
180
  0
ARC
  8
1
 62
3
 10
287.0645042979688
 20
51.01481445576528
 30
0
 40
1
 50
180
 51
270
  0
ARC
  8
1
 62
3
 10
287.0645042979689
 20
200.8155475598471
 30
0
 40
1
 50
180
 51
270
  0
ARC
  8
1
 62
3
 10
287.0645042979689
 20
118.6155475598474
 30
0
 40
1
 50
90
 51
180
  0
ARC
  8
1
 62
3
 10
278.178742217186
 20
114.2078908589527
 30
0
 40
4.799999999999915
 50
342.4172239915744
 51
355.6688512692064
  0
ARC
  8
1
 62
3
 10
280.3008267837221
 20
113.3870870232662
 30
0
 40
3.343206622513371
 50
42.78344578283903
 51
60.88600448707
  0
ARC
  8
1
 62
3
 10
278.178742217186
 20
114.2078908589527
 30
0
 40
4.799999999999818
 50
4.331148730789072
 51
17.58277600842122
  0
ARC
  8
1
 62
3
 10
280.3008267837226
 20
115.2824988191528
 30
0
 40
3.567081604788588
 50
297.1300878509888
 51
308.9487157491403
  0
ARC
  8
1
 62
3
 10
280.3758267837225
 20
114.5578908589525
 30
0
 40
2.982960852904825
 50
316.6003132160602
 51
322.8842440221372
  0
CIRCLE
  8
1
 62
3
 10
126.881250879585
 20
159.7155475598477
 30
0
 40
4.7999999999995
  0
CIRCLE
  8
1
 62
1
  6
DASHDOT
 10
126.881250879585
 20
159.7155475598477
 30
0
 40
4.19999999999942
  0
CIRCLE
  8
1
 62
3
 10
432.2495000029045
 20
114.2155611252957
 30
0
 40
2.015999999999679
  0
CIRCLE
  8
1
 62
3
 10
467.4494969075672
 20
114.2155611252957
 30
0
 40
2.015999999999622
  0
CIRCLE
  8
1
 62
3
 10
486.5994984552357
 20
122.9655475598471
 30
0
 40
4.599999999999795
  0
CIRCLE
  8
1
 62
3
 10
486.5994984552357
 20
122.9655475598471
 30
0
 40
3.25
  0
CIRCLE
  8
1
 62
3
 10
486.5994984552357
 20
196.4655475598473
 30
0
 40
4.599999999999795
  0
CIRCLE
  8
1
 62
3
 10
486.5994984552357
 20
196.4655475598473
 30
0
 40
3.25
  0
CIRCLE
  8
1
 62
3
 10
413.0994984552357
 20
196.4655475598473
 30
0
 40
4.599999999999795
  0
CIRCLE
  8
1
 62
3
 10
413.0994984552357
 20
196.4655475598473
 30
0
 40
3.24999999999983
  0
CIRCLE
  8
1
 62
3
 10
413.0994984552357
 20
122.9655475598471
 30
0
 40
4.599999999999795
  0
CIRCLE
  8
1
 62
3
 10
413.0994984552357
 20
122.9655475598471
 30
0
 40
3.24999999999983
  0
CIRCLE
  8
1
 62
3
 10
449.8494984552357
 20
159.7155475598471
 30
0
 40
41.0999999999999
  0
CIRCLE
  8
1
 62
3
 10
449.8494984552357
 20
159.7155475598471
 30
0
 40
4
  0
CIRCLE
  8
1
 62
3
 10
449.8494984552357
 20
159.7155475598471
 30
0
 40
8.159027529218577
  0
CIRCLE
  8
1
 62
3
 10
449.8494984552357
 20
159.7155475598471
 30
0
 40
6.400000000000091
  0
CIRCLE
  8
1
 62
3
 10
284.0655991037701
 20
19.91481445576548
 30
0
 40
0.3499999999998487
  0
CIRCLE
  8
1
 62
3
 10
284.0655991037701
 20
17.41481445576548
 30
0
 40
0.3499999999997385
  0
CIRCLE
  8
1
 62
3
 10
284.0655991037701
 20
14.91481445576548
 30
0
 40
0.3499999999997403
  0
CIRCLE
  8
1
 62
3
 10
284.0655991037701
 20
12.41481445576548
 30
0
 40
0.3499999999997403
  0
CIRCLE
  8
1
 62
3
 10
284.0655991037701
 20
-0.08518554423451796
 30
0
 40
0.3499999999997954
  0
CIRCLE
  8
1
 62
3
 10
284.0655991037701
 20
2.414814455765482
 30
0
 40
0.3499999999997381
  0
CIRCLE
  8
1
 62
3
 10
284.0655991037701
 20
4.914814455765482
 30
0
 40
0.3499999999997376
  0
CIRCLE
  8
1
 62
3
 10
284.0655991037701
 20
7.414814455765482
 30
0
 40
0.3499999999997376
  0
CIRCLE
  8
1
 62
3
 10
284.0655991037701
 20
9.914814455765482
 30
0
 40
0.3499999999997385
  0
CIRCLE
  8
1
 62
3
 10
284.0655991037701
 20
-2.585185544234518
 30
0
 40
0.3499999999997949
  0
CIRCLE
  8
1
 62
3
 10
284.0655991037701
 20
22.41481445576548
 30
0
 40
0.3499999999998487
  0
CIRCLE
  8
1
 62
3
 10
126.881250879585
 20
159.7155475598477
 30
0
 40
41.5
  0
CIRCLE
  8
1
 62
3
 10
126.881250879585
 20
159.7155475598477
 30
0
 40
37
  0
CIRCLE
  8
1
 62
3
 10
126.881250879585
 20
159.7155475598477
 30
0
 40
13
  0
CIRCLE
  8
1
 62
3
 10
163.631250879585
 20
122.9655475598477
 30
0
 40
3.249999999999915
  0
CIRCLE
  8
1
 62
3
 10
163.631250879585
 20
196.4655475598477
 30
0
 40
3.249999999999915
  0
CIRCLE
  8
1
 62
3
 10
90.13125087958508
 20
122.9655475598477
 30
0
 40
3.249999999999943
  0
CIRCLE
  8
1
 62
3
 10
90.13125087958508
 20
196.4655475598477
 30
0
 40
3.249999999999943
  0
POLYLINE
  8
1
 62
3
 66
1
  0
VERTEX
  8
1
 10
252.07241805207
 20
285.9933897554324
 30
0
 42
-0.001154420490505756
  0
VERTEX
  8
1
 10
251.3408264012142
 20
286.0720047800764
 30
0
 42
-0.003468734099917244
  0
VERTEX
  8
1
 10
250.6105693332594
 20
286.1573109270998
 30
0
 42
-0.005796547176490311
  0
VERTEX
  8
1
 10
249.8829814311068
 20
286.2559993188818
 30
0
 42
-0.008136977558675046
  0
VERTEX
  8
1
 10
249.1593972776572
 20
286.3747610778019
 30
0
 42
-0.01756846700863777
  0
VERTEX
  8
1
 10
247.9632440901808
 20
286.6347828524954
 30
0
 42
-0.003142605947012827
  0
VERTEX
  8
1
 10
247.4871330373733
 20
286.7583375352186
 30
0
 42
-5.559773167146267e-005
  0
VERTEX
  8
1
 10
247.0116182983539
 20
286.884988092542
 30
0
 42
0.003030683839521022
  0
VERTEX
  8
1
 10
246.5354998740874
 20
287.0087712425991
 30
0
 42
0.006125008534257555
  0
VERTEX
  8
1
 10
246.0575777655387
 20
287.1237237035232
 30
0
 42
0.009595418813493626
  0
VERTEX
  8
1
 10
245.4092596489384
 20
287.2582531713084
 30
0
 42
0.003443420274462361
  0
VERTEX
  8
1
 10
244.7573650032459
 20
287.3758847723742
 30
0
 42
0.001921277061885492
  0
VERTEX
  8
1
 10
244.1037737721199
 20
287.4865952772759
 30
0
 42
-0.003059807641600027
  0
VERTEX
  8
1
 10
243.4503658992196
 20
287.6003614565688
 30
0
 42
-0.006880434131537505
  0
VERTEX
  8
1
 10
242.7990213282038
 20
287.7271600808082
 30
0
 42
-0.00568394669551825
  0
VERTEX
  8
1
 10
242.2134975485854
 20
287.8581967291421
 30
0
 42
-0.00119914855811766
  0
VERTEX
  8
1
 10
241.6296301988337
 20
287.9973256661026
 30
0
 42
0.00328573245298925
  0
VERTEX
  8
1
 10
241.0458580959083
 20
288.1338641007631
 30
0
 42
0.007799462787431069
  0
VERTEX
  8
1
 10
240.4606200567691
 20
288.2571292421964
 30
0
 42
0.01237618344531828
  0
VERTEX
  8
1
 10
239.8723548983755
 20
288.3564382994757
 30
0
 42
0.01495152526720739
  0
VERTEX
  8
1
 10
239.2574323479838
 20
288.4259652655958
 30
0
 42
0.009328849676749523
  0
VERTEX
  8
1
 10
238.6385563593724
 20
288.4656461919749
 30
0
 42
0.008782865382712396
  0
VERTEX
  8
1
 10
238.0167152920964
 20
288.4829425885484
 30
0
 42
0.003218905575033825
  0
VERTEX
  8
1
 10
237.3928975057106
 20
288.4853159652514
 30
0
 42
0.00275508248254106
  0
VERTEX
  8
1
 10
236.7680913597699
 20
288.4802278320191
 30
0
  0
SEQEND
  8
1
  0
POLYLINE
  8
1
 62
3
 66
1
  0
VERTEX
  8
1
 10
253.0945383033409
 20
284.8925717287543
 30
0
 42
-7.052380712176008e-005
  0
VERTEX
  8
1
 10
252.8040379408793
 20
284.9159470070007
 30
0
 42
-0.0002115044987346524
  0
VERTEX
  8
1
 10
252.5135048562005
 20
284.9394898769807
 30
0
 42
-0.0003522839052864523
  0
VERTEX
  8
1
 10
252.2229063270878
 20
284.963367930428
 30
0
 42
-0.0004927261341810266
  0
VERTEX
  8
1
 10
251.932209631324
 20
284.9877487590765
 30
0
 42
-0.0006326927681322819
  0
VERTEX
  8
1
 10
251.6413820466922
 20
285.0127999546596
 30
0
 42
-0.002829224898328984
  0
VERTEX
  8
1
 10
250.971772137216
 20
285.0746380509766
 30
0
 42
-0.00526217755508553
  0
VERTEX
  8
1
 10
250.3030855481948
 20
285.1473179241054
 30
0
 42
-0.007717915863627744
  0
VERTEX
  8
1
 10
249.637112127278
 20
285.2372433020955
 30
0
 42
-0.0101979081643065
  0
VERTEX
  8
1
 10
248.9756417221148
 20
285.350817912996
 30
0
 42
-0.02165487244664094
  0
VERTEX
  8
1
 10
247.8547619657048
 20
285.6177933412339
 30
0
 42
-0.003174607387666517
  0
VERTEX
  8
1
 10
247.391404996504
 20
285.7513717730907
 30
0
 42
0.001341736710706146
  0
VERTEX
  8
1
 10
246.9285761293738
 20
285.8866370963735
 30
0
 42
0.005867617843793761
  0
VERTEX
  8
1
 10
246.4644582209355
 20
286.0150456270292
 30
0
 42
0.01043616403268831
  0
VERTEX
  8
1
 10
245.9972341278108
 20
286.1280536810043
 30
0
 42
0.01572676402623073
  0
VERTEX
  8
1
 10
245.3560959771914
 20
286.2480302101649
 30
0
 42
0.004938296709782933
  0
VERTEX
  8
1
 10
244.7092870246042
 20
286.3415976986985
 30
0
 42
0.001884020282442229
  0
VERTEX
  8
1
 10
244.0602086854796
 20
286.4264690147212
 30
0
 42
-0.006909369922393896
  0
VERTEX
  8
1
 10
243.4122623752481
 20
286.5203570263486
 30
0
 42
-0.01379629701621098
  0
VERTEX
  8
1
 10
242.7688495093399
 20
286.6409746016964
 30
0
 42
-0.01224550147368017
  0
VERTEX
  8
1
 10
242.1689123049251
 20
286.7892737686929
 30
0
 42
-0.004376625229323787
  0
VERTEX
  8
1
 10
241.5731304553314
 20
286.95772034144
 30
0
 42
0.003443735131175203
  0
VERTEX
  8
1
 10
240.9786162011894
 20
287.1270138801015
 30
0
 42
0.01135075693036396
  0
VERTEX
  8
1
 10
240.3824817831297
 20
287.2778539448406
 30
0
 42
0.01951810480742377
  0
VERTEX
  8
1
 10
239.7818394417828
 20
287.3909400958207
 30
0
 42
0.02289053426961884
  0
VERTEX
  8
1
 10
239.1875891178601
 20
287.4513399328036
 30
0
 42
0.01385585263744758
  0
VERTEX
  8
1
 10
238.5876725989508
 20
287.4680276329467
 30
0
 42
0.01336861782334726
  0
VERTEX
  8
1
 10
237.9835064338016
 20
287.4519312304602
 30
0
 42
0.004535915094119528
  0
VERTEX
  8
1
 10
237.3765071711591
 20
287.4139787595537
 30
0
 42
0.004326632835434111
  0
VERTEX
  8
1
 10
236.7680913597699
 20
287.3650982544373
 30
0
  0
SEQEND
  8
1
  0
POLYLINE
  8
1
 62
3
 66
1
  0
VERTEX
  8
1
 10
236.7680913597699
 20
298.3925717287543
 30
0
 42
-0.001607743817705333
  0
VERTEX
  8
1
 10
237.6762202787052
 20
298.3889063159065
 30
0
 42
-0.004839459238605221
  0
VERTEX
  8
1
 10
238.5827030910182
 20
298.3735670481549
 30
0
 42
-0.00811211862431987
  0
VERTEX
  8
1
 10
239.4858936900869
 20
298.334880070596
 30
0
 42
-0.01142630948605499
  0
VERTEX
  8
1
 10
240.3841459692888
 20
298.261171528326
 30
0
 42
-0.01474034783448228
  0
VERTEX
  8
1
 10
241.2758138220019
 20
298.1407675664411
 30
0
 42
-0.01091907975223349
  0
VERTEX
  8
1
 10
241.8899488876058
 20
298.0246136257775
 30
0
 42
-0.01003733773330108
  0
VERTEX
  8
1
 10
242.4998083052861
 20
297.8825671329701
 30
0
 42
-0.00916721934820189
  0
VERTEX
  8
1
 10
243.1050807698298
 20
297.7168498517812
 30
0
 42
-0.008316733795457353
  0
VERTEX
  8
1
 10
243.705454976024
 20
297.5296835459731
 30
0
 42
-0.02049271564567445
  0
VERTEX
  8
1
 10
245.3192041726688
 20
296.9226103336591
 30
0
 42
-0.01613454575078671
  0
VERTEX
  8
1
 10
246.3115474033983
 20
296.4625695860593
 30
0
 42
-0.01882779289655455
  0
VERTEX
  8
1
 10
247.2680462209456
 20
295.9350560739101
 30
0
 42
-0.02154182287529934
  0
VERTEX
  8
1
 10
248.1790975354116
 20
295.3319581346133
 30
0
 42
-0.02412403713682113
  0
VERTEX
  8
1
 10
249.0350982568975
 20
294.6451641055703
 30
0
 42
-0.018370718475834
  0
VERTEX
  8
1
 10
249.8526832822116
 20
293.8572114469542
 30
0
 42
-0.003824838419058018
  0
VERTEX
  8
1
 10
250.6379712794729
 20
293.0304252441349
 30
0
 42
0.01068385427301801
  0
VERTEX
  8
1
 10
251.4265417566649
 20
292.2223561329419
 30
0
 42
0.02605597401749774
  0
VERTEX
  8
1
 10
252.2539742217709
 20
291.4905547492051
 30
0
 42
0.04330280254893912
  0
VERTEX
  8
1
 10
253.1558481827746
 20
290.8925717287543
 30
0
 42
0.03453843384908863
  0
VERTEX
  8
1
 10
253.8185872641168
 20
290.5887137635074
 30
0
 42
0.01926728948014337
  0
VERTEX
  8
1
 10
254.5211327148302
 20
290.3540944417584
 30
0
 42
0.01966704674595931
  0
VERTEX
  8
1
 10
255.2535329425721
 20
290.1714041026329
 30
0
 42
0.005391877216806753
  0
VERTEX
  8
1
 10
256.0058363549996
 20
290.0233330852564
 30
0
 42
0.006832092944509346
  0
VERTEX
  8
1
 10
256.76809135977
 20
289.8925717287543
 30
0
  0
SEQEND
  8
1
  0
POLYLINE
  8
1
 62
3
 66
1
  0
VERTEX
  8
1
 10
236.7680913597699
 20
297.3925717287543
 30
0
 42
-0.001607743817830567
  0
VERTEX
  8
1
 10
237.6762202787052
 20
297.3889063159065
 30
0
 42
-0.004839459238605221
  0
VERTEX
  8
1
 10
238.5827030910182
 20
297.3735670481549
 30
0
 42
-0.00811211862431987
  0
VERTEX
  8
1
 10
239.4858936900869
 20
297.334880070596
 30
0
 42
-0.01142630948592929
  0
VERTEX
  8
1
 10
240.3841459692888
 20
297.261171528326
 30
0
 42
-0.01474034783448228
  0
VERTEX
  8
1
 10
241.2758138220019
 20
297.1407675664411
 30
0
 42
-0.01091907975205472
  0
VERTEX
  8
1
 10
241.8899488876058
 20
297.0246136257775
 30
0
 42
-0.01003733773330108
  0
VERTEX
  8
1
 10
242.4998083052861
 20
296.8825671329701
 30
0
 42
-0.00916721934820189
  0
VERTEX
  8
1
 10
243.1050807698298
 20
296.7168498517812
 30
0
 42
-0.008316733795543735
  0
VERTEX
  8
1
 10
243.705454976024
 20
296.529683545973
 30
0
 42
-0.02049271564586305
  0
VERTEX
  8
1
 10
245.3192041726688
 20
295.9226103336591
 30
0
 42
-0.01613454575078671
  0
VERTEX
  8
1
 10
246.3115474033983
 20
295.4625695860593
 30
0
 42
-0.01882779289655455
  0
VERTEX
  8
1
 10
247.2680462209456
 20
294.9350560739101
 30
0
 42
-0.02154182287542997
  0
VERTEX
  8
1
 10
248.1790975354116
 20
294.3319581346132
 30
0
 42
-0.02412403713678303
  0
VERTEX
  8
1
 10
249.0350982568975
 20
293.6451641055703
 30
0
 42
-0.01837071847586954
  0
VERTEX
  8
1
 10
249.8526832822116
 20
292.8572114469543
 30
0
 42
-0.003824838418988851
  0
VERTEX
  8
1
 10
250.6379712794729
 20
292.0304252441349
 30
0
 42
0.01068385427305337
  0
VERTEX
  8
1
 10
251.4265417566649
 20
291.2223561329419
 30
0
 42
0.02605597401747966
  0
VERTEX
  8
1
 10
252.2539742217709
 20
290.4905547492051
 30
0
 42
0.04330280254895753
  0
VERTEX
  8
1
 10
253.1558481827746
 20
289.8925717287543
 30
0
 42
0.03453843384903406
  0
VERTEX
  8
1
 10
253.8185872641168
 20
289.5887137635074
 30
0
 42
0.01926728948027015
  0
VERTEX
  8
1
 10
254.5211327148302
 20
289.3540944417584
 30
0
 42
0.01966704674579749
  0
VERTEX
  8
1
 10
255.2535329425721
 20
289.1714041026329
 30
0
 42
0.005391877216970683
  0
VERTEX
  8
1
 10
256.0058363549996
 20
289.0233330852564
 30
0
 42
0.006832092944339308
  0
VERTEX
  8
1
 10
256.7680913597699
 20
288.8925717287543
 30
0
  0
SEQEND
  8
1
  0
POLYLINE
  8
1
 62
3
 66
1
  0
VERTEX
  8
1
 10
236.7680913597699
 20
295.8925717287543
 30
0
 42
-0.001902789264336165
  0
VERTEX
  8
1
 10
237.5101571954476
 20
295.9383660891194
 30
0
 42
-0.005745277525824373
  0
VERTEX
  8
1
 10
238.2504468184069
 20
295.9727118593931
 30
0
 42
-0.009686512557382431
  0
VERTEX
  8
1
 10
238.9871840159298
 20
295.9841604494844
 30
0
 42
-0.01374928444269589
  0
VERTEX
  8
1
 10
239.7185925752978
 20
295.9612632693019
 30
0
 42
-0.01788295130671237
  0
VERTEX
  8
1
 10
240.4428962837928
 20
295.8925717287543
 30
0
 42
-0.01866086244700018
  0
VERTEX
  8
1
 10
241.202852804061
 20
295.7615649467854
 30
0
 42
-0.01353317069708468
  0
VERTEX
  8
1
 10
241.9563200659675
 20
295.5810660961574
 30
0
 42
-0.008418840654068624
  0
VERTEX
  8
1
 10
242.7068138481925
 20
295.3660706365137
 30
0
 42
-0.00342287677494026
  0
VERTEX
  8
1
 10
243.4578499294162
 20
295.1315740274982
 30
0
 42
0.001454396477048404
  0
VERTEX
  8
1
 10
244.2129440883188
 20
294.8925717287543
 30
0
 42
0.002341100074883208
  0
VERTEX
  8
1
 10
245.0563222513249
 20
294.632652500165
 30
0
 42
-0.008094591874544898
  0
VERTEX
  8
1
 10
245.8929800588277
 20
294.360264131937
 30
0
 42
-0.01670365432653041
  0
VERTEX
  8
1
 10
246.7068724478643
 20
294.0500227906298
 30
0
 42
-0.0257831422830098
  0
VERTEX
  8
1
 10
247.4819543554722
 20
293.6765446428031
 30
0
 42
-0.0727643893375802
  0
VERTEX
  8
1
 10
248.9164848162669
 20
292.5941117041284
 30
0
 42
-0.01438878185774527
  0
VERTEX
  8
1
 10
249.5808940059174
 20
291.897696150001
 30
0
 42
0.002813176268249432
  0
VERTEX
  8
1
 10
250.2300857150962
 20
291.1851056873761
 30
0
 42
0.02037324986589529
  0
VERTEX
  8
1
 10
250.8987373712592
 20
290.5162468109953
 30
0
 42
0.04059420823344071
  0
VERTEX
  8
1
 10
251.6215264018628
 20
289.9510260156002
 30
0
 42
0.05710425916612925
  0
VERTEX
  8
1
 10
252.5191429120422
 20
289.4968277752747
 30
0
 42
0.03290429397077849
  0
VERTEX
  8
1
 10
253.5045570764896
 20
289.2043011235867
 30
0
 42
0.03065123788460674
  0
VERTEX
  8
1
 10
254.555819481638
 20
289.033028163377
 30
0
 42
0.008913767507338192
  0
VERTEX
  8
1
 10
255.6509807139205
 20
288.9425909974859
 30
0
 42
0.0099099076199458
  0
VERTEX
  8
1
 10
256.7680913597699
 20
288.8925717287543
 30
0
  0
SEQEND
  8
1
  0
POLYLINE
  8
1
 62
3
 66
1
  0
VERTEX
  8
1
 10
236.7680913597699
 20
294.8925717287543
 30
0
 42
-0.001829921716633723
  0
VERTEX
  8
1
 10
237.5093064060972
 20
294.9364984938675
 30
0
 42
-0.005521412245365748
  0
VERTEX
  8
1
 10
238.2489579370437
 20
294.9694435677025
 30
0
 42
-0.009297014988719781
  0
VERTEX
  8
1
 10
238.9854824372289
 20
294.9804252589807
 30
0
 42
-0.01317426561340872
  0
VERTEX
  8
1
 10
239.7173163912722
 20
294.9584618764241
 30
0
 42
-0.01710602726109624
  0
VERTEX
  8
1
 10
240.4428962837928
 20
294.8925717287543
 30
0
 42
-0.01816776250876733
  0
VERTEX
  8
1
 10
241.2051380824074
 20
294.7665814352813
 30
0
 42
-0.01395037294192176
  0
VERTEX
  8
1
 10
241.9609183430196
 20
294.5911599230075
 30
0
 42
-0.009739958315099499
  0
VERTEX
  8
1
 10
242.7125824847772
 20
294.3787335574701
 30
0
 42
-0.005623898474809904
  0
VERTEX
  8
1
 10
243.4624759268276
 20
294.1417287042066
 30
0
 42
-0.001607917713778997
  0
VERTEX
  8
1
 10
244.2129440883188
 20
293.8925717287543
 30
0
 42
-0.003035046830008963
  0
VERTEX
  8
1
 10
245.0602231635855
 20
293.605941929639
 30
0
 42
-0.01003263971659855
  0
VERTEX
  8
1
 10
245.8970023170396
 20
293.2983314875197
 30
0
 42
-0.01731546574563098
  0
VERTEX
  8
1
 10
246.7090655958973
 20
292.9484107702105
 30
0
 42
-0.02487359489817202
  0
VERTEX
  8
1
 10
247.4821970473749
 20
292.5348501455256
 30
0
 42
-0.03223808317310156
  0
VERTEX
  8
1
 10
248.2021807186886
 20
292.0363199812791
 30
0
 42
-0.0288870004225731
  0
VERTEX
  8
1
 10
248.9081360248499
 20
291.3964475227677
 30
0
 42
-0.01142416437675753
  0
VERTEX
  8
1
 10
249.5697624411002
 20
290.6924116529838
 30
0
 42
0.005159818166341302
  0
VERTEX
  8
1
 10
250.2203457725872
 20
289.9825240290508
 30
0
 42
0.02241317470666219
  0
VERTEX
  8
1
 10
250.8931718244589
 20
289.3250963080918
 30
0
 42
0.0426059724394842
  0
VERTEX
  8
1
 10
251.6215264018628
 20
288.7784401472301
 30
0
 42
0.05849288245866556
  0
VERTEX
  8
1
 10
252.5205336324063
 20
288.3531925645373
 30
0
 42
0.03363910028911687
  0
VERTEX
  8
1
 10
253.5064113703084
 20
288.0933275811762
 30
0
 42
0.03098575730259789
  0
VERTEX
  8
1
 10
254.5574419887295
 20
287.957499547314
 30
0
 42
0.009028684574806656
  0
VERTEX
  8
1
 10
255.6519078608299
 20
287.9043628131177
 30
0
 42
0.00994635345633132
  0
VERTEX
  8
1
 10
256.7680913597699
 20
287.8925717287543
 30
0
  0
SEQEND
  8
1
  0
POLYLINE
  8
1
 62
3
 66
1
  0
VERTEX
  8
1
 10
236.7680913597699
 20
293.3925717287543
 30
0
 42
-0.001399310508409456
  0
VERTEX
  8
1
 10
237.4002708494753
 20
293.4127206158004
 30
0
 42
-0.004208486187093194
  0
VERTEX
  8
1
 10
238.031843053854
 20
293.4257660353999
 30
0
 42
-0.007044180568746897
  0
VERTEX
  8
1
 10
238.6622006875797
 20
293.4246045201066
 30
0
 42
-0.009906475772617747
  0
VERTEX
  8
1
 10
239.2907364653258
 20
293.4021326024741
 30
0
 42
-0.01276798874528829
  0
VERTEX
  8
1
 10
239.9168431017658
 20
293.3512468150559
 30
0
 42
-0.0160470763884446
  0
VERTEX
  8
1
 10
240.6673293304114
 20
293.2452012169264
 30
0
 42
-0.01397860901111147
  0
VERTEX
  8
1
 10
241.4121072129793
 20
293.0939105336017
 30
0
 42
-0.01197752447287712
  0
VERTEX
  8
1
 10
242.1498792086434
 20
292.9037232391979
 30
0
 42
-0.01006527445192446
  0
VERTEX
  8
1
 10
242.879347776577
 20
292.6809878078311
 30
0
 42
-0.008241774927256444
  0
VERTEX
  8
1
 10
243.5992153759538
 20
292.4320527136173
 30
0
 42
-0.003838553974046228
  0
VERTEX
  8
1
 10
244.0653608197094
 20
292.2581018566181
 30
0
 42
-0.001856704054600947
  0
VERTEX
  8
1
 10
244.5288014181529
 20
292.079116942014
 30
0
 42
0.0001371936480728545
  0
VERTEX
  8
1
 10
244.9915094501138
 20
291.8985831023741
 30
0
 42
0.002130188905779872
  0
VERTEX
  8
1
 10
245.4554571944215
 20
291.7199854702677
 30
0
 42
0.004105463468147373
  0
VERTEX
  8
1
 10
245.9226169299055
 20
291.546809178264
 30
0
 42
0.004136423689847934
  0
VERTEX
  8
1
 10
246.5013818425881
 20
291.343047047556
 30
0
 42
-0.004610467601224126
  0
VERTEX
  8
1
 10
247.0796424704564
 20
291.1368535946562
 30
0
 42
-0.01190343574358224
  0
VERTEX
  8
1
 10
247.6490823390645
 20
290.9123763110947
 30
0
 42
-0.01931776423059132
  0
VERTEX
  8
1
 10
248.2013849739662
 20
290.6537626884015
 30
0
 42
-0.02658956512586753
  0
VERTEX
  8
1
 10
248.7282339007156
 20
290.3451602181067
 30
0
 42
-0.02465029267637925
  0
VERTEX
  8
1
 10
249.2865550811374
 20
289.9288192261114
 30
0
 42
-0.007303506873547356
  0
VERTEX
  8
1
 10
249.8227288317899
 20
289.4732890603256
 30
0
 42
0.009583372171416554
  0
VERTEX
  8
1
 10
250.3575031184152
 20
289.0230132309533
 30
0
 42
0.02737041927784678
  0
VERTEX
  8
1
 10
250.9116259067557
 20
288.6224352481994
 30
0
 42
0.04757618206180727
  0
VERTEX
  8
1
 10
251.5058451625537
 20
288.3159986222681
 30
0
 42
0.03703160076200911
  0
VERTEX
  8
1
 10
251.9199514702937
 20
288.1847103774194
 30
0
 42
0.01980714861968286
  0
VERTEX
  8
1
 10
252.3536064995468
 20
288.0997902753605
 30
0
 42
0.02086257844022676
  0
VERTEX
  8
1
 10
252.8008338920286
 20
288.0494681937425
 30
0
 42
0.004976522059002815
  0
VERTEX
  8
1
 10
253.2556572894548
 20
288.0219740102169
 30
0
 42
0.007214920840538123
  0
VERTEX
  8
1
 10
253.7121003335412
 20
288.0055376024345
 30
0
 42
-0.0005860077343039358
  0
VERTEX
  8
1
 10
254.3331479444515
 20
287.9845548603588
 30
0
 42
-0.000465506874652563
  0
VERTEX
  8
1
 10
254.9476292849188
 20
287.9624984965095
 30
0
 42
-0.0003378585558971398
  0
VERTEX
  8
1
 10
255.5571859225537
 20
287.9396369163301
 30
0
 42
-0.0002048992797216644
  0
VERTEX
  8
1
 10
256.1634594249672
 20
287.9162385252639
 30
0
 42
-6.866814275309803e-005
  0
VERTEX
  8
1
 10
256.7680913597699
 20
287.8925717287543
 30
0
  0
SEQEND
  8
1
  0
POLYLINE
  8
1
 62
3
 66
1
  0
VERTEX
  8
1
 10
236.7680913597699
 20
292.3925717287543
 30
0
 42
-0.0014374664148419
  0
VERTEX
  8
1
 10
237.4006758894968
 20
292.4135307996671
 30
0
 42
-0.004324802430618741
  0
VERTEX
  8
1
 10
238.0325518738918
 20
292.4271838571666
 30
0
 42
-0.007243808653218835
  0
VERTEX
  8
1
 10
238.6630107676228
 20
292.42622488784
 30
0
 42
-0.01019656978479659
  0
VERTEX
  8
1
 10
239.2913440253581
 20
292.4033478782741
 30
0
 42
-0.01315520811121722
  0
VERTEX
  8
1
 10
239.9168431017658
 20
292.3512468150559
 30
0
 42
-0.01633930251811365
  0
VERTEX
  8
1
 10
240.6660587938295
 20
292.242659818087
 30
0
 42
-0.01378166540681938
  0
VERTEX
  8
1
 10
241.4095160405877
 20
292.0887275246251
 30
0
 42
-0.01127931597961521
  0
VERTEX
  8
1
 10
242.1466026687328
 20
291.8971693195039
 30
0
 42
-0.008860671032279928
  0
VERTEX
  8
1
 10
242.8767065049574
 20
291.6757045875568
 30
0
 42
-0.006521860467686707
  0
VERTEX
  8
1
 10
243.5992153759538
 20
291.4320527136173
 30
0
 42
-0.003263998879637076
  0
VERTEX
  8
1
 10
244.0682583575876
 20
291.2638976750983
 30
0
 42
-0.002743206220312688
  0
VERTEX
  8
1
 10
244.5344496139004
 20
291.0904147813067
 30
0
 42
-0.002214346596937951
  0
VERTEX
  8
1
 10
244.9984595347914
 20
290.9124850532392
 30
0
 42
-0.001680038634107684
  0
VERTEX
  8
1
 10
245.46095851016
 20
290.7309895118927
 30
0
 42
-0.001142648290401576
  0
VERTEX
  8
1
 10
245.9226169299055
 20
290.546809178264
 30
0
 42
-0.003025283606000457
  0
VERTEX
  8
1
 10
246.5020268571201
 20
290.3110230886446
 30
0
 42
-0.006884513991941838
  0
VERTEX
  8
1
 10
247.0767306108585
 20
290.0637686419222
 30
0
 42
-0.01075366762059076
  0
VERTEX
  8
1
 10
247.6422910980707
 20
289.7964297566202
 30
0
 42
-0.01459082984944864
  0
VERTEX
  8
1
 10
248.1942712257064
 20
289.5003903512614
 30
0
 42
-0.0182791571637227
  0
VERTEX
  8
1
 10
248.7282339007156
 20
289.1670343443691
 30
0
 42
-0.0145772129546664
  0
VERTEX
  8
1
 10
249.2767227564542
 20
288.7675651128361
 30
0
 42
-0.0014604795694545
  0
VERTEX
  8
1
 10
249.8141735633372
 20
288.3492352825722
 30
0
 42
0.01170481162202338
  0
VERTEX
  8
1
 10
250.3551410685347
 20
287.9455364958648
 30
0
 42
0.02559818686949344
  0
VERTEX
  8
1
 10
250.9141800192168
 20
287.5899603950011
 30
0
 42
0.04086222631762749
  0
VERTEX
  8
1
 10
251.5058451625537
 20
287.3159986222681
 30
0
 42
0.03180568557325519
  0
VERTEX
  8
1
 10
251.9245970865293
 20
287.191779769504
 30
0
 42
0.01804985857797851
  0
VERTEX
  8
1
 10
252.3594842498611
 20
287.1087346477409
 30
0
 42
0.01830108516280995
  0
VERTEX
  8
1
 10
252.8056209683039
 20
287.0567528503765
 30
0
 42
0.005464783303418393
  0
VERTEX
  8
1
 10
253.2581215576124
 20
287.0257239708085
 30
0
 42
0.006549699693686334
  0
VERTEX
  8
1
 10
253.7121003335412
 20
287.0055376024345
 30
0
 42
0.0004093587786438991
  0
VERTEX
  8
1
 10
254.3310020154693
 20
286.9812893273075
 30
0
 42
0.0003245172122988263
  0
VERTEX
  8
1
 10
254.9447680462758
 20
286.9581444524412
 30
0
 42
0.000234054903896113
  0
VERTEX
  8
1
 10
255.5546823387412
 20
286.9358271277702
 30
0
 42
0.0001422883528376065
  0
VERTEX
  8
1
 10
256.1620288056457
 20
286.9140615032297
 30
0
 42
4.708687532955501e-005
  0
VERTEX
  8
1
 10
256.7680913597699
 20
286.8925717287543
 30
0
  0
SEQEND
  8
1
  0
POLYLINE
  8
1
 62
3
 66
1
  0
VERTEX
  8
1
 10
236.7680913597699
 20
290.8925717287543
 30
0
 42
-0.001358152088140304
  0
VERTEX
  8
1
 10
237.4000076034374
 20
290.9177874823818
 30
0
 42
-0.004084509566323025
  0
VERTEX
  8
1
 10
238.0313823732878
 20
290.9361047899064
 30
0
 42
-0.006836327826037152
  0
VERTEX
  8
1
 10
238.661674195504
 20
290.9406252052254
 30
0
 42
-0.009614512800484745
  0
VERTEX
  8
1
 10
239.2903415962691
 20
290.924450282236
 30
0
 42
-0.0123948757016104
  0
VERTEX
  8
1
 10
239.9168431017658
 20
290.8806815748353
 30
0
 42
-0.01720460201209954
  0
VERTEX
  8
1
 10
240.7442994762566
 20
290.772002420791
 30
0
 42
-0.01506268212940856
  0
VERTEX
  8
1
 10
241.5653756399105
 20
290.6097348130585
 30
0
 42
-0.01298929339486058
  0
VERTEX
  8
1
 10
242.3784636899472
 20
290.4010901166622
 30
0
 42
-0.01101450300665335
  0
VERTEX
  8
1
 10
243.1819557235866
 20
290.1532796966266
 30
0
 42
-0.009143100764617097
  0
VERTEX
  8
1
 10
243.9742438380486
 20
289.873514917976
 30
0
 42
-0.003751510980274747
  0
VERTEX
  8
1
 10
244.409914060524
 20
289.7069411147053
 30
0
 42
-0.002072865824888171
  0
VERTEX
  8
1
 10
244.842910073498
 20
289.5355804420139
 30
0
 42
-0.0003846956454093037
  0
VERTEX
  8
1
 10
245.2745244025831
 20
289.3623068379623
 30
0
 42
0.001309348898434225
  0
VERTEX
  8
1
 10
245.7060495733919
 20
289.1899942406108
 30
0
 42
0.0030059860517352
  0
VERTEX
  8
1
 10
246.1387781115369
 20
289.0215165880197
 30
0
 42
0.003951844711974628
  0
VERTEX
  8
1
 10
246.6027891606925
 20
288.8482556422746
 30
0
 42
0.00161180570969582
  0
VERTEX
  8
1
 10
247.0689458064765
 20
288.6800795766137
 30
0
 42
0.001288536037596695
  0
VERTEX
  8
1
 10
247.5365535268817
 20
288.5144391203311
 30
0
 42
-0.0005425218243693508
  0
VERTEX
  8
1
 10
248.0049177999002
 20
288.3487850027206
 30
0
 42
-0.001862584057177118
  0
VERTEX
  8
1
 10
248.4733441035247
 20
288.1805679530762
 30
0
 42
-0.001452496948289092
  0
VERTEX
  8
1
 10
249.1262523162524
 20
287.9398604269347
 30
0
 42
0.002656236824450005
  0
VERTEX
  8
1
 10
249.7798691074826
 20
287.700676777449
 30
0
 42
0.006791582524780775
  0
VERTEX
  8
1
 10
250.4361339956117
 20
287.4744901300426
 30
0
 42
0.01103558094103215
  0
VERTEX
  8
1
 10
251.0969864990363
 20
287.2727736101391
 30
0
 42
0.0153598082046287
  0
VERTEX
  8
1
 10
251.7643661361527
 20
287.1070003431619
 30
0
 42
0.02443126801021877
  0
VERTEX
  8
1
 10
252.7438446035311
 20
286.9450139335997
 30
0
 42
0.0160620545668662
  0
VERTEX
  8
1
 10
253.7375007891396
 20
286.8624279818246
 30
0
 42
0.01393493870893787
  0
VERTEX
  8
1
 10
254.7417902634205
 20
286.8393923733898
 30
0
 42
0.005770450064245847
  0
VERTEX
  8
1
 10
255.7531685968165
 20
286.8560569938487
 30
0
 42
0.003972978688880282
  0
VERTEX
  8
1
 10
256.7680913597699
 20
286.8925717287543
 30
0
  0
SEQEND
  8
1
  0
POLYLINE
  8
1
 62
3
 66
1
  0
VERTEX
  8
1
 10
236.7680913597699
 20
289.8925717287543
 30
0
 42
-0.001362471609938655
  0
VERTEX
  8
1
 10
237.4000353612786
 20
289.9178779090473
 30
0
 42
-0.004097610774241418
  0
VERTEX
  8
1
 10
238.0314309495098
 20
289.9362630365711
 30
0
 42
-0.006858595752646619
  0
VERTEX
  8
1
 10
238.6617297111864
 20
289.9408060585566
 30
0
 42
-0.00964643736440586
  0
VERTEX
  8
1
 10
239.2903832330308
 20
289.9245859222345
 30
0
 42
-0.01243679960371348
  0
VERTEX
  8
1
 10
239.9168431017658
 20
289.8806815748359
 30
0
 42
-0.01723934499790275
  0
VERTEX
  8
1
 10
240.7442013051698
 20
289.771682609032
 30
0
 42
-0.0150412064697781
  0
VERTEX
  8
1
 10
241.5651732598588
 20
289.6090755199563
 30
0
 42
-0.01291158192494362
  0
VERTEX
  8
1
 10
242.3782061864741
 20
289.4002512480967
 30
0
 42
-0.01088102849109527
  0
VERTEX
  8
1
 10
243.181747305657
 20
289.1526007339407
 30
0
 42
-0.008953596705450425
  0
VERTEX
  8
1
 10
243.9742438380486
 20
288.873514917976
 30
0
 42
-0.003703781418527342
  0
VERTEX
  8
1
 10
244.4101043221158
 20
288.7075609295249
 30
0
 42
-0.002172491294044214
  0
VERTEX
  8
1
 10
244.8432762306751
 20
288.5367732715412
 30
0
 42
-0.0006319289789431551
  0
VERTEX
  8
1
 10
245.2749713245496
 20
288.3637627747875
 30
0
 42
0.0009139763723448307
  0
VERTEX
  8
1
 10
245.7064013645625
 20
288.1911402700262
 30
0
 42
0.002461932441514963
  0
VERTEX
  8
1
 10
246.1387781115369
 20
288.0215165880197
 30
0
 42
0.003473150353555503
  0
VERTEX
  8
1
 10
246.6021163322652
 20
287.8460637704093
 30
0
 42
0.002008603979798534
  0
VERTEX
  8
1
 10
247.0675763758394
 20
287.6756183850777
 30
0
 42
0.00204756478086943
  0
VERTEX
  8
1
 10
247.5348239082483
 20
287.5088045450568
 30
0
 42
0.0005824769221400654
  0
VERTEX
  8
1
 10
248.0035245954805
 20
287.3442463633789
 30
0
 42
0.000624250145562325
  0
VERTEX
  8
1
 10
248.4733441035247
 20
287.1805679530762
 30
0
 42
0.0003363676655233039
  0
VERTEX
  8
1
 10
249.1246342684372
 20
286.9550699725273
 30
0
 42
0.005230759131872802
  0
VERTEX
  8
1
 10
249.77840322638
 20
286.7368345549687
 30
0
 42
0.006236406618215128
  0
VERTEX
  8
1
 10
250.4356293051293
 20
286.5340731693609
 30
0
 42
0.01123059924287433
  0
VERTEX
  8
1
 10
251.0972908324614
 20
286.3549972846645
 30
0
 42
0.01235024403591032
  0
VERTEX
  8
1
 10
251.7643661361527
 20
286.2078183698401
 30
0
 42
0.02178204566578085
  0
VERTEX
  8
1
 10
252.7487709763755
 20
286.0601498468893
 30
0
 42
0.01290993169237672
  0
VERTEX
  8
1
 10
253.7440692862654
 20
285.9808344127742
 30
0
 42
0.01287933557249216
  0
VERTEX
  8
1
 10
254.7475376984057
 20
285.9527837952858
 30
0
 42
0.004130453162637105
  0
VERTEX
  8
1
 10
255.7564528453794
 20
285.9589097222153
 30
0
 42
0.004305287326193004
  0
VERTEX
  8
1
 10
256.7680913597699
 20
285.9821239213536
 30
0
  0
SEQEND
  8
1
  0
POLYLINE
  8
1
 62
3
 66
1
  0
VERTEX
  8
1
 10
236.7680913597699
 20
283.3925717287543
 30
0
 42
-0.001012204111017844
  0
VERTEX
  8
1
 10
237.3993312006716
 20
283.4118907350272
 30
0
 42
-0.003041506933751672
  0
VERTEX
  8
1
 10
238.0301986684477
 20
283.4260820086634
 30
0
 42
-0.005083541123705358
  0
VERTEX
  8
1
 10
238.6603213899725
 20
283.4300178170263
 30
0
 42
-0.007140173251191221
  0
VERTEX
  8
1
 10
239.2893269921204
 20
283.418570427479
 30
0
 42
-0.0201510382414887
  0
VERTEX
  8
1
 10
240.6539136805505
 20
283.3191523887375
 30
0
 42
-0.005713191267175174
  0
VERTEX
  8
1
 10
241.3895434527038
 20
283.2285276788763
 30
0
 42
-0.001504699509078961
  0
VERTEX
  8
1
 10
242.1248751628835
 20
283.1271495611368
 30
0
 42
0.002686391856229122
  0
VERTEX
  8
1
 10
242.8610515557476
 20
283.0274296188548
 30
0
 42
0.006874857216583776
  0
VERTEX
  8
1
 10
243.5992153759538
 20
282.9417794353657
 30
0
 42
0.006540794941129436
  0
VERTEX
  8
1
 10
244.0632500588001
 20
282.9005187820796
 30
0
 42
0.006046787787513617
  0
VERTEX
  8
1
 10
244.5280609115961
 20
282.8709593036562
 30
0
 42
0.007915314743403085
  0
VERTEX
  8
1
 10
244.9931945783643
 20
282.8544003514333
 30
0
 42
0.007448605157918851
  0
VERTEX
  8
1
 10
245.4581977031267
 20
282.8521412767489
 30
0
 42
0.01990100913033157
  0
VERTEX
  8
1
 10
246.4860410708906
 20
282.9034068594861
 30
0
 42
0.006705255687842568
  0
VERTEX
  8
1
 10
247.048123252207
 20
282.9615311433673
 30
0
 42
0.006951790059688175
  0
VERTEX
  8
1
 10
247.6090550601118
 20
283.0350691419002
 30
0
 42
0.002464144041163826
  0
VERTEX
  8
1
 10
248.1690280808622
 20
283.1192357144004
 30
0
 42
0.002737693092693662
  0
VERTEX
  8
1
 10
248.7282339007156
 20
283.2092457201833
 30
0
 42
-0.0001339878578081735
  0
VERTEX
  8
1
 10
249.2831187230626
 20
283.3000161470881
 30
0
 42
-0.001401259120432856
  0
VERTEX
  8
1
 10
249.8378789870518
 20
283.3890186276151
 30
0
 42
-0.002671166500861044
  0
VERTEX
  8
1
 10
250.3929579660513
 20
283.4734412320151
 30
0
 42
-0.003942555142901812
  0
VERTEX
  8
1
 10
250.9487989334293
 20
283.5504720305386
 30
0
 42
-0.005212195614849114
  0
VERTEX
  8
1
 10
251.5058451625537
 20
283.6172990934364
 30
0
 42
-0.004276427742329169
  0
VERTEX
  8
1
 10
251.9458603137558
 20
283.6613489750321
 30
0
 42
-0.003618960281576842
  0
VERTEX
  8
1
 10
252.386696244363
 20
283.6984608457469
 30
0
 42
-0.002963333241831921
  0
VERTEX
  8
1
 10
252.8281501164679
 20
283.7297784518278
 30
0
 42
-0.00230990775909685
  0
VERTEX
  8
1
 10
253.2700190921631
 20
283.7564455395212
 30
0
 42
-0.001658437888932504
  0
VERTEX
  8
1
 10
253.7121003335412
 20
283.7796058550739
 30
0
 42
-0.001659181814251394
  0
VERTEX
  8
1
 10
254.3232769199615
 20
283.807617682816
 30
0
 42
-0.001291066999951121
  0
VERTEX
  8
1
 10
254.9344679189321
 20
283.8320170752209
 30
0
 42
-0.0009224660058091376
  0
VERTEX
  8
1
 10
255.5456697273154
 20
283.8537071411226
 30
0
 42
-0.0005535777015967854
  0
VERTEX
  8
1
 10
256.1568787419739
 20
283.8735909893556
 30
0
 42
-0.0001845410469939399
  0
VERTEX
  8
1
 10
256.7680913597699
 20
283.8925717287543
 30
0
  0
SEQEND
  8
1
  0
POLYLINE
  8
1
 62
3
 66
1
  0
VERTEX
  8
1
 10
236.7680913597699
 20
282.3925717287543
 30
0
 42
-0.001012204111017844
  0
VERTEX
  8
1
 10
237.3993312006716
 20
282.4118907350272
 30
0
 42
-0.003041506933661743
  0
VERTEX
  8
1
 10
238.0301986684477
 20
282.4260820086635
 30
0
 42
-0.005083541123795733
  0
VERTEX
  8
1
 10
238.6603213899725
 20
282.4300178170263
 30
0
 42
-0.007140173251191221
  0
VERTEX
  8
1
 10
239.2893269921204
 20
282.418570427479
 30
0
 42
-0.02015103824160576
  0
VERTEX
  8
1
 10
240.6539136805505
 20
282.3191523887375
 30
0
 42
-0.005713191267175174
  0
VERTEX
  8
1
 10
241.3895434527038
 20
282.2285276788763
 30
0
 42
-0.001504699509078961
  0
VERTEX
  8
1
 10
242.1248751628835
 20
282.1271495611368
 30
0
 42
0.002686391856229122
  0
VERTEX
  8
1
 10
242.8610515557476
 20
282.0274296188548
 30
0
 42
0.006874857216583776
  0
VERTEX
  8
1
 10
243.5992153759538
 20
281.9417794353657
 30
0
 42
0.006540794941190167
  0
VERTEX
  8
1
 10
244.0632500588001
 20
281.9005187820796
 30
0
 42
0.006046787787390155
  0
VERTEX
  8
1
 10
244.5280609115961
 20
281.8709593036562
 30
0
 42
0.007915314743590392
  0
VERTEX
  8
1
 10
244.9931945783643
 20
281.8544003514334
 30
0
 42
0.007448605157730492
  0
VERTEX
  8
1
 10
245.4581977031266
 20
281.8521412767491
 30
0
 42
0.01990100913045841
  0
VERTEX
  8
1
 10
246.4860410708906
 20
281.9034068594863
 30
0
 42
0.00670525568766387
  0
VERTEX
  8
1
 10
247.048123252207
 20
281.9615311433674
 30
0
 42
0.006951790059873036
  0
VERTEX
  8
1
 10
247.6090550601118
 20
282.0350691419003
 30
0
 42
0.002464144041028989
  0
VERTEX
  8
1
 10
248.1690280808622
 20
282.1192357144004
 30
0
 42
0.002737693092771156
  0
VERTEX
  8
1
 10
248.7282339007156
 20
282.2092457201833
 30
0
 42
-0.0001339878580077916
  0
VERTEX
  8
1
 10
249.2831187230626
 20
282.3000161470881
 30
0
 42
-0.001401259120648906
  0
VERTEX
  8
1
 10
249.8378789870518
 20
282.3890186276151
 30
0
 42
-0.002671166500861044
  0
VERTEX
  8
1
 10
250.3929579660513
 20
282.4734412320151
 30
0
 42
-0.0039425551430024
  0
VERTEX
  8
1
 10
250.9487989334293
 20
282.5504720305386
 30
0
 42
-0.005212195614949925
  0
VERTEX
  8
1
 10
251.5058451625537
 20
282.6172990934364
 30
0
 42
-0.004276427742456847
  0
VERTEX
  8
1
 10
251.9458603137558
 20
282.661348975032
 30
0
 42
-0.003618960281192922
  0
VERTEX
  8
1
 10
252.386696244363
 20
282.6984608457469
 30
0
 42
-0.002963333241831921
  0
VERTEX
  8
1
 10
252.8281501164679
 20
282.7297784518278
 30
0
 42
-0.002309907759224971
  0
VERTEX
  8
1
 10
253.2700190921631
 20
282.7564455395212
 30
0
 42
-0.001658437888804162
  0
VERTEX
  8
1
 10
253.7121003335412
 20
282.7796058550739
 30
0
 42
-0.001659181814251394
  0
VERTEX
  8
1
 10
254.3232769199615
 20
282.807617682816
 30
0
 42
-0.001291066999951121
  0
VERTEX
  8
1
 10
254.9344679189321
 20
282.8320170752209
 30
0
 42
-0.0009224660058091376
  0
VERTEX
  8
1
 10
255.5456697273154
 20
282.8537071411226
 30
0
 42
-0.0005535777015037487
  0
VERTEX
  8
1
 10
256.1568787419739
 20
282.8735909893557
 30
0
 42
-0.0001845410469011252
  0
VERTEX
  8
1
 10
256.7680913597699
 20
282.8925717287543
 30
0
  0
SEQEND
  8
1
  0
POLYLINE
  8
1
 62
3
 66
1
  0
VERTEX
  8
1
 10
236.7680913597699
 20
278.3925717287546
 30
0
 42
0.002401515546242372
  0
VERTEX
  8
1
 10
237.5125684217488
 20
278.3342635482022
 30
0
 42
0.007248840753234879
  0
VERTEX
  8
1
 10
238.2546664644341
 20
278.2905324127877
 30
0
 42
0.01229879808590282
  0
VERTEX
  8
1
 10
238.9920064685322
 20
278.2759553676496
 30
0
 42
0.01753962731820568
  0
VERTEX
  8
1
 10
239.7222094147497
 20
278.3051094579259
 30
0
 42
0.02289826929957715
  0
VERTEX
  8
1
 10
240.4428962837928
 20
278.3925717287546
 30
0
 42
0.02623792913372329
  0
VERTEX
  8
1
 10
241.2125694231198
 20
278.5638948717712
 30
0
 42
0.01533451021649139
  0
VERTEX
  8
1
 10
241.9713207022571
 20
278.8003942571575
 30
0
 42
0.01262719634038285
  0
VERTEX
  8
1
 10
242.7222401921836
 20
279.0813903489519
 30
0
 42
0.002243745492169859
  0
VERTEX
  8
1
 10
243.4684179638779
 20
279.3862036111927
 30
0
 42
-0.002052424584173466
  0
VERTEX
  8
1
 10
244.2129440883188
 20
279.6941545079187
 30
0
 42
-0.004718784384013182
  0
VERTEX
  8
1
 10
245.0094858813208
 20
280.008587430432
 30
0
 42
-0.002952234778191453
  0
VERTEX
  8
1
 10
245.8071752973025
 20
280.3093969189683
 30
0
 42
-0.001148070354287622
  0
VERTEX
  8
1
 10
246.6055174798202
 20
280.602989946248
 30
0
 42
0.0006697605109572987
  0
VERTEX
  8
1
 10
247.4040175724302
 20
280.8957734849914
 30
0
 42
0.002482044596515899
  0
VERTEX
  8
1
 10
248.2021807186886
 20
281.1941545079187
 30
0
 42
0.001978882975320641
  0
VERTEX
  8
1
 10
248.8795252920708
 20
281.454280303377
 30
0
 42
-0.002424872975911061
  0
VERTEX
  8
1
 10
249.5582012550349
 20
281.7128479073589
 30
0
 42
-0.005965402688277632
  0
VERTEX
  8
1
 10
250.2401394996253
 20
281.9596471960842
 30
0
 42
-0.009563208241514663
  0
VERTEX
  8
1
 10
250.9272709178866
 20
282.1844680457725
 30
0
 42
-0.01321986738226184
  0
VERTEX
  8
1
 10
251.6215264018628
 20
282.3771003326435
 30
0
 42
-0.01938778054345671
  0
VERTEX
  8
1
 10
252.6286341626407
 20
282.5841677773598
 30
0
 42
-0.01499239441253168
  0
VERTEX
  8
1
 10
253.6505454106209
 20
282.7219197784133
 30
0
 42
-0.0105972812499159
  0
VERTEX
  8
1
 10
254.6835592740029
 20
282.8076851967198
 30
0
 42
-0.006296230251511014
  0
VERTEX
  8
1
 10
255.7239748809861
 20
282.8587928931949
 30
0
 42
-0.002086734309532328
  0
VERTEX
  8
1
 10
256.7680913597699
 20
282.8925717287543
 30
0
  0
SEQEND
  8
1
  0
POLYLINE
  8
1
 62
3
 66
1
  0
VERTEX
  8
1
 10
236.7680913597699
 20
277.3925717287546
 30
0
 42
0.002401515546166432
  0
VERTEX
  8
1
 10
237.5125684217488
 20
277.3342635482021
 30
0
 42
0.007248840753425015
  0
VERTEX
  8
1
 10
238.2546664644341
 20
277.2905324127878
 30
0
 42
0.0122987980855978
  0
VERTEX
  8
1
 10
238.9920064685322
 20
277.2759553676496
 30
0
 42
0.0175396273185102
  0
VERTEX
  8
1
 10
239.7222094147497
 20
277.3051094579258
 30
0
 42
0.02289826929935121
  0
VERTEX
  8
1
 10
240.4428962837928
 20
277.3925717287546
 30
0
 42
0.02623792913394466
  0
VERTEX
  8
1
 10
241.2125694231198
 20
277.5638948717713
 30
0
 42
0.01533451021620084
  0
VERTEX
  8
1
 10
241.9713207022571
 20
277.8003942571575
 30
0
 42
0.01262719634074101
  0
VERTEX
  8
1
 10
242.7222401921836
 20
278.0813903489519
 30
0
 42
0.002243745491778448
  0
VERTEX
  8
1
 10
243.4684179638779
 20
278.3862036111928
 30
0
 42
-0.002052424584108184
  0
VERTEX
  8
1
 10
244.2129440883188
 20
278.6941545079187
 30
0
 42
-0.004718784384013182
  0
VERTEX
  8
1
 10
245.0094858813208
 20
279.008587430432
 30
0
 42
-0.002952234778191453
  0
VERTEX
  8
1
 10
245.8071752973025
 20
279.3093969189683
 30
0
 42
-0.001148070354350461
  0
VERTEX
  8
1
 10
246.6055174798202
 20
279.602989946248
 30
0
 42
0.000669760510894571
  0
VERTEX
  8
1
 10
247.4040175724302
 20
279.8957734849914
 30
0
 42
0.002482044596547208
  0
VERTEX
  8
1
 10
248.2021807186886
 20
280.1941545079187
 30
0
 42
0.001978882975289555
  0
VERTEX
  8
1
 10
248.8795252920708
 20
280.454280303377
 30
0
 42
-0.00242487297569168
  0
VERTEX
  8
1
 10
249.5582012550349
 20
280.712847907359
 30
0
 42
-0.005965402688203688
  0
VERTEX
  8
1
 10
250.2401394996253
 20
280.9596471960842
 30
0
 42
-0.009563208241365436
  0
VERTEX
  8
1
 10
250.9272709178866
 20
281.1844680457725
 30
0
 42
-0.01321986738226184
  0
VERTEX
  8
1
 10
251.6215264018628
 20
281.3771003326435
 30
0
 42
-0.01938778054347315
  0
VERTEX
  8
1
 10
252.6286341626406
 20
281.5841677773598
 30
0
 42
-0.01499239441269092
  0
VERTEX
  8
1
 10
253.6505454106209
 20
281.7219197784133
 30
0
 42
-0.01059728124986127
  0
VERTEX
  8
1
 10
254.6835592740029
 20
281.8076851967199
 30
0
 42
-0.006296230251565639
  0
VERTEX
  8
1
 10
255.7239748809861
 20
281.8587928931951
 30
0
 42
-0.00208673430964113
  0
VERTEX
  8
1
 10
256.7680913597699
 20
281.8925717287546
 30
0
  0
SEQEND
  8
1
  0
POLYLINE
  8
1
 62
3
 66
1
  0
VERTEX
  8
1
 10
236.7680913597699
 20
273.3925717287546
 30
0
 42
0.004358729398528288
  0
VERTEX
  8
1
 10
237.7372054104432
 20
273.3970989139406
 30
0
 42
0.01337584483491558
  0
VERTEX
  8
1
 10
238.6894270715597
 20
273.4353406141016
 30
0
 42
0.02383563990237298
  0
VERTEX
  8
1
 10
239.6078639535628
 20
273.5410113442126
 30
0
 42
0.03589190169502518
  0
VERTEX
  8
1
 10
240.4756236668957
 20
273.7478256192487
 30
0
 42
0.04895632414684362
  0
VERTEX
  8
1
 10
241.2758138220019
 20
274.0894979541847
 30
0
 42
0.04576326853626057
  0
VERTEX
  8
1
 10
241.933597269365
 20
274.5326421664466
 30
0
 42
0.02110922930130249
  0
VERTEX
  8
1
 10
242.5435532590778
 20
275.0746985249301
 30
0
 42
0.0159816053329589
  0
VERTEX
  8
1
 10
243.1270981047744
 20
275.6763796537553
 30
0
 42
-0.001092134691064951
  0
VERTEX
  8
1
 10
243.705648120089
 20
276.2983981770416
 30
0
 42
-0.01369804711989371
  0
VERTEX
  8
1
 10
244.3006196186557
 20
276.901466718909
 30
0
 42
-0.02555441647283276
  0
VERTEX
  8
1
 10
245.1565433738273
 20
277.6344383196935
 30
0
 42
-0.02143501595989801
  0
VERTEX
  8
1
 10
246.0696481106411
 20
278.2780705538684
 30
0
 42
-0.01692967819399094
  0
VERTEX
  8
1
 10
247.0282388336934
 20
278.8490332629351
 30
0
 42
-0.01233822321845284
  0
VERTEX
  8
1
 10
248.0206205475802
 20
279.3639962883951
 30
0
 42
-0.007800748263521369
  0
VERTEX
  8
1
 10
249.0350982568975
 20
279.8396294717495
 30
0
 42
-0.005362192224293067
  0
VERTEX
  8
1
 10
249.8419705005938
 20
280.1944052248701
 30
0
 42
-0.007366627213560409
  0
VERTEX
  8
1
 10
250.6563788114372
 20
280.5280344180915
 30
0
 42
-0.009412356290880945
  0
VERTEX
  8
1
 10
251.4794259930201
 20
280.8333862357371
 30
0
 42
-0.0114936811927139
  0
VERTEX
  8
1
 10
252.3122148489351
 20
281.1033298621306
 30
0
 42
-0.02517093435355283
  0
VERTEX
  8
1
 10
253.8683199448224
 20
281.4845799466586
 30
0
 42
-0.008504618118814682
  0
VERTEX
  8
1
 10
254.587442955771
 20
281.6107734013009
 30
0
 42
-0.006047552492682426
  0
VERTEX
  8
1
 10
255.3115544033953
 20
281.7162278481275
 30
0
 42
-0.003614339530346151
  0
VERTEX
  8
1
 10
256.03899147547
 20
281.8078562897437
 30
0
 42
-0.001202089796674123
  0
VERTEX
  8
1
 10
256.7680913597699
 20
281.8925717287546
 30
0
  0
SEQEND
  8
1
  0
POLYLINE
  8
1
 62
3
 66
1
  0
VERTEX
  8
1
 10
236.7680913597699
 20
272.3925717287546
 30
0
 42
0.004358729398528288
  0
VERTEX
  8
1
 10
237.7372054104432
 20
272.3970989139406
 30
0
 42
0.0133758448349454
  0
VERTEX
  8
1
 10
238.6894270715597
 20
272.4353406141016
 30
0
 42
0.02383563990228311
  0
VERTEX
  8
1
 10
239.6078639535628
 20
272.5410113442126
 30
0
 42
0.035891901695115
  0
VERTEX
  8
1
 10
240.4756236668957
 20
272.7478256192486
 30
0
 42
0.04895632414681273
  0
VERTEX
  8
1
 10
241.2758138220019
 20
273.0894979541847
 30
0
 42
0.04576326853626134
  0
VERTEX
  8
1
 10
241.933597269365
 20
273.5326421664466
 30
0
 42
0.02110922930130094
  0
VERTEX
  8
1
 10
242.5435532590778
 20
274.0746985249301
 30
0
 42
0.01598160533296146
  0
VERTEX
  8
1
 10
243.1270981047744
 20
274.6763796537553
 30
0
 42
-0.001092134691064951
  0
VERTEX
  8
1
 10
243.705648120089
 20
275.2983981770416
 30
0
 42
-0.01369804711989371
  0
VERTEX
  8
1
 10
244.3006196186557
 20
275.901466718909
 30
0
 42
-0.02555441647283276
  0
VERTEX
  8
1
 10
245.1565433738273
 20
276.6344383196935
 30
0
 42
-0.02143501595989801
  0
VERTEX
  8
1
 10
246.0696481106411
 20
277.2780705538684
 30
0
 42
-0.01692967819399094
  0
VERTEX
  8
1
 10
247.0282388336934
 20
277.8490332629351
 30
0
 42
-0.012338223218543
  0
VERTEX
  8
1
 10
248.0206205475802
 20
278.3639962883951
 30
0
 42
-0.007800748263521369
  0
VERTEX
  8
1
 10
249.0350982568975
 20
278.8396294717495
 30
0
 42
-0.005362192224234002
  0
VERTEX
  8
1
 10
249.8419705005938
 20
279.1944052248701
 30
0
 42
-0.007366627213621029
  0
VERTEX
  8
1
 10
250.6563788114372
 20
279.5280344180915
 30
0
 42
-0.009412356290880945
  0
VERTEX
  8
1
 10
251.4794259930201
 20
279.8333862357371
 30
0
 42
-0.0114936811927139
  0
VERTEX
  8
1
 10
252.3122148489351
 20
280.1033298621306
 30
0
 42
-0.02517093435355283
  0
VERTEX
  8
1
 10
253.8683199448224
 20
280.4845799466586
 30
0
 42
-0.008504618118661237
  0
VERTEX
  8
1
 10
254.587442955771
 20
280.6107734013009
 30
0
 42
-0.006047552492682426
  0
VERTEX
  8
1
 10
255.3115544033953
 20
280.7162278481275
 30
0
 42
-0.003614339530346151
  0
VERTEX
  8
1
 10
256.03899147547
 20
280.8078562897437
 30
0
 42
-0.001202089796674123
  0
VERTEX
  8
1
 10
256.7680913597699
 20
280.8925717287546
 30
0
  0
SEQEND
  8
1
  0
POLYLINE
  8
1
 62
3
 66
1
  0
VERTEX
  8
1
 10
253.0945383033409
 20
284.8925717287543
 30
0
 42
0.02259622956507622
  0
VERTEX
  8
1
 10
254.3166610383327
 20
284.7811882425737
 30
0
 42
0.02274159424204853
  0
VERTEX
  8
1
 10
255.5411787238091
 20
284.7811882425737
 30
0
 42
0.02251383879693073
  0
VERTEX
  8
1
 10
256.7680913597699
 20
284.8925717287543
 30
0
  0
SEQEND
  8
1
  0
POLYLINE
  8
1
 62
3
 66
1
  0
VERTEX
  8
1
 10
278.1339553576016
 20
283.9227505922369
 30
0
 42
0.0407102506787082
  0
VERTEX
  8
1
 10
278.4586349402583
 20
284.1365466668411
 30
0
 42
0.06199146047008698
  0
VERTEX
  8
1
 10
278.661888315009
 20
284.3459110316061
 30
0
 42
0.08619168503855021
  0
VERTEX
  8
1
 10
278.76176219552
 20
284.551095359048
 30
0
 42
0.09222976083305511
  0
VERTEX
  8
1
 10
278.7763032954574
 20
284.7523513216827
 30
0
 42
0.07064619444112048
  0
VERTEX
  8
1
 10
278.7235583284872
 20
284.9499305920263
 30
0
 42
0.04304327987078264
  0
VERTEX
  8
1
 10
278.6215740082759
 20
285.1440848425945
 30
0
 42
0.02162533274580964
  0
VERTEX
  8
1
 10
278.4883970484894
 20
285.3350657459035
 30
0
 42
0.005216753895228471
  0
VERTEX
  8
1
 10
278.342074162794
 20
285.5231249744692
 30
0
 42
-0.01010100466102772
  0
VERTEX
  8
1
 10
278.2006520648557
 20
285.7085142008076
 30
0
 42
-0.02869426395812011
  0
VERTEX
  8
1
 10
278.0821774683407
 20
285.8914850974347
 30
0
 42
-0.05573108952532974
  0
VERTEX
  8
1
 10
278.0046970869153
 20
286.0722893368663
 30
0
 42
-0.09207917610874887
  0
VERTEX
  8
1
 10
277.9862576342455
 20
286.2511785916185
 30
0
 42
-0.1128213517731256
  0
VERTEX
  8
1
 10
278.0449058239976
 20
286.4284045342072
 30
0
 42
-0.09080172897708598
  0
VERTEX
  8
1
 10
278.1986883698375
 20
286.6042188371484
 30
0
 42
-0.05754649676400136
  0
VERTEX
  8
1
 10
278.4656519854317
 20
286.7788731729582
 30
0
 42
-0.03525709866055176
  0
VERTEX
  8
1
 10
278.8638433844461
 20
286.9526192141524
 30
0
  0
SEQEND
  8
1
  0
POLYLINE
  8
1
 62
3
 66
1
  0
VERTEX
  8
1
 10
276.7320943309549
 20
283.8925717287546
 30
0
 42
0.05080912477675917
  0
VERTEX
  8
1
 10
276.9898430075039
 20
284.1053374793734
 30
0
 42
0.06988837635655085
  0
VERTEX
  8
1
 10
277.1437567382217
 20
284.3191140373564
 30
0
 42
0.08041446078042709
  0
VERTEX
  8
1
 10
277.211105634212
 20
284.5337071610035
 30
0
 42
0.07024993852507278
  0
VERTEX
  8
1
 10
277.2091598065783
 20
284.7489226086148
 30
0
 42
0.04773994140906884
  0
VERTEX
  8
1
 10
277.1551893664241
 20
284.9645661384901
 30
0
 42
0.02608758836475966
  0
VERTEX
  8
1
 10
277.0664644248528
 20
285.1804435089296
 30
0
 42
0.008309190313576581
  0
VERTEX
  8
1
 10
276.9602550929681
 20
285.3963604782333
 30
0
 42
-0.007700004216682175
  0
VERTEX
  8
1
 10
276.8538314818736
 20
285.6121228047012
 30
0
 42
-0.02496678281128877
  0
VERTEX
  8
1
 10
276.7644637026725
 20
285.827536246633
 30
0
 42
-0.04605941347100277
  0
VERTEX
  8
1
 10
276.7094218664687
 20
286.0424065623291
 30
0
 42
-0.0698525021000324
  0
VERTEX
  8
1
 10
276.7059760843655
 20
286.2565395100893
 30
0
 42
-0.0849645967285808
  0
VERTEX
  8
1
 10
276.7713964674666
 20
286.4697408482135
 30
0
 42
-0.0783152712821988
  0
VERTEX
  8
1
 10
276.9229531268754
 20
286.6818163350021
 30
0
 42
-0.05838989814919535
  0
VERTEX
  8
1
 10
277.1779161736955
 20
286.8925717287546
 30
0
  0
SEQEND
  8
1
  0
POLYLINE
  8
1
 62
3
 66
1
  0
VERTEX
  8
1
 10
256.7680913597699
 20
280.8925717287546
 30
0
 42
-0.00125715903215887
  0
VERTEX
  8
1
 10
257.6745904164468
 20
280.925541270751
 30
0
 42
0.01672185237801907
  0
VERTEX
  8
1
 10
258.6164075437147
 20
280.9892253514317
 30
0
 42
0.03588864036887528
  0
VERTEX
  8
1
 10
259.5393871340109
 20
281.1494866477162
 30
0
 42
0.05941825443861035
  0
VERTEX
  8
1
 10
260.3893735797725
 20
281.4721878365242
 30
0
 42
0.04885265694398751
  0
VERTEX
  8
1
 10
261.0479911079631
 20
281.9221188896789
 30
0
 42
0.01888671491551984
  0
VERTEX
  8
1
 10
261.6548015892813
 20
282.4690096360324
 30
0
 42
-0.008828815731254013
  0
VERTEX
  8
1
 10
262.2564892678753
 20
283.0329732450315
 30
0
 42
-0.03690414509080343
  0
VERTEX
  8
1
 10
262.8997383878935
 20
283.5341228861232
 30
0
 42
-0.06556888939161669
  0
VERTEX
  8
1
 10
263.6312331934844
 20
283.8925717287543
 30
0
  0
SEQEND
  8
1
  0
POLYLINE
  8
1
 62
3
 66
1
  0
VERTEX
  8
1
 10
256.7680913597699
 20
281.8925717287546
 30
0
 42
0.05088675466853525
  0
VERTEX
  8
1
 10
257.4339229241475
 20
281.7843597291622
 30
0
 42
0.04911865911476857
  0
VERTEX
  8
1
 10
258.0726839165742
 20
281.8122989583825
 30
0
 42
0.04309929058821464
  0
VERTEX
  8
1
 10
258.6846488381917
 20
281.9558280637006
 30
0
 42
0.03504233058661223
  0
VERTEX
  8
1
 10
259.2700921901416
 20
282.1943856924016
 30
0
 42
0.02689835495075638
  0
VERTEX
  8
1
 10
259.8292884735655
 20
282.5074104917708
 30
0
 42
0.0195570533341725
  0
VERTEX
  8
1
 10
260.3625121896051
 20
282.8743411090933
 30
0
 42
0.01309512459637699
  0
VERTEX
  8
1
 10
260.870037839402
 20
283.2746161916544
 30
0
 42
0.007177072648357773
  0
VERTEX
  8
1
 10
261.3521399240977
 20
283.687674386739
 30
0
  0
VERTEX
  8
1
 10
261.5837429111393
 20
283.8925717287543
 30
0
  0
SEQEND
  8
1
  0
POLYLINE
  8
1
 62
3
 66
1
  0
VERTEX
  8
1
 10
256.7680913597699
 20
282.8925717287543
 30
0
 42
0.03319036030484374
  0
VERTEX
  8
1
 10
257.6007402075838
 20
282.92121194619
 30
0
 42
0.0346015090541263
  0
VERTEX
  8
1
 10
258.4066017931428
 20
283.0604704520751
 30
0
 42
0.03473851473772709
  0
VERTEX
  8
1
 10
259.1856761164468
 20
283.3103472464097
 30
0
 42
0.03357139695113931
  0
VERTEX
  8
1
 10
259.9379631774957
 20
283.6708423291938
 30
0
  0
VERTEX
  8
1
 10
260.3040614846746
 20
283.8925717287543
 30
0
  0
SEQEND
  8
1
  0
POLYLINE
  8
1
 62
3
 66
1
  0
VERTEX
  8
1
 10
256.76809135977
 20
289.8925717287543
 30
0
 42
-0.05466041113357451
  0
VERTEX
  8
1
 10
257.8713164646877
 20
289.9659050680851
 30
0
 42
-0.0513512270012883
  0
VERTEX
  8
1
 10
258.9648660763302
 20
289.8055232874503
 30
0
 42
-0.05006728031376809
  0
VERTEX
  8
1
 10
260.0039810392271
 20
289.4284438108975
 30
0
 42
-0.05119903610660279
  0
VERTEX
  8
1
 10
260.9439021979075
 20
288.8516840624747
 30
0
 42
-0.02216330777431572
  0
VERTEX
  8
1
 10
261.5008154680764
 20
288.3760686015579
 30
0
 42
0.003396894471830825
  0
VERTEX
  8
1
 10
262.0381884803372
 20
287.8811251428811
 30
0
 42
0.02951794661255295
  0
VERTEX
  8
1
 10
262.5999627951104
 20
287.4280781812908
 30
0
 42
0.05588776907669498
  0
VERTEX
  8
1
 10
263.2300799728163
 20
287.0781522116331
 30
0
 42
0.07410302475784433
  0
VERTEX
  8
1
 10
263.9724815738755
 20
286.8925717287543
 30
0
  0
SEQEND
  8
1
  0
POLYLINE
  8
1
 62
3
 66
1
  0
VERTEX
  8
1
 10
256.7680913597699
 20
288.8925717287543
 30
0
 42
-0.03995606799192467
  0
VERTEX
  8
1
 10
257.8089975451408
 20
288.9131567342865
 30
0
 42
-0.04484345164711745
  0
VERTEX
  8
1
 10
258.7833162256169
 20
288.762976686855
 30
0
 42
-0.04740704220145635
  0
VERTEX
  8
1
 10
259.6910474011983
 20
288.4420315864596
 30
0
 42
-0.04670923927628066
  0
VERTEX
  8
1
 10
260.532191071885
 20
287.9503214331003
 30
0
 42
-0.04301924621616246
  0
VERTEX
  8
1
 10
261.3067472376769
 20
287.2878462267773
 30
0
  0
VERTEX
  8
1
 10
261.6690550062374
 20
286.8925717287543
 30
0
  0
SEQEND
  8
1
  0
POLYLINE
  8
1
 62
3
 66
1
  0
VERTEX
  8
1
 10
256.7680913597699
 20
287.8925717287543
 30
0
 42
-0.03245757378764783
  0
VERTEX
  8
1
 10
257.5805398491921
 20
287.9070592431929
 30
0
 42
-0.03477904894004417
  0
VERTEX
  8
1
 10
258.361689130168
 20
287.8143030004122
 30
0
 42
-0.03591000814411486
  0
VERTEX
  8
1
 10
259.1115392026977
 20
287.6143030004122
 30
0
 42
-0.03559658832346788
  0
VERTEX
  8
1
 10
259.8300900667811
 20
287.307059243193
 30
0
 42
-0.03391144079493243
  0
VERTEX
  8
1
 10
260.5173417224182
 20
286.8925717287543
 30
0
  0
SEQEND
  8
1
  0
ARC
  8
1
 62
3
 10
487.3494984552356
 20
122.2155475598476
 30
0
 40
7.499999999999886
 50
270
 51
0
  0
ARC
  8
1
 62
3
 10
412.3494984552357
 20
122.2155475598477
 30
0
 40
7.5
 50
180
 51
270
  0
ARC
  8
1
 62
3
 10
487.3494984552357
 20
197.2155475598477
 30
0
 40
7.5
 50
0
 51
90
  0
ARC
  8
1
 62
3
 10
412.3494984552357
 20
197.2155475598477
 30
0
 40
7.5
 50
90
 51
180
  0
ARC
  8
1
 62
3
 10
128.711250879585
 20
153.6855475598476
 30
0
 40
1.670000000000101
 50
270
 51
0
  0
ARC
  8
1
 62
3
 10
125.0512508795849
 20
153.6855475598476
 30
0
 40
1.669999999999902
 50
180
 51
270
  0
ARC
  8
1
 62
3
 10
128.691250879585
 20
153.7055475598477
 30
0
 40
0.6900000000001967
 50
270
 51
0
  0
ARC
  8
1
 62
3
 10
128.691250879585
 20
153.7133082126129
 30
0
 40
0.6899999999999977
 50
0
 51
90
  0
ARC
  8
1
 62
3
 10
125.071250879585
 20
153.7055475598477
 30
0
 40
0.6899999999999977
 50
180
 51
270
  0
ARC
  8
1
 62
3
 10
125.071250879585
 20
153.7133082126129
 30
0
 40
0.6900000000001114
 50
90
 51
180
  0
ARC
  8
1
 62
3
 10
436.5362839759414
 20
177.678075843554
 30
0
 40
1
 50
180
 51
270
  0
ARC
  8
1
 62
3
 10
436.5362839759414
 20
187.678075843554
 30
0
 40
1
 50
90
 51
180
  0
ARC
  8
1
 62
3
 10
462.5362839759414
 20
187.678075843554
 30
0
 40
1
 50
0
 51
90
  0
ARC
  8
1
 62
3
 10
462.5362839759414
 20
177.678075843554
 30
0
 40
1
 50
270
 51
0
  0
ARC
  8
1
 62
3
 10
467.8494984552357
 20
119.2155611252955
 30
0
 40
2.000000000000201
 50
318.5903778907226
 51
0
  0
ARC
  8
1
 62
3
 10
468.3494984552357
 20
110.7155475598462
 30
0
 40
1
 50
270
 51
0
  0
ARC
  8
1
 62
3
 10
431.3494984552349
 20
110.7155475598462
 30
0
 40
0.9999999999992042
 50
179.9999999999544
 51
270
  0
ARC
  8
1
 62
3
 10
431.8494984552357
 20
119.2155611252956
 30
0
 40
2
 50
180
 51
221.4096221092664
  0
ARC
  8
1
 62
3
 10
432.312897820522
 20
113.7312933515163
 30
0
 40
0.0311999999999265
 50
45.00000000009227
 51
97.4584490564397
  0
ARC
  8
1
 62
3
 10
432.1861021852874
 20
113.7312933515163
 30
0
 40
0.03120000000009612
 50
82.5415509435603
 51
135.0000000001292
  0
ARC
  8
1
 62
3
 10
432.7337677766841
 20
114.278958942913
 30
0
 40
0.03120000000011743
 50
135
 51
187.4584490559505
  0
ARC
  8
1
 62
3
 10
432.7337677766841
 20
114.1521633076784
 30
0
 40
0.03119999999987067
 50
172.5415509435061
 51
225
  0
ARC
  8
1
 62
3
 10
432.1861021852874
 20
114.6998288990754
 30
0
 40
0.03120000000011743
 50
225
 51
277.458449056416
  0
ARC
  8
1
 62
3
 10
432.312897820522
 20
114.6998288990754
 30
0
 40
0.03120000000019475
 50
262.541550943584
 51
314.9999999994834
  0
ARC
  8
1
 62
3
 10
431.7652322291253
 20
114.1521633076784
 30
0
 40
0.03119999999983607
 50
314.9999999994834
 51
7.458449056507451
  0
ARC
  8
1
 62
3
 10
431.7652322291253
 20
114.278958942913
 30
0
 40
0.03119999999977557
 50
352.5415509440359
 51
45.0000000005167
  0
ARC
  8
1
 62
3
 10
467.5128947251848
 20
113.7312933515163
 30
0
 40
0.0311999999999667
 50
45.00000000001846
 51
97.45844905633619
  0
ARC
  8
1
 62
3
 10
467.3860990899502
 20
113.7312933515163
 30
0
 40
0.03120000000009612
 50
82.5415509435603
 51
135.0000000001292
  0
ARC
  8
1
 62
3
 10
467.933764681347
 20
114.278958942913
 30
0
 40
0.03120000000015762
 50
135.0000000000738
 51
187.4584490559234
  0
ARC
  8
1
 62
3
 10
467.933764681347
 20
114.1521633076784
 30
0
 40
0.03119999999998339
 50
172.5415509435332
 51
224.9999999999262
  0
ARC
  8
1
 62
3
 10
467.3860990899502
 20
114.6998288990754
 30
0
 40
0.03120000000011743
 50
225
 51
277.458449056416
  0
ARC
  8
1
 62
3
 10
467.5128947251848
 20
114.6998288990754
 30
0
 40
0.03120000000018737
 50
262.5415509436875
 51
314.9999999995571
  0
ARC
  8
1
 62
3
 10
466.9652291337881
 20
114.1521633076784
 30
0
 40
0.03119999999983607
 50
314.9999999994834
 51
7.458449056534554
  0
ARC
  8
1
 62
3
 10
466.9652291337881
 20
114.278958942913
 30
0
 40
0.03119999999966284
 50
352.5415509440089
 51
45.0000000005167
  0
ARC
  8
1
 62
3
 10
454.2494984552359
 20
201.4155494022761
 30
0
 40
0.5
 50
0
 51
90
  0
ARC
  8
1
 62
3
 10
445.4494984552359
 20
201.4155494022761
 30
0
 40
0.5
 50
90
 51
180
  0
ARC
  8
1
 62
3
 10
429.6994984552356
 20
107.5655475598472
 30
0
 40
1
 50
180
 51
270
  0
ARC
  8
1
 62
3
 10
469.9994984552358
 20
107.5655475598468
 30
0
 40
1
 50
270
 51
0
  0
ARC
  8
1
 62
3
 10
424.6994984552356
 20
110.7155475598475
 30
0
 40
4
 50
0
 51
90
  0
ARC
  8
1
 62
3
 10
474.9994984552358
 20
110.7155475598475
 30
0
 40
4
 50
90
 51
180
  0
ARC
  8
1
 62
3
 10
486.3494984552357
 20
123.215547559847
 30
0
 40
8.5000000000001
 50
90
 51
180
  0
ARC
  8
1
 62
3
 10
476.3494984552357
 20
116.2155475598475
 30
0
 40
1.5
 50
270
 51
0
  0
ARC
  8
1
 62
3
 10
423.3494984552357
 20
116.2155475598475
 30
0
 40
1.5
 50
180
 51
270
  0
ARC
  8
1
 62
3
 10
413.3494984552358
 20
123.215547559847
 30
0
 40
8.499999999999886
 50
0
 51
90
  0
ARC
  8
1
 62
3
 10
408.7494984552355
 20
133.2155475598471
 30
0
 40
1.5
 50
180
 51
270
  0
ARC
  8
1
 62
3
 10
408.7494984552355
 20
186.2155475598472
 30
0
 40
1.5
 50
90
 51
180
  0
ARC
  8
1
 62
3
 10
413.3494984552357
 20
196.2155475598473
 30
0
 40
8.500000000000085
 50
270
 51
0
  0
ARC
  8
1
 62
3
 10
423.3494984552357
 20
200.8155475598472
 30
0
 40
1.5
 50
90
 51
180
  0
ARC
  8
1
 62
3
 10
476.3494984552357
 20
200.8155475598472
 30
0
 40
1.5
 50
0
 51
90
  0
ARC
  8
1
 62
3
 10
486.3494984552357
 20
196.2155475598473
 30
0
 40
8.5
 50
180
 51
270
  0
ARC
  8
1
 62
3
 10
490.9494984552356
 20
186.2155475598472
 30
0
 40
1.5
 50
0
 51
90
  0
ARC
  8
1
 62
3
 10
490.9494984552356
 20
133.2155475598471
 30
0
 40
1.5
 50
270
 51
0
  0
ARC
  8
1
 62
3
 10
443.3494984552357
 20
200.9058376777865
 30
0
 40
0.8000000000000114
 50
0
 51
98.96756428648303
  0
ARC
  8
1
 62
3
 10
456.3494984552357
 20
200.9058376777864
 30
0
 40
0.7999999999999101
 50
81.03243571351824
 51
180
  0
ARC
  8
1
 62
3
 10
331.2645042979689
 20
2.314814455765573
 30
0
 40
0.800000000000068
 50
270
 51
0
  0
ARC
  8
1
 62
3
 10
331.2645042979689
 20
17.51481445576528
 30
0
 40
0.8000000000001819
 50
0
 51
90
  0
ARC
  8
1
 62
3
 10
328.4645042979689
 20
-27.58518554423446
 30
0
 40
2.599999999999969
 50
270
 51
0
  0
ARC
  8
1
 62
3
 10
328.4645042979689
 20
47.41481445576537
 30
0
 40
2.600000000000193
 50
0
 51
90
  0
ARC
  8
1
 62
3
 10
101.381250879585
 20
110.7155475598476
 30
0
 40
4
 50
0
 51
90
  0
ARC
  8
1
 62
3
 10
152.381250879585
 20
110.7155475598476
 30
0
 40
4
 50
90
 51
180
  0
ARC
  8
1
 62
3
 10
106.381250879585
 20
107.2155475598473
 30
0
 40
1
 50
180
 51
270
  0
ARC
  8
1
 62
3
 10
147.381250879585
 20
107.2155475598477
 30
0
 40
1
 50
270
 51
0
  0
ARC
  8
1
 62
3
 10
164.381250879585
 20
197.2155475598477
 30
0
 40
7.5
 50
0
 51
90
  0
ARC
  8
1
 62
3
 10
164.381250879585
 20
122.2155475598477
 30
0
 40
7.5
 50
270
 51
0
  0
ARC
  8
1
 62
3
 10
89.38125087958503
 20
122.2155475598476
 30
0
 40
7.500000000000057
 50
180
 51
270
  0
ARC
  8
1
 62
3
 10
89.38125087958497
 20
197.2155475598477
 30
0
 40
7.5
 50
90
 51
180
  0
ARC
  8
1
 62
3
 10
328.4645042979689
 20
197.2155475598472
 30
0
 40
2.600000000000193
 50
0
 51
90
  0
ARC
  8
1
 62
3
 10
328.4645042979689
 20
122.2155475598473
 30
0
 40
2.599999999999994
 50
270
 51
0
  0
ARC
  8
1
 62
3
 10
331.2645042979689
 20
167.3155475598471
 30
0
 40
0.8000000000001819
 50
0
 51
90
  0
ARC
  8
1
 62
3
 10
331.2645042979689
 20
152.1155475598473
 30
0
 40
0.8000000000000966
 50
270
 51
0
  0
ARC
  8
1
 62
3
 10
350.9683951746564
 20
279.0973953104526
 30
0
 40
0.5
 50
180
 51
270
  0
ARC
  8
1
 62
3
 10
350.9683951746564
 20
283.0973953104517
 30
0
 40
0.5
 50
90
 51
180
  0
ARC
  8
1
 62
3
 10
350.9683951746564
 20
292.0973953104517
 30
0
 40
0.5
 50
180
 51
270
  0
ARC
  8
1
 62
3
 10
350.9683951746564
 20
296.0973953104517
 30
0
 40
0.5
 50
90
 51
180
  0
ARC
  8
1
 62
3
 10
361.5683951746563
 20
296.0973953104517
 30
0
 40
0.5
 50
0
 51
90
  0
ARC
  8
1
 62
3
 10
361.5683951746562
 20
279.0973953104526
 30
0
 40
0.5
 50
270
 51
0
  0
TEXT
  8
1
 62
2
 10
287.8538022070131
 20
24.80567374339962
 30
0
 40
3
  1
1
 50
270
 41
0.9
 72
1
 73
2
 11
289.3538022070131
 21
23.45567374339962
 31
0
  0
TEXT
  8
1
 62
2
 10
287.940234885021
 20
0.3918940836264107
 30
0
 40
3
  1
11
 50
270
 41
0.9
 72
1
 73
2
 11
289.440234885021
 21
-2.30810591637359
 31
0
  0
TEXT
  8
1
 62
2
 10
260.7089566269271
 20
-65.94629862516163
 30
0
 40
5
  1
FY9PF40H-D3
 41
0.9
  0
TEXT
  8
1
 62
2
 10
365.6683951746563
 20
275.1573953104526
 30
0
 40
3.199999999999997
  1
1
 50
90
 41
0.9000000000000015
 72
1
 73
2
 11
364.0683951746563
 21
276.5973953104526
 31
0
  0
TEXT
  8
1
 62
2
 10
365.6683951746562
 20
297.1573953104517
 30
0
 40
3.199999999999997
  1
4
 50
90
 41
0.9000000000000015
 72
1
 73
2
 11
364.0683951746562
 21
298.5973953104517
 31
0
  0
TEXT
  8
1
 62
2
 10
350.0683951746563
 20
275.1573953104526
 30
0
 40
3.199999999999997
  1
5
 50
90
 41
0.9000000000000015
 72
1
 73
2
 11
348.4683951746563
 21
276.5973953104526
 31
0
  0
TEXT
  8
1
 62
2
 10
350.0683951746564
 20
297.1573953104517
 30
0
 40
3.199999999999997
  1
8
 50
90
 41
0.9000000000000015
 72
1
 73
2
 11
348.4683951746564
 21
298.5973953104517
 31
0
  0
TEXT
  8
1
 62
2
 10
228.4680913597696
 20
267.9525717287546
 30
0
 40
3.199999999999997
  1
1
 50
90
 41
0.9000000000000015
 72
1
 73
2
 11
226.8680913597696
 21
269.3925717287546
 31
0
  0
TEXT
  8
1
 62
2
 10
228.4680913597696
 20
298.5125717287543
 30
0
 40
3.199999999999997
  1
11
 50
90
 41
0.9000000000000015
 72
1
 73
2
 11
226.8680913597696
 21
301.3925717287543
 31
0
  0
TEXT
  8
1
 62
2
 10
269.6078255412245
 20
256.78319906921
 30
0
 40
4
  1
付属ケーブル
 41
0.9
  0
ENDSEC
  0
EOF
