  0
SECTION
  2
HEADER
  9
$ACADVER
  1
AC1009
  9
$INSBASE
 10
0
 20
0
  9
$EXTMIN
 10
48.65007292873392
 20
-15.34070382780673
  9
$EXTMAX
 10
432.073423007917
 20
305.694017919659
  9
$LIMMIN
 10
48.65007292873392
 20
-15.34070382780673
  9
$LIMMAX
 10
432.073423007917
 20
305.694017919659
  9
$VIEWCTR
 10
10
 20
10
  9
$VIEWSIZE
 40
10
  9
$SNAPMODE
 70
0
  9
$SNAPUNIT
 10
1
 20
1
  9
$SNAPBASE
 10
0
 20
0
  9
$SNAPANG
 50
0
  9
$SNAPSTYLE
 70
0
  9
$SNAPISOPAIR
 70
0
  9
$GRIDMODE
 70
0
  9
$GRIDUNIT
 10
0
 20
0
  9
$ORTHOMODE
 70
0
  9
$REGENMODE
 70
1
  9
$FILLMODE
 70
1
  9
$QTEXTMODE
 70
0
  9
$DRAGMODE
 70
2
  9
$LTSCALE
 40
1
  9
$OSMODE
 70
0
  9
$ATTMODE
 70
1
  9
$TEXTSIZE
 40
3.5
  9
$TRACEWID
 40
0.5
  9
$TEXTSTYLE
  7
STANDARD
  9
$CLAYER
  8
0
  9
$CELTYPE
  6
BYLAYER
  9
$CECOLOR
 62
256
  9
$DIMSCALE
 40
1
  9
$DIMASZ
 40
0.18
  9
$DIMEXO
 40
0.0625
  9
$DIMDLI
 40
0.38
  9
$DIMRND
 40
0
  9
$DIMDLE
 40
0
  9
$DIMEXE
 40
0.18
  9
$DIMTP
 40
0
  9
$DIMTM
 40
0
  9
$DIMTXT
 40
0.18
  9
$DIMCEN
 40
0.09
  9
$DIMTSZ
 40
0
  9
$DIMTOL
 70
0
  9
$DIMLIM
 70
0
  9
$DIMTIH
 70
1
  9
$DIMTOH
 70
1
  9
$DIMSE1
 70
0
  9
$DIMSE2
 70
0
  9
$DIMTAD
 70
0
  9
$DIMZIN
 70
0
  9
$DIMBLK
  1

  9
$DIMASO
 70
1
  9
$DIMSHO
 70
1
  9
$DIMPOST
  1

  9
$DIMAPOST
  1

  9
$DIMALT
 70
0
  9
$DIMALTD
 70
2
  9
$DIMALTF
 40
25.4
  9
$DIMLFAC
 40
1
  9
$DIMTOFL
 70
0
  9
$DIMTVP
 40
0
  9
$DIMTIX
 70
0
  9
$DIMSOXD
 70
0
  9
$DIMSAH
 70
0
  9
$DIMBLK1
  1

  9
$DIMBLK2
  1

  9
$DIMSTYLE
  2
*UNNAMED
  9
$DIMCLRD
 70
0
  9
$DIMCLRE
 70
0
  9
$DIMCLRT
 70
0
  9
$DIMTFAC
 40
1
  9
$DIMGAP
 40
0.09
  9
$LUNITS
 70
2
  9
$LUPREC
 70
4
  9
$AXISMODE
 70
0
  9
$AXISUNIT
 10
0
 20
0
  9
$SKETCHINC
 40
0.1
  9
$FILLETRAD
 40
2
  9
$AUNITS
 70
0
  9
$AUPREC
 70
0
  9
$MENU
  1
ACAD
  9
$ELEVATION
 40
0
  9
$THICKNESS
 40
0
  9
$VIEWDIR
 10
0
 20
0
 30
1
  9
$LIMCHECK
 70
0
  9
$BLIPMODE
 70
1
  9
$CHAMFERA
 40
0
  9
$CHAMFERB
 40
0
  9
$FASTZOOM
 70
1
  9
$SKPOLY
 70
0
  9
$ANGBASE
 50
0
  9
$ANGDIR
 70
0
  9
$PDMODE
 70
0
  9
$PDSIZE
 40
0
  9
$PLINEWID
 40
0
  9
$COORDS
 70
2
  0
ENDSEC
  0
SECTION
  2
TABLES
  0
TABLE
  2
DIMSTYLE
 70
0
  0
ENDTAB
  0
TABLE
  2
LTYPE
 70
9
  0
LTYPE
  2
CONTINUOUS
 70
64
  3
Solid line
 72
65
 73
0
 40
0
  0
LTYPE
  2
BORDER
 70
64
  3
__ __ . __ __ .
 72
65
 73
6
 40
17.65765427996238
 49
5.045044079989251
 49
-2.522522039994625
 49
5.045044079989251
 49
-2.522522039994625
 49
0
 49
-2.522522039994625
  0
LTYPE
  2
CENTER
 70
64
  3
____ _ ____ _
 72
65
 73
4
 40
20.180176319957
 49
12.61261019997313
 49
-2.522522039994625
 49
2.522522039994625
 49
-2.522522039994625
  0
LTYPE
  2
DASHDOT
 70
64
  3
__ . __ . __ .
 72
65
 73
4
 40
10.0900881599785
 49
5.045044079989251
 49
-2.522522039994625
 49
0
 49
-2.522522039994625
  0
LTYPE
  2
DASHED
 70
64
  3
__ __ __ __ __
 72
65
 73
2
 40
7.567566119983876
 49
5.045044079989251
 49
-2.522522039994625
  0
LTYPE
  2
DIVIDE
 70
64
  3
__ . . __ . . 
 72
65
 73
6
 40
12.61261019997313
 49
5.045044079989251
 49
-2.522522039994625
 49
0
 49
-2.522522039994625
 49
0
 49
-2.522522039994625
  0
LTYPE
  2
DOT
 70
64
  3
..............
 72
65
 73
4
 40
5.045044079989251
 49
0
 49
-2.522522039994625
 49
0
 49
-2.522522039994625
  0
LTYPE
  2
HIDDEN
 70
64
  3
_ _ _ _ _ _ _
 72
65
 73
2
 40
3.783783059991938
 49
2.522522039994625
 49
-1.261261019997313
  0
LTYPE
  2
PHANTOM
 70
64
  3
_____ _ _ _____ _ _ 
 72
65
 73
6
 40
25.22522039994625
 49
12.61261019997313
 49
-2.522522039994625
 49
2.522522039994625
 49
-2.522522039994625
 49
2.522522039994625
 49
-2.522522039994625
  0
ENDTAB
  0
TABLE
  2
LAYER
 70
3
  0
LAYER
  2
1
 70
0
 62
7
  6
CONTINUOUS
  0
LAYER
  2
0
 70
0
 62
7
  6
CONTINUOUS
  0
ENDTAB
  0
TABLE
  2
STYLE
 70
4
  0
STYLE
  2
STANDARD
 70
0
 40
0
 41
1
 50
0
 71
0
 42
3.5
  3
txt
  4

  0
STYLE
  2
SIMPLEX
 70
0
 40
0
 41
1
 50
0
 71
0
 42
3.5
  3
simplex
  4

  0
STYLE
  2
COMPLEX
 70
0
 40
0
 41
1
 50
0
 71
0
 42
3.5
  3
complex
  4

  0
STYLE
  2
ITALIC
 70
0
 40
0
 41
1
 50
0
 71
0
 42
3.5
  3
italic
  4

  0
ENDTAB
  0
TABLE
  2
VIEW
 70
0
  0
ENDTAB
  0
ENDSEC
  0
SECTION
  2
BLOCKS
  0
BLOCK
  8
1
  2
*X0
 70
1
 10
0
 20
0
 30
0
  0
LINE
  8
1
 62
3
 10
236.612994990323
 20
289.646003579314
 30
0
 11
236.7210093306681
 21
289.7540179196591
 31
0
  0
LINE
  8
1
 62
3
 10
236.612994990323
 20
289.2217395106021
 30
0
 11
237.14527339938
 21
289.7540179196591
 31
0
  0
LINE
  8
1
 62
3
 10
236.612994990323
 20
288.7974754418901
 30
0
 11
237.5695374680919
 21
289.7540179196591
 31
0
  0
LINE
  8
1
 62
3
 10
236.612994990323
 20
288.3732113731782
 30
0
 11
237.612994990323
 21
289.3732113731782
 31
0
  0
LINE
  8
1
 62
3
 10
236.612994990323
 20
287.9489473044663
 30
0
 11
237.612994990323
 21
288.9489473044662
 31
0
  0
LINE
  8
1
 62
3
 10
236.612994990323
 20
287.5246832357544
 30
0
 11
237.612994990323
 21
288.5246832357543
 31
0
  0
LINE
  8
1
 62
3
 10
236.612994990323
 20
287.1004191670425
 30
0
 11
237.612994990323
 21
288.1004191670424
 31
0
  0
LINE
  8
1
 62
3
 10
236.6908578116516
 20
286.7540179196591
 30
0
 11
237.612994990323
 21
287.6761550983305
 31
0
  0
LINE
  8
1
 62
3
 10
237.1151218803635
 20
286.7540179196591
 30
0
 11
237.612994990323
 21
287.2518910296186
 31
0
  0
LINE
  8
1
 62
3
 10
237.5393859490754
 20
286.7540179196591
 30
0
 11
237.612994990323
 21
286.8276269609066
 31
0
  0
ENDBLK
  8
0
  0
BLOCK
  8
1
  2
*X1
 70
1
 10
0
 20
0
 30
0
  0
LINE
  8
1
 62
3
 10
235.6129949903231
 20
286.5246832357544
 30
0
 11
235.8423296742278
 21
286.7540179196591
 31
0
  0
LINE
  8
1
 62
3
 10
235.6129949903231
 20
286.1004191670425
 30
0
 11
236.2665937429397
 21
286.7540179196591
 31
0
  0
LINE
  8
1
 62
3
 10
235.6129949903231
 20
285.6761550983306
 30
0
 11
236.6908578116516
 21
286.7540179196591
 31
0
  0
LINE
  8
1
 62
3
 10
235.6151218803636
 20
285.2540179196591
 30
0
 11
237.1151218803635
 21
286.7540179196591
 31
0
  0
LINE
  8
1
 62
3
 10
236.0393859490755
 20
285.2540179196591
 30
0
 11
237.5393859490754
 21
286.7540179196591
 31
0
  0
LINE
  8
1
 62
3
 10
236.4636500177874
 20
285.2540179196591
 30
0
 11
237.9636500177874
 21
286.7540179196591
 31
0
  0
LINE
  8
1
 62
3
 10
236.8879140864993
 20
285.2540179196591
 30
0
 11
238.3879140864993
 21
286.7540179196591
 31
0
  0
LINE
  8
1
 62
3
 10
237.3121781552112
 20
285.2540179196591
 30
0
 11
238.612994990323
 21
286.5548347547709
 31
0
  0
LINE
  8
1
 62
3
 10
237.7364422239232
 20
285.2540179196591
 30
0
 11
238.612994990323
 21
286.130570686059
 31
0
  0
LINE
  8
1
 62
3
 10
238.1607062926351
 20
285.2540179196591
 30
0
 11
238.612994990323
 21
285.706306617347
 31
0
  0
LINE
  8
1
 62
3
 10
238.584970361347
 20
285.2540179196591
 30
0
 11
238.612994990323
 21
285.2820425486351
 31
0
  0
ENDBLK
  8
0
  0
ENDSEC
  0
SECTION
  2
ENTITIES
  0
INSERT
  8
1
  2
*X0
 10
0
 20
0
 30
0
  0
INSERT
  8
1
  2
*X1
 10
0
 20
0
 30
0
  0
LINE
  8
1
 62
3
 10
413.9808910301427
 20
129.171137922176
 30
0
 11
422.420862211296
 21
129.171137922176
 31
0
  0
LINE
  8
1
 62
3
 10
375.7234230079167
 20
129.1711379221752
 30
0
 11
356.3240367806503
 21
129.171137922176
 31
0
  0
LINE
  8
1
 62
3
 10
349.3240367806503
 20
169.171137922176
 30
0
 11
349.3240367806503
 21
202.171137922176
 31
0
  0
LINE
  8
1
 62
3
 10
349.3240367806503
 20
169.171137922176
 30
0
 11
349.3240367806503
 21
202.171137922176
 31
0
  0
LINE
  8
1
 62
3
 10
349.3240367806503
 20
136.171137922176
 30
0
 11
349.3240367806503
 21
169.171137922176
 31
0
  0
LINE
  8
1
 62
3
 10
413.9808910301427
 20
129.171137922176
 30
0
 11
412.3240367806503
 21
129.171137922176
 31
0
  0
LINE
  8
1
 62
3
 10
412.3240367806503
 20
129.171137922176
 30
0
 11
403.7234230079167
 21
129.1711379221751
 31
0
  0
LINE
  8
1
 62
3
 10
429.3240367806503
 20
136.171137922176
 30
0
 11
429.3240367806503
 21
169.171137922176
 31
0
  0
LINE
  8
1
 62
3
 10
429.3240367806503
 20
169.171137922176
 30
0
 11
429.3240367806503
 21
202.171137922176
 31
0
  0
LINE
  8
1
 62
3
 10
356.3240367806503
 20
209.171137922176
 30
0
 11
422.3240367806503
 21
209.171137922176
 31
0
  0
LINE
  8
1
 62
3
 10
242.286255276725
 20
35.26314356932311
 30
0
 11
246.2862552767258
 21
35.26314356932311
 31
0
  0
LINE
  8
1
 62
3
 10
242.286255276725
 20
75.8631435693231
 30
0
 11
246.2862552767258
 21
75.8631435693231
 31
0
  0
LINE
  8
1
 62
3
 10
226.2862807203587
 20
173.1711379221761
 30
0
 11
226.2862807203586
 21
172.171137922176
 31
0
  0
LINE
  8
1
 62
3
 10
247.1865552767253
 20
137.8711379221758
 30
0
 11
247.1865552767253
 21
198.571137922176
 31
0
  0
LINE
  8
1
 62
3
 10
240.786255276725
 20
131.9211379221761
 30
0
 11
242.286255276725
 21
131.9211379221761
 31
0
  0
LINE
  8
1
 62
3
 10
240.786255276725
 20
139.9211379221761
 30
0
 11
242.286255276725
 21
139.9211379221761
 31
0
  0
LINE
  8
1
 62
3
 10
240.786255276725
 20
143.1711379221755
 30
0
 11
242.286255276725
 21
143.1711379221755
 31
0
  0
LINE
  8
1
 62
3
 10
240.786255276725
 20
195.1711379221761
 30
0
 11
242.286255276725
 21
195.1711379221761
 31
0
  0
LINE
  8
1
 62
3
 10
240.786255276725
 20
198.4211379221761
 30
0
 11
242.286255276725
 21
198.4211379221761
 31
0
  0
LINE
  8
1
 62
3
 10
240.786255276725
 20
206.4211379221761
 30
0
 11
242.286255276725
 21
206.4211379221761
 31
0
  0
LINE
  8
1
 62
3
 10
240.786255276725
 20
207.1711379221761
 30
0
 11
240.786255276725
 21
129.1711379221759
 31
0
  0
LINE
  8
1
 62
3
 10
242.286255276725
 20
207.1711379221761
 30
0
 11
240.786255276725
 21
207.1711379221761
 31
0
  0
LINE
  8
1
 62
3
 10
240.786255276725
 20
209.1711379221763
 30
0
 11
240.786255276725
 21
207.1711379221761
 31
0
  0
LINE
  8
1
 62
3
 10
243.886255276725
 20
129.6184669778812
 30
0
 11
243.886255276725
 21
144.3711811124364
 31
0
  0
LINE
  8
1
 62
3
 10
242.286255276725
 20
129.6184669778812
 30
0
 11
243.886255276725
 21
129.6184669778812
 31
0
  0
LINE
  8
1
 62
3
 10
226.2862807203586
 20
172.171137922176
 30
0
 11
202.7862807203586
 21
172.1711379221763
 31
0
  0
LINE
  8
1
 62
2
 10
202.7862807203586
 20
172.1711379221763
 30
0
 11
202.7862807203586
 21
165.1711379221761
 31
0
  0
LINE
  8
1
 62
3
 10
202.7862807203586
 20
172.1711379221763
 30
0
 11
202.2862807203585
 21
172.171137922176
 31
0
  0
LINE
  8
1
 62
3
 10
202.7862807203586
 20
165.1711379221761
 30
0
 11
202.2862807203586
 21
165.6711379221761
 31
0
  0
LINE
  8
1
 62
3
 10
202.2862807203585
 20
172.171137922176
 30
0
 11
202.2862807203586
 21
165.6711379221761
 31
0
  0
LINE
  8
1
 62
3
 10
202.7862807203586
 20
165.1711379221761
 30
0
 11
231.286255276725
 21
165.171137922176
 31
0
  0
LINE
  8
1
 62
3
 10
202.2862807203585
 20
169.171137922176
 30
0
 11
202.2862807203585
 21
172.171137922176
 31
0
  0
LINE
  8
1
 62
3
 10
231.286255276725
 20
173.171137922176
 30
0
 11
226.2862807203587
 21
173.1711379221761
 31
0
  0
LINE
  8
1
 62
3
 10
94.65007292873392
 20
162.471137922176
 30
0
 11
95.48007292873402
 21
162.471137922176
 31
0
  0
LINE
  8
1
 62
3
 10
92.65007292873392
 20
163.471137922176
 30
0
 11
91.84007292873392
 21
163.471137922176
 31
0
  0
LINE
  8
1
 62
3
 10
94.65007292873392
 20
164.8588985749414
 30
0
 11
95.46007292873392
 21
164.8588985749414
 31
0
  0
LINE
  8
1
 62
3
 10
94.65007292873392
 20
163.471137922176
 30
0
 11
94.65007292873392
 21
162.471137922176
 31
0
  0
LINE
  8
1
 62
3
 10
92.65007292873392
 20
163.471137922176
 30
0
 11
92.65007292873392
 21
162.471137922176
 31
0
  0
LINE
  8
1
 62
3
 10
94.65007292873392
 20
165.2981545759686
 30
0
 11
94.65007292873392
 21
164.8588985749414
 31
0
  0
LINE
  8
1
 62
3
 10
92.65007292873392
 20
165.2981545759686
 30
0
 11
92.65007292873392
 21
164.8588985749414
 31
0
  0
LINE
  8
1
 62
3
 10
90.15007292873392
 20
166.0342604939044
 30
0
 11
90.15007292873392
 21
164.141137922176
 31
0
  0
LINE
  8
1
 62
3
 10
91.15007292873392
 20
164.161137922176
 30
0
 11
91.15007292873392
 21
164.1688985749413
 31
0
  0
LINE
  8
1
 62
3
 10
95.46007292873404
 20
163.471137922176
 30
0
 11
94.65007292873392
 21
163.471137922176
 31
0
  0
LINE
  8
1
 62
3
 10
96.15007292873392
 20
164.1688985749413
 30
0
 11
96.15007292873392
 21
164.161137922176
 31
0
  0
LINE
  8
1
 62
3
 10
91.84007292873403
 20
164.8588985749414
 30
0
 11
92.65007292873392
 21
164.8588985749414
 31
0
  0
LINE
  8
1
 62
3
 10
97.15007292873392
 20
164.141137922176
 30
0
 11
97.15007292873392
 21
166.0342604939043
 31
0
  0
LINE
  8
1
 62
3
 10
91.82007292873394
 20
162.471137922176
 30
0
 11
92.65007292873392
 21
162.471137922176
 31
0
  0
LINE
  8
1
 62
3
 10
91.00432161766932
 20
172.171137922176
 30
0
 11
96.27934018681322
 21
172.171137922176
 31
0
  0
LINE
  8
1
 62
3
 10
242.286255276725
 20
144.3711811124366
 30
0
 11
246.2862552767258
 21
144.3711811124362
 31
0
  0
LINE
  8
1
 62
3
 10
242.286255276725
 20
129.1711379221759
 30
0
 11
242.286255276725
 21
200.4485029251019
 31
0
  0
LINE
  8
1
 62
3
 10
126.6500729287339
 20
129.171137922176
 30
0
 11
60.65007292873392
 21
129.171137922176
 31
0
  0
LINE
  8
1
 62
1
 10
126.9000729287339
 20
131.4809618354145
 30
0
 11
126.9000729287339
 21
140.3613140089374
 31
0
  0
LINE
  8
1
 62
1
 10
131.3402490154953
 20
135.9211379221758
 30
0
 11
122.4598968419724
 21
135.921137922176
 31
0
  0
LINE
  8
1
 62
1
 10
55.95989684197252
 20
135.921137922176
 30
0
 11
64.84024901549552
 21
135.921137922176
 31
0
  0
LINE
  8
1
 62
1
 10
60.40007292873392
 20
131.4809618354145
 30
0
 11
60.40007292873392
 21
140.3613140089375
 31
0
  0
LINE
  8
1
 62
3
 10
53.65007292873392
 20
169.171137922176
 30
0
 11
53.65007292873392
 21
136.171137922176
 31
0
  0
LINE
  8
1
 62
3
 10
133.6500729287339
 20
169.171137922176
 30
0
 11
133.6500729287339
 21
136.171137922176
 31
0
  0
LINE
  8
1
 62
3
 10
60.65007292873392
 20
209.171137922176
 30
0
 11
126.6500729287339
 21
209.171137922176
 31
0
  0
LINE
  8
1
 62
1
 10
126.9000729287339
 20
197.9809618354144
 30
0
 11
126.9000729287339
 21
206.8613140089374
 31
0
  0
LINE
  8
1
 62
1
 10
122.4598968419724
 20
202.421137922176
 30
0
 11
131.3402490154953
 21
202.421137922176
 31
0
  0
LINE
  8
1
 62
1
 10
64.84024901549552
 20
202.421137922176
 30
0
 11
55.95989684197252
 21
202.421137922176
 31
0
  0
LINE
  8
1
 62
1
 10
60.40007292873392
 20
197.9809618354145
 30
0
 11
60.40007292873392
 21
206.8613140089375
 31
0
  0
LINE
  8
1
 62
3
 10
53.65007292873392
 20
202.171137922176
 30
0
 11
53.65007292873392
 21
169.171137922176
 31
0
  0
LINE
  8
1
 62
3
 10
133.6500729287339
 20
202.171137922176
 30
0
 11
133.6500729287339
 21
169.171137922176
 31
0
  0
LINE
  8
1
 62
1
 10
93.65007292873392
 20
122.171137922176
 30
0
 11
93.65007292873392
 21
214.1711379221759
 31
0
  0
LINE
  8
1
 62
1
 10
48.65007292873392
 20
169.171137922176
 30
0
 11
138.6500729287339
 21
169.171137922176
 31
0
  0
LINE
  8
1
 62
1
 10
199.2862807203586
 20
169.171137922176
 30
0
 11
284.6862552767251
 21
169.171137922176
 31
0
  0
LINE
  8
1
 62
3
 10
231.286255276725
 20
202.6711379221759
 30
0
 11
231.286255276725
 21
172.6711379221758
 31
0
  0
LINE
  8
1
 62
3
 10
231.286255276725
 20
205.321137922176
 30
0
 11
231.286255276725
 21
202.6711379221759
 31
0
  0
LINE
  8
1
 62
3
 10
231.6362552767249
 20
205.6711379221759
 30
0
 11
234.286255276725
 21
205.6711379221759
 31
0
  0
LINE
  8
1
 62
3
 10
231.286255276725
 20
205.321137922176
 30
0
 11
231.6362552767249
 21
205.6711379221759
 31
0
  0
LINE
  8
1
 62
3
 10
234.2862552767252
 20
209.1711379221764
 30
0
 11
234.286255276725
 21
205.6711379221759
 31
0
  0
LINE
  8
1
 62
3
 10
231.286255276725
 20
135.6711379221757
 30
0
 11
231.286255276725
 21
133.0211379221758
 31
0
  0
LINE
  8
1
 62
3
 10
234.286255276725
 20
132.6711379221758
 30
0
 11
231.6362552767249
 21
132.6711379221758
 31
0
  0
LINE
  8
1
 62
3
 10
231.286255276725
 20
133.0211379221758
 30
0
 11
231.6362552767249
 21
132.6711379221758
 31
0
  0
LINE
  8
1
 62
3
 10
234.286255276725
 20
132.6711379221758
 30
0
 11
234.286255276725
 21
129.171137922176
 31
0
  0
LINE
  8
1
 62
3
 10
234.286255276725
 20
129.171137922176
 30
0
 11
242.286255276725
 21
129.1711379221759
 31
0
  0
LINE
  8
1
 62
3
 10
231.286255276725
 20
172.6711379221758
 30
0
 11
231.286255276725
 21
135.6711379221757
 31
0
  0
LINE
  8
1
 62
3
 10
242.286255276725
 20
200.4485029251019
 30
0
 11
242.286255276725
 21
207.1711379221761
 31
0
  0
LINE
  8
1
 62
3
 10
234.2862552767252
 20
209.1711379221764
 30
0
 11
240.786255276725
 21
209.1711379221763
 31
0
  0
LINE
  8
1
 62
3
 10
107.6500729287339
 20
127.171137922176
 30
0
 11
79.65007292873392
 21
127.171137922176
 31
0
  0
LINE
  8
1
 62
3
 10
234.286255276725
 20
205.6711379221759
 30
0
 11
234.286255276725
 21
132.6711379221758
 31
0
  0
LINE
  8
1
 62
3
 10
246.2862552767258
 20
201.284219368839
 30
0
 11
246.2862552767258
 21
144.3711811124362
 31
0
  0
LINE
  8
1
 62
3
 10
249.7862629116168
 20
132.8711379221762
 30
0
 11
249.7862629116168
 21
128.1711379221757
 31
0
  0
LINE
  8
1
 62
3
 10
248.5708301663514
 20
128.1711379221757
 30
0
 11
248.5708301663514
 21
132.8711379221762
 31
0
  0
LINE
  8
1
 62
3
 10
249.7862629116168
 20
128.1711379221757
 30
0
 11
248.5708301663514
 21
128.1711379221757
 31
0
  0
LINE
  8
1
 62
3
 10
246.4662629116168
 20
129.3225179024809
 30
0
 11
246.4662629116168
 21
132.8711379221762
 31
0
  0
LINE
  8
1
 62
3
 10
248.5708301663514
 20
133.1711379221757
 30
0
 11
247.1062629116166
 21
133.1711379221757
 31
0
  0
LINE
  8
1
 62
3
 10
246.8062629116167
 20
129.0225179024807
 30
0
 11
246.7662629116167
 21
129.0225179024807
 31
0
  0
LINE
  8
1
 62
3
 10
247.1062629116166
 20
129.3225179024807
 30
0
 11
247.1062629116166
 21
132.8711379221762
 31
0
  0
LINE
  8
1
 62
3
 10
246.4662629116168
 20
132.8711379221762
 30
0
 11
246.4662629116168
 21
133.1711379221757
 31
0
  0
LINE
  8
1
 62
3
 10
247.1062629116166
 20
132.8711379221762
 30
0
 11
247.1062629116166
 21
133.1711379221757
 31
0
  0
LINE
  8
1
 62
3
 10
248.5708301663514
 20
132.8711379221762
 30
0
 11
248.5708301663514
 21
133.1711379221757
 31
0
  0
LINE
  8
1
 62
3
 10
246.4662629116168
 20
133.1711379221757
 30
0
 11
247.1062629116166
 21
133.1711379221757
 31
0
  0
LINE
  8
1
 62
3
 10
246.4662629116168
 20
133.1711379221757
 30
0
 11
245.4112629116164
 21
133.1711379221757
 31
0
  0
LINE
  8
1
 62
3
 10
249.7862629116168
 20
137.8711379221758
 30
0
 11
249.7862629116168
 21
132.8711379221762
 31
0
  0
LINE
  8
1
 62
3
 10
243.886255276725
 20
137.8711379221758
 30
0
 11
249.7862629116168
 21
137.8711379221758
 31
0
  0
LINE
  8
1
 62
3
 10
246.2862552767258
 20
201.284219368839
 30
0
 11
242.286255276725
 21
201.2842193688389
 31
0
  0
LINE
  8
1
 62
3
 10
244.6986883736755
 20
135.2718602113307
 30
0
 11
243.886255276725
 21
135.2718602113308
 31
0
  0
LINE
  8
1
 62
3
 10
243.886255276725
 20
131.0718602113306
 30
0
 11
244.6986883736753
 21
131.0718602113307
 31
0
  0
LINE
  8
1
 62
3
 10
245.5862629116163
 20
133.5343602113305
 30
0
 11
245.4112629116164
 21
133.5343602113305
 31
0
  0
LINE
  8
1
 62
3
 10
245.4112629116164
 20
133.5343602113305
 30
0
 11
245.4112629116164
 21
132.8093602113306
 31
0
  0
LINE
  8
1
 62
3
 10
245.4112629116164
 20
132.8093602113306
 30
0
 11
245.5862629116163
 21
132.8093602113306
 31
0
  0
LINE
  8
1
 62
3
 10
117.4785000534801
 20
129.171137922176
 30
0
 11
116.6500729287339
 21
129.171137922176
 31
0
  0
LINE
  8
1
 62
3
 10
70.65007292873392
 20
129.171137922176
 30
0
 11
68.99321867924152
 21
129.171137922176
 31
0
  0
LINE
  8
1
 62
3
 10
93.65007292873392
 20
129.171137922176
 30
0
 11
70.65007292873392
 21
129.171137922176
 31
0
  0
LINE
  8
1
 62
3
 10
116.6500729287339
 20
129.171137922176
 30
0
 11
93.65007292873392
 21
129.171137922176
 31
0
  0
LINE
  8
1
 62
3
 10
107.6500729287339
 20
129.171137922176
 30
0
 11
107.6500729287339
 21
127.171137922176
 31
0
  0
LINE
  8
1
 62
3
 10
79.65007292873392
 20
129.171137922176
 30
0
 11
79.65007292873392
 21
127.171137922176
 31
0
  0
LINE
  8
1
 62
3
 10
279.2862552767253
 20
196.771137922176
 30
0
 11
279.2862552767253
 21
175.171137922176
 31
0
  0
LINE
  8
1
 62
3
 10
279.2862552767253
 20
197.971137922176
 30
0
 11
279.2862552767253
 21
196.771137922176
 31
0
  0
LINE
  8
1
 62
3
 10
279.2862552767253
 20
169.171137922176
 30
0
 11
279.2862552767253
 21
175.171137922176
 31
0
  0
LINE
  8
1
 62
3
 10
279.2862552767253
 20
163.171137922176
 30
0
 11
279.2862552767253
 21
141.571137922176
 31
0
  0
LINE
  8
1
 62
3
 10
277.0862552767251
 20
138.171137922176
 30
0
 11
248.8865552767254
 21
138.1711379221762
 31
0
  0
LINE
  8
1
 62
3
 10
279.2862552767253
 20
141.571137922176
 30
0
 11
279.2862552767253
 21
140.371137922176
 31
0
  0
LINE
  8
1
 62
3
 10
279.2862552767253
 20
163.171137922176
 30
0
 11
279.2862552767253
 21
169.171137922176
 31
0
  0
LINE
  8
1
 62
3
 10
279.686255276725
 20
164.8711379221762
 30
0
 11
279.686255276725
 21
163.471137922176
 31
0
  0
LINE
  8
1
 62
3
 10
279.3862552767251
 20
175.1711379221763
 30
0
 11
279.2862552767253
 21
175.171137922176
 31
0
  0
LINE
  8
1
 62
3
 10
279.686255276725
 20
174.8711379221762
 30
0
 11
279.686255276725
 21
173.471137922176
 31
0
  0
LINE
  8
1
 62
3
 10
279.686255276725
 20
164.8711379221762
 30
0
 11
279.686255276725
 21
173.471137922176
 31
0
  0
LINE
  8
1
 62
3
 10
279.3862552767251
 20
175.1711379221763
 30
0
 11
279.686255276725
 21
174.8711379221762
 31
0
  0
LINE
  8
1
 62
3
 10
279.686255276725
 20
163.471137922176
 30
0
 11
279.3862552767251
 21
163.171137922176
 31
0
  0
LINE
  8
1
 62
3
 10
279.6862552767252
 20
172.9711379221761
 30
0
 11
279.686255276725
 21
165.3711379221761
 31
0
  0
LINE
  8
1
 62
3
 10
279.2862552767253
 20
163.171137922176
 30
0
 11
279.3862552767251
 21
163.171137922176
 31
0
  0
LINE
  8
1
 62
3
 10
246.2862552767258
 20
156.1711379221759
 30
0
 11
246.6862807203592
 21
156.1711379221759
 31
0
  0
LINE
  8
1
 62
3
 10
246.6862807203592
 20
139.7711379221761
 30
0
 11
247.1862807203592
 21
139.7711379221761
 31
0
  0
LINE
  8
1
 62
3
 10
246.6862807203592
 20
182.1711379221763
 30
0
 11
246.2862552767258
 21
182.1711379221763
 31
0
  0
LINE
  8
1
 62
3
 10
246.6862807203592
 20
198.571137922176
 30
0
 11
246.6862807203592
 21
139.7682214329614
 31
0
  0
LINE
  8
1
 62
3
 10
246.6862807203592
 20
139.7682214329614
 30
0
 11
246.6862807203592
 21
143.1211379221763
 31
0
  0
LINE
  8
1
 62
3
 10
246.6862807203592
 20
157.1711379221765
 30
0
 11
246.6862807203592
 21
143.1211379221763
 31
0
  0
LINE
  8
1
 62
3
 10
248.8865552767254
 20
200.1711379221763
 30
0
 11
277.0862552767251
 21
200.171137922176
 31
0
  0
LINE
  8
1
 62
3
 10
246.6862807203592
 20
198.571137922176
 30
0
 11
247.1865552767253
 21
198.571137922176
 31
0
  0
LINE
  8
1
 62
3
 10
247.1865552767253
 20
198.571137922176
 30
0
 11
247.1865552767253
 21
200.6711379221762
 31
0
  0
LINE
  8
1
 62
3
 10
247.1865552767253
 20
200.6711379221762
 30
0
 11
248.3868298330915
 21
200.6711379221762
 31
0
  0
LINE
  8
1
 62
2
 10
309.4591025614043
 20
289.3088415013568
 30
0
 11
311.3591025614045
 21
289.3088415013568
 31
0
  0
LINE
  8
1
 62
2
 10
311.3591025614045
 20
289.3088415013568
 30
0
 11
311.3591025614045
 21
287.408841501357
 31
0
  0
LINE
  8
1
 62
2
 10
309.4591025614043
 20
287.408841501357
 30
0
 11
309.4591025614043
 21
289.3088415013568
 31
0
  0
LINE
  8
1
 62
2
 10
311.3591025614045
 20
287.408841501357
 30
0
 11
309.4591025614043
 21
287.408841501357
 31
0
  0
LINE
  8
1
 62
3
 10
308.6591025614042
 20
290.108841501357
 30
0
 11
308.6591025614042
 21
286.608841501357
 31
0
  0
LINE
  8
1
 62
3
 10
308.6591025614042
 20
286.608841501357
 30
0
 11
312.1591025614042
 21
286.6088415013566
 31
0
  0
LINE
  8
1
 62
3
 10
312.1591025614042
 20
290.1088415013566
 30
0
 11
312.1591025614042
 21
286.6088415013566
 31
0
  0
LINE
  8
1
 62
3
 10
308.6591025614042
 20
290.108841501357
 30
0
 11
312.1591025614042
 21
290.1088415013566
 31
0
  0
LINE
  8
1
 62
2
 10
309.4591025614043
 20
293.5088415013569
 30
0
 11
311.3591025614045
 21
293.5088415013569
 31
0
  0
LINE
  8
1
 62
2
 10
309.4591025614043
 20
291.608841501357
 30
0
 11
309.4591025614043
 21
293.5088415013569
 31
0
  0
LINE
  8
1
 62
2
 10
311.3591025614045
 20
291.608841501357
 30
0
 11
309.4591025614043
 21
291.608841501357
 31
0
  0
LINE
  8
1
 62
2
 10
311.3591025614045
 20
293.5088415013569
 30
0
 11
311.3591025614045
 21
291.608841501357
 31
0
  0
LINE
  8
1
 62
3
 10
312.1591025614042
 20
294.3088415013568
 30
0
 11
312.1591025614042
 21
290.8088415013568
 31
0
  0
LINE
  8
1
 62
3
 10
308.6591025614042
 20
294.3088415013571
 30
0
 11
308.6591025614042
 21
290.8088415013568
 31
0
  0
LINE
  8
1
 62
3
 10
308.6591025614042
 20
290.8088415013568
 30
0
 11
312.1591025614042
 21
290.8088415013568
 31
0
  0
LINE
  8
1
 62
3
 10
308.6591025614042
 20
294.3088415013571
 30
0
 11
312.1591025614042
 21
294.3088415013568
 31
0
  0
LINE
  8
1
 62
2
 10
313.6591025614042
 20
283.2088415013571
 30
0
 11
313.6591025614042
 21
285.1088415013568
 31
0
  0
LINE
  8
1
 62
2
 10
313.6591025614042
 20
285.1088415013568
 30
0
 11
315.5591025614041
 21
285.1088415013568
 31
0
  0
LINE
  8
1
 62
2
 10
315.5591025614041
 20
285.1088415013568
 30
0
 11
315.5591025614041
 21
283.2088415013571
 31
0
  0
LINE
  8
1
 62
2
 10
315.5591025614041
 20
283.2088415013571
 30
0
 11
313.6591025614042
 21
283.2088415013571
 31
0
  0
LINE
  8
1
 62
3
 10
316.3591025614044
 20
285.908841501357
 30
0
 11
316.3591025614044
 21
282.408841501357
 31
0
  0
LINE
  8
1
 62
3
 10
312.8591025614045
 20
285.908841501357
 30
0
 11
312.8591025614045
 21
282.408841501357
 31
0
  0
LINE
  8
1
 62
3
 10
312.8591025614045
 20
282.408841501357
 30
0
 11
316.3591025614044
 21
282.408841501357
 31
0
  0
LINE
  8
1
 62
3
 10
312.8591025614045
 20
285.908841501357
 30
0
 11
316.3591025614044
 21
285.908841501357
 31
0
  0
LINE
  8
1
 62
2
 10
313.6591025614042
 20
295.8088415013573
 30
0
 11
313.6591025614042
 21
297.7088415013574
 31
0
  0
LINE
  8
1
 62
2
 10
313.6591025614042
 20
297.7088415013574
 30
0
 11
315.5591025614042
 21
297.7088415013574
 31
0
  0
LINE
  8
1
 62
2
 10
315.5591025614042
 20
297.7088415013574
 30
0
 11
315.5591025614042
 21
295.8088415013573
 31
0
  0
LINE
  8
1
 62
2
 10
315.5591025614042
 20
295.8088415013573
 30
0
 11
313.6591025614042
 21
295.8088415013573
 31
0
  0
LINE
  8
1
 62
3
 10
316.3591025614045
 20
298.5088415013573
 30
0
 11
316.3591025614045
 21
295.0088415013573
 31
0
  0
LINE
  8
1
 62
3
 10
312.8591025614045
 20
298.5088415013573
 30
0
 11
312.8591025614045
 21
295.0088415013573
 31
0
  0
LINE
  8
1
 62
3
 10
312.8591025614045
 20
295.0088415013573
 30
0
 11
316.3591025614045
 21
295.0088415013573
 31
0
  0
LINE
  8
1
 62
3
 10
312.8591025614045
 20
298.5088415013573
 30
0
 11
316.3591025614045
 21
298.5088415013573
 31
0
  0
LINE
  8
1
 62
3
 10
318.5091025614041
 20
298.9588415013566
 30
0
 11
318.509102561404
 21
281.9588415013574
 31
0
  0
LINE
  8
1
 62
3
 10
317.509102561404
 20
281.4588415013574
 30
0
 11
318.009102561404
 21
281.4588415013574
 31
0
  0
LINE
  8
1
 62
3
 10
317.5091025614041
 20
299.4588415013566
 30
0
 11
318.0091025614041
 21
299.4588415013566
 31
0
  0
LINE
  8
1
 62
3
 10
307.9091025614042
 20
287.7588415013569
 30
0
 11
307.9091025614042
 21
286.4588415013566
 31
0
  0
LINE
  8
1
 62
3
 10
307.4091025614042
 20
286.4588415013566
 30
0
 11
307.9091025614042
 21
286.4588415013566
 31
0
  0
LINE
  8
1
 62
3
 10
307.4091025614042
 20
281.4588415013574
 30
0
 11
307.9091025614042
 21
281.4588415013574
 31
0
  0
LINE
  8
1
 62
3
 10
306.9091025614042
 20
281.9588415013574
 30
0
 11
306.9091025614042
 21
285.9588415013566
 31
0
  0
LINE
  8
1
 62
3
 10
306.9091025614042
 20
298.9588415013566
 30
0
 11
306.9091025614042
 21
294.9588415013566
 31
0
  0
LINE
  8
1
 62
3
 10
307.9091025614042
 20
299.4588415013566
 30
0
 11
307.9091025614042
 21
294.4588415013566
 31
0
  0
LINE
  8
1
 62
3
 10
307.4091025614042
 20
294.4588415013566
 30
0
 11
307.9091025614042
 21
294.4588415013566
 31
0
  0
LINE
  8
1
 62
3
 10
307.4091025614042
 20
299.4588415013566
 30
0
 11
307.9091025614042
 21
299.4588415013566
 31
0
  0
LINE
  8
1
 62
2
 10
309.4591025614043
 20
297.7088415013571
 30
0
 11
311.3591025614045
 21
297.7088415013571
 31
0
  0
LINE
  8
1
 62
2
 10
309.4591025614043
 20
295.8088415013571
 30
0
 11
309.4591025614043
 21
297.7088415013571
 31
0
  0
LINE
  8
1
 62
2
 10
311.3591025614045
 20
295.8088415013571
 30
0
 11
309.4591025614043
 21
295.8088415013571
 31
0
  0
LINE
  8
1
 62
2
 10
311.3591025614045
 20
297.7088415013571
 30
0
 11
311.3591025614045
 21
295.8088415013571
 31
0
  0
LINE
  8
1
 62
2
 10
313.6591025614042
 20
291.6088415013575
 30
0
 11
313.6591025614042
 21
293.5088415013569
 31
0
  0
LINE
  8
1
 62
2
 10
313.6591025614042
 20
293.5088415013569
 30
0
 11
315.5591025614042
 21
293.5088415013569
 31
0
  0
LINE
  8
1
 62
2
 10
315.5591025614042
 20
293.5088415013569
 30
0
 11
315.5591025614041
 21
291.6088415013575
 31
0
  0
LINE
  8
1
 62
2
 10
315.5591025614041
 20
291.6088415013575
 30
0
 11
313.6591025614042
 21
291.6088415013575
 31
0
  0
LINE
  8
1
 62
2
 10
313.6591025614042
 20
287.4088415013571
 30
0
 11
313.6591025614042
 21
289.3088415013571
 31
0
  0
LINE
  8
1
 62
2
 10
313.6591025614042
 20
289.3088415013571
 30
0
 11
315.5591025614041
 21
289.3088415013571
 31
0
  0
LINE
  8
1
 62
2
 10
315.5591025614041
 20
289.3088415013571
 30
0
 11
315.5591025614041
 21
287.4088415013571
 31
0
  0
LINE
  8
1
 62
2
 10
315.5591025614041
 20
287.4088415013571
 30
0
 11
313.6591025614042
 21
287.4088415013571
 31
0
  0
LINE
  8
1
 62
2
 10
311.3591025614045
 20
283.2088415013571
 30
0
 11
309.4591025614043
 21
283.2088415013571
 31
0
  0
LINE
  8
1
 62
2
 10
309.4591025614043
 20
283.2088415013571
 30
0
 11
309.4591025614043
 21
285.108841501357
 31
0
  0
LINE
  8
1
 62
2
 10
309.4591025614043
 20
285.108841501357
 30
0
 11
311.3591025614045
 21
285.108841501357
 31
0
  0
LINE
  8
1
 62
2
 10
311.3591025614045
 20
285.108841501357
 30
0
 11
311.3591025614045
 21
283.2088415013571
 31
0
  0
LINE
  8
1
 62
3
 10
304.4091025614042
 20
291.9588415013574
 30
0
 11
306.6546500427794
 21
291.9588415013566
 31
0
  0
LINE
  8
1
 62
3
 10
304.4091025614042
 20
288.9588415013566
 30
0
 11
306.6546500427794
 21
288.9588415013566
 31
0
  0
LINE
  8
1
 62
2
 10
306.6546500427794
 20
291.9588415013566
 30
0
 11
306.6546500427794
 21
288.9588415013566
 31
0
  0
LINE
  8
1
 62
3
 10
304.4091025614042
 20
293.158841501357
 30
0
 11
304.549736618142
 21
293.158841501357
 31
0
  0
LINE
  8
1
 62
3
 10
304.4091025614042
 20
287.7588415013569
 30
0
 11
304.549736618142
 21
287.7588415013569
 31
0
  0
LINE
  8
1
 62
2
 10
304.549736618142
 20
293.158841501357
 30
0
 11
304.549736618142
 21
287.7588415013569
 31
0
  0
LINE
  8
1
 62
3
 10
304.549736618142
 20
293.158841501357
 30
0
 11
305.4091025614042
 21
293.158841501357
 31
0
  0
LINE
  8
1
 62
3
 10
304.549736618142
 20
287.7588415013569
 30
0
 11
305.4091025614042
 21
287.7588415013569
 31
0
  0
LINE
  8
1
 62
3
 10
305.4091025614042
 20
293.158841501357
 30
0
 11
305.4091025614042
 21
287.7588415013569
 31
0
  0
LINE
  8
1
 62
3
 10
304.4091025614042
 20
293.158841501357
 30
0
 11
304.4091025614042
 21
287.7588415013569
 31
0
  0
LINE
  8
1
 62
3
 10
307.9091025614042
 20
288.9588415013566
 30
0
 11
307.9091025614042
 21
287.7588415013569
 31
0
  0
LINE
  8
1
 62
3
 10
305.4091025614042
 20
287.7588415013569
 30
0
 11
307.9091025614042
 21
287.7588415013569
 31
0
  0
LINE
  8
1
 62
3
 10
307.9091025614042
 20
291.9588415013566
 30
0
 11
307.9091025614042
 21
288.9588415013566
 31
0
  0
LINE
  8
1
 62
3
 10
306.6546500427794
 20
288.9588415013566
 30
0
 11
307.9091025614042
 21
288.9588415013566
 31
0
  0
LINE
  8
1
 62
3
 10
307.9091025614042
 20
293.158841501357
 30
0
 11
307.9091025614042
 21
291.9588415013566
 31
0
  0
LINE
  8
1
 62
3
 10
306.6546500427794
 20
291.9588415013566
 30
0
 11
307.9091025614042
 21
291.9588415013566
 31
0
  0
LINE
  8
1
 62
3
 10
307.9091025614042
 20
294.4588415013566
 30
0
 11
307.9091025614042
 21
293.158841501357
 31
0
  0
LINE
  8
1
 62
3
 10
305.4091025614042
 20
293.158841501357
 30
0
 11
307.9091025614042
 21
293.158841501357
 31
0
  0
LINE
  8
1
 62
3
 10
316.3591025614045
 20
294.3088415013571
 30
0
 11
316.3591025614044
 21
290.8088415013571
 31
0
  0
LINE
  8
1
 62
3
 10
312.8591025614045
 20
294.3088415013571
 30
0
 11
312.8591025614045
 21
290.8088415013571
 31
0
  0
LINE
  8
1
 62
3
 10
312.8591025614045
 20
290.8088415013571
 30
0
 11
316.3591025614044
 21
290.8088415013571
 31
0
  0
LINE
  8
1
 62
3
 10
312.8591025614045
 20
294.3088415013571
 30
0
 11
316.3591025614045
 21
294.3088415013571
 31
0
  0
LINE
  8
1
 62
3
 10
316.3591025614044
 20
290.108841501357
 30
0
 11
316.3591025614044
 21
286.608841501357
 31
0
  0
LINE
  8
1
 62
3
 10
312.8591025614045
 20
290.108841501357
 30
0
 11
312.8591025614045
 21
286.608841501357
 31
0
  0
LINE
  8
1
 62
3
 10
312.8591025614045
 20
286.608841501357
 30
0
 11
316.3591025614044
 21
286.608841501357
 31
0
  0
LINE
  8
1
 62
3
 10
312.8591025614045
 20
290.108841501357
 30
0
 11
316.3591025614044
 21
290.108841501357
 31
0
  0
LINE
  8
1
 62
3
 10
312.1591025614042
 20
298.5088415013569
 30
0
 11
312.1591025614042
 21
295.0088415013569
 31
0
  0
LINE
  8
1
 62
3
 10
308.6591025614042
 20
298.5088415013569
 30
0
 11
308.6591025614042
 21
295.0088415013569
 31
0
  0
LINE
  8
1
 62
3
 10
308.6591025614042
 20
295.0088415013569
 30
0
 11
312.1591025614042
 21
295.0088415013569
 31
0
  0
LINE
  8
1
 62
3
 10
308.6591025614042
 20
298.5088415013569
 30
0
 11
312.1591025614042
 21
298.5088415013569
 31
0
  0
LINE
  8
1
 62
3
 10
312.1591025614042
 20
285.9088415013571
 30
0
 11
312.1591025614042
 21
282.4088415013571
 31
0
  0
LINE
  8
1
 62
3
 10
308.6591025614042
 20
285.9088415013571
 30
0
 11
308.6591025614042
 21
282.4088415013571
 31
0
  0
LINE
  8
1
 62
3
 10
308.6591025614042
 20
282.4088415013571
 30
0
 11
312.1591025614042
 21
282.4088415013571
 31
0
  0
LINE
  8
1
 62
3
 10
308.6591025614042
 20
285.9088415013571
 30
0
 11
312.1591025614042
 21
285.9088415013571
 31
0
  0
LINE
  8
1
 62
3
 10
317.5091025614041
 20
299.4588415013566
 30
0
 11
317.509102561404
 21
281.4588415013574
 31
0
  0
LINE
  8
1
 62
3
 10
307.9091025614042
 20
286.4588415013566
 30
0
 11
307.9091025614042
 21
281.4588415013574
 31
0
  0
LINE
  8
1
 62
3
 10
307.9091025614042
 20
281.4588415013574
 30
0
 11
317.509102561404
 21
281.4588415013574
 31
0
  0
LINE
  8
1
 62
3
 10
307.9091025614042
 20
299.4588415013566
 30
0
 11
317.5091025614041
 21
299.4588415013566
 31
0
  0
LINE
  8
1
 62
3
 10
280.6459329590269
 20
298.4588415013571
 30
0
 11
272.0459329590268
 21
298.4588415013569
 31
0
  0
LINE
  8
1
 62
3
 10
280.6459329590269
 20
294.2588415013571
 30
0
 11
272.0459329590268
 21
294.2588415013571
 31
0
  0
LINE
  8
1
 62
3
 10
280.6459329590269
 20
285.8588415013568
 30
0
 11
272.0459329590268
 21
285.8588415013568
 31
0
  0
LINE
  8
1
 62
3
 10
272.0459329590268
 20
295.0588415013571
 30
0
 11
280.6459329590269
 21
295.0588415013571
 31
0
  0
LINE
  8
1
 62
3
 10
277.324698022273
 20
290.8588415013568
 30
0
 11
280.6459329590269
 21
290.8588415013568
 31
0
  0
LINE
  8
1
 62
3
 10
272.0459329590268
 20
286.6588415013571
 30
0
 11
280.6459329590269
 21
286.6588415013571
 31
0
  0
LINE
  8
1
 62
3
 10
272.0459329590268
 20
282.4588415013569
 30
0
 11
280.6459329590269
 21
282.4588415013569
 31
0
  0
LINE
  8
1
 62
3
 10
262.181349706724
 20
299.4588415013569
 30
0
 11
272.0459329590268
 21
299.4588415013566
 31
0
  0
LINE
  8
1
 62
3
 10
262.181349706724
 20
294.4588415013571
 30
0
 11
262.181349706724
 21
299.4588415013569
 31
0
  0
LINE
  8
1
 62
3
 10
261.0459329590268
 20
294.4588415013569
 30
0
 11
262.181349706724
 21
294.4588415013571
 31
0
  0
LINE
  8
1
 62
3
 10
262.181349706724
 20
286.4588415013569
 30
0
 11
261.0459329590268
 21
286.4588415013569
 31
0
  0
LINE
  8
1
 62
3
 10
262.181349706724
 20
286.4588415013569
 30
0
 11
262.181349706724
 21
281.4588415013566
 31
0
  0
LINE
  8
1
 62
3
 10
261.0459329590268
 20
282.6810429434742
 30
0
 11
261.0459329590268
 21
281.4588415013566
 31
0
  0
LINE
  8
1
 62
3
 10
262.181349706724
 20
281.4588415013566
 30
0
 11
261.0459329590268
 21
281.4588415013566
 31
0
  0
LINE
  8
1
 62
3
 10
261.0459329590268
 20
299.4588415013566
 30
0
 11
262.181349706724
 21
299.4588415013569
 31
0
  0
LINE
  8
1
 62
3
 10
272.0459329590268
 20
281.4588415013571
 30
0
 11
262.181349706724
 21
281.4588415013566
 31
0
  0
LINE
  8
1
 62
3
 10
265.9979659488539
 20
293.158841501357
 30
0
 11
270.7379570882738
 21
293.158841501357
 31
0
  0
LINE
  8
1
 62
3
 10
265.9979659488538
 20
291.9588415013566
 30
0
 11
270.7379570882738
 21
291.9588415013571
 31
0
  0
LINE
  8
1
 62
3
 10
265.9979659488538
 20
291.9588415013566
 30
0
 11
265.9979659488539
 21
293.158841501357
 31
0
  0
LINE
  8
1
 62
3
 10
265.9979659488538
 20
288.9588415013566
 30
0
 11
264.889916072107
 21
288.9588415013566
 31
0
  0
LINE
  8
1
 62
3
 10
265.9979659488538
 20
287.7588415013569
 30
0
 11
264.889916072107
 21
287.7588415013569
 31
0
  0
LINE
  8
1
 62
3
 10
265.9979659488538
 20
287.7588415013569
 30
0
 11
265.9979659488538
 21
288.9588415013566
 31
0
  0
LINE
  8
1
 62
3
 10
264.8899160721071
 20
293.158841501357
 30
0
 11
265.9979659488539
 21
293.158841501357
 31
0
  0
LINE
  8
1
 62
3
 10
264.889916072107
 20
291.9588415013566
 30
0
 11
264.8899160721071
 21
293.158841501357
 31
0
  0
LINE
  8
1
 62
3
 10
264.889916072107
 20
287.7588415013569
 30
0
 11
263.5459329590268
 21
287.7588415013569
 31
0
  0
LINE
  8
1
 62
3
 10
264.889916072107
 20
287.7588415013569
 30
0
 11
264.889916072107
 21
288.9588415013566
 31
0
  0
LINE
  8
1
 62
3
 10
272.0459329590268
 20
291.9588415013566
 30
0
 11
270.7379570882738
 21
291.9588415013571
 31
0
  0
LINE
  8
1
 62
3
 10
270.7379570882738
 20
291.9588415013571
 30
0
 11
270.7379570882738
 21
293.158841501357
 31
0
  0
LINE
  8
1
 62
3
 10
270.7379570882738
 20
288.9588415013566
 30
0
 11
265.9979659488538
 21
288.9588415013566
 31
0
  0
LINE
  8
1
 62
3
 10
270.7379570882738
 20
287.7588415013571
 30
0
 11
265.9979659488538
 21
287.7588415013569
 31
0
  0
LINE
  8
1
 62
3
 10
270.7379570882738
 20
287.7588415013571
 30
0
 11
270.7379570882738
 21
288.9588415013566
 31
0
  0
LINE
  8
1
 62
3
 10
277.3246980222729
 20
291.9588415013569
 30
0
 11
277.3246980222729
 21
288.9588415013569
 31
0
  0
LINE
  8
1
 62
3
 10
264.889916072107
 20
291.9588415013566
 30
0
 11
265.9979659488538
 21
291.9588415013566
 31
0
  0
LINE
  8
1
 62
3
 10
264.889916072107
 20
288.9588415013566
 30
0
 11
264.889916072107
 21
291.9588415013566
 31
0
  0
LINE
  8
1
 62
3
 10
272.0459329590268
 20
288.9588415013566
 30
0
 11
277.3246980222729
 21
288.9588415013569
 31
0
  0
LINE
  8
1
 62
3
 10
263.5459329590268
 20
293.1588415013567
 30
0
 11
264.8899160721071
 21
293.158841501357
 31
0
  0
LINE
  8
1
 62
3
 10
263.5459329590268
 20
287.7588415013569
 30
0
 11
263.5459329590268
 21
293.1588415013567
 31
0
  0
LINE
  8
1
 62
3
 10
280.6459329590269
 20
285.8588415013568
 30
0
 11
280.6459329590269
 21
282.4588415013569
 31
0
  0
LINE
  8
1
 62
3
 10
280.6459329590269
 20
290.0588415013568
 30
0
 11
280.6459329590269
 21
286.6588415013571
 31
0
  0
LINE
  8
1
 62
3
 10
280.6459329590269
 20
294.2588415013571
 30
0
 11
280.6459329590269
 21
290.8588415013568
 31
0
  0
LINE
  8
1
 62
3
 10
280.6459329590269
 20
298.4588415013571
 30
0
 11
280.6459329590269
 21
295.0588415013571
 31
0
  0
LINE
  8
1
 62
3
 10
272.0459329590268
 20
288.9588415013566
 30
0
 11
272.0459329590268
 21
281.4588415013571
 31
0
  0
LINE
  8
1
 62
3
 10
270.7379570882738
 20
288.9588415013566
 30
0
 11
272.0459329590268
 21
288.9588415013566
 31
0
  0
LINE
  8
1
 62
3
 10
272.0459329590268
 20
291.9588415013566
 30
0
 11
272.0459329590268
 21
299.4588415013566
 31
0
  0
LINE
  8
1
 62
3
 10
277.3246980222729
 20
291.9588415013569
 30
0
 11
272.0459329590268
 21
291.9588415013566
 31
0
  0
LINE
  8
1
 62
3
 10
280.6459329590269
 20
290.0588415013568
 30
0
 11
277.324698022273
 21
290.0588415013571
 31
0
  0
LINE
  8
1
 62
3
 10
261.0459329590268
 20
286.4588415013569
 30
0
 11
261.0459329590268
 21
281.4588415013566
 31
0
  0
LINE
  8
1
 62
3
 10
252.0006811297791
 20
290.6908256895405
 30
0
 11
261.0459329590268
 21
296.3036175976566
 31
0
  0
LINE
  8
1
 62
3
 10
261.0459329590268
 20
297.4230384121719
 30
0
 11
248.7138176666029
 21
289.814065405057
 31
0
  0
LINE
  8
1
 62
3
 10
248.7138176666029
 20
289.814065405057
 30
0
 11
261.0459329590268
 21
293.1036175976565
 31
0
  0
LINE
  8
1
 62
3
 10
248.7138176666029
 20
286.7841967831415
 30
0
 11
261.0459329590268
 21
283.494644590542
 31
0
  0
LINE
  8
1
 62
3
 10
248.7138176666029
 20
288.8140654050558
 30
0
 11
261.0459329590267
 21
292.1036175976552
 31
0
  0
LINE
  8
1
 62
3
 10
261.0459329590267
 20
284.614065405057
 30
0
 11
248.7138176666029
 21
287.9036175976568
 31
0
  0
LINE
  8
1
 62
3
 10
261.0459329590268
 20
294.4588415013569
 30
0
 11
261.0459329590268
 21
299.4588415013566
 31
0
  0
LINE
  8
1
 62
3
 10
261.0459329590268
 20
286.4588415013569
 30
0
 11
261.0459329590268
 21
294.4588415013569
 31
0
  0
LINE
  8
1
 62
3
 10
261.0459329590268
 20
282.6810429434742
 30
0
 11
261.0459329590268
 21
281.4588415013566
 31
0
  0
LINE
  8
1
 62
3
 10
261.0459329590268
 20
286.4588415013569
 30
0
 11
261.0459329590268
 21
281.4588415013566
 31
0
  0
LINE
  8
1
 62
1
 10
237.112994990323
 20
284.5130091651705
 30
0
 11
237.112994990323
 21
290.9086309580174
 31
0
  0
LINE
  8
1
 62
3
 10
237.612994990323
 20
289.7540179196591
 30
0
 11
237.612994990323
 21
286.7540179196591
 31
0
  0
LINE
  8
1
 62
3
 10
236.612994990323
 20
289.7540179196591
 30
0
 11
236.612994990323
 21
286.7540179196591
 31
0
  0
LINE
  8
1
 62
3
 10
238.612994990323
 20
285.2540179196591
 30
0
 11
238.612994990323
 21
286.7540179196591
 31
0
  0
LINE
  8
1
 62
3
 10
235.6129949903231
 20
285.2540179196591
 30
0
 11
238.612994990323
 21
285.2540179196591
 31
0
  0
LINE
  8
1
 62
3
 10
235.6129949903231
 20
286.7540179196591
 30
0
 11
235.6129949903231
 21
285.2540179196591
 31
0
  0
LINE
  8
1
 62
3
 10
235.3045507711939
 20
289.814065405057
 30
0
 11
248.7138176666029
 21
289.814065405057
 31
0
  0
LINE
  8
1
 62
3
 10
234.5746627443495
 20
286.7841967831415
 30
0
 11
248.7138176666029
 21
286.7841967831415
 31
0
  0
LINE
  8
1
 62
3
 10
261.0459329590268
 20
287.9036175976568
 30
0
 11
235.1210626587497
 21
287.9036175976568
 31
0
  0
LINE
  8
1
 62
3
 10
193.2087987465177
 20
299.754017919659
 30
0
 11
193.2087987465177
 21
291.3416740229237
 31
0
  0
LINE
  8
1
 62
3
 10
193.2087987465177
 20
302.254017919659
 30
0
 11
193.2087987465177
 21
291.3416740229237
 31
0
  0
LINE
  8
1
 62
3
 10
193.2087987465177
 20
291.3416740229237
 30
0
 11
193.2087987465177
 21
290.226544445342
 31
0
  0
LINE
  8
1
 62
3
 10
193.2087987465177
 20
291.3416740229237
 30
0
 11
193.2087987465177
 21
290.226544445342
 31
0
  0
LINE
  8
1
 62
3
 10
193.2087987465177
 20
290.226544445342
 30
0
 11
193.2087987465177
 21
276.7540179196591
 31
0
  0
LINE
  8
1
 62
3
 10
193.2087987465177
 20
290.226544445342
 30
0
 11
193.2087987465177
 21
279.2540179196591
 31
0
  0
LINE
  8
1
 62
3
 10
193.2087987465177
 20
280.2540179196591
 30
0
 11
193.2087987465177
 21
281.2540179196591
 31
0
  0
LINE
  8
1
 62
3
 10
193.2087987465177
 20
275.2540179196591
 30
0
 11
193.2087987465177
 21
276.2540179196591
 31
0
  0
LINE
  8
1
 62
3
 10
193.2087987465177
 20
274.2540179196591
 30
0
 11
193.2087987465177
 21
282.304017919659
 31
0
  0
LINE
  8
1
 62
3
 10
193.2087987465177
 20
299.754017919659
 30
0
 11
193.2087987465177
 21
276.7540179196591
 31
0
  0
LINE
  8
1
 62
3
 10
193.2087987465177
 20
302.254017919659
 30
0
 11
193.2087987465177
 21
279.2540179196591
 31
0
  0
LINE
  8
1
 62
3
 10
193.2087987465177
 20
275.2540179196591
 30
0
 11
193.2087987465177
 21
276.2540179196591
 31
0
  0
LINE
  8
1
 62
3
 10
193.2087987465177
 20
274.2540179196591
 30
0
 11
193.2087987465177
 21
282.304017919659
 31
0
  0
LINE
  8
1
 62
3
 10
213.2087987465177
 20
288.754017919659
 30
0
 11
233.172795861465
 21
288.7945169142785
 31
0
  0
LINE
  8
1
 62
3
 10
213.2087987465177
 20
287.754017919659
 30
0
 11
233.6186235604431
 21
287.7540179196591
 31
0
  0
LINE
  8
1
 62
3
 10
190.0534634175565
 20
280.304017919659
 30
0
 11
190.6141816460566
 21
280.304017919659
 31
0
  0
LINE
  8
1
 62
3
 10
190.0534634175565
 20
282.304017919659
 30
0
 11
185.3087987465175
 21
282.304017919659
 31
0
  0
LINE
  8
1
 62
3
 10
190.0534634175565
 20
282.304017919659
 30
0
 11
190.0534634175565
 21
280.304017919659
 31
0
  0
LINE
  8
1
 62
3
 10
190.0534634175565
 20
294.2040179196588
 30
0
 11
190.6141816460566
 21
294.2040179196588
 31
0
  0
LINE
  8
1
 62
3
 10
190.0534634175565
 20
296.2040179196591
 30
0
 11
185.3087987465175
 21
296.2040179196591
 31
0
  0
LINE
  8
1
 62
3
 10
190.0534634175565
 20
296.2040179196591
 30
0
 11
190.0534634175565
 21
294.2040179196588
 31
0
  0
LINE
  8
1
 62
3
 10
188.7077396691575
 20
274.2540179196591
 30
0
 11
189.1563142519574
 21
274.2540179196591
 31
0
  0
LINE
  8
1
 62
3
 10
188.7077396691575
 20
277.2540179196591
 30
0
 11
189.1563142519574
 21
277.2540179196591
 31
0
  0
LINE
  8
1
 62
3
 10
188.7077396691575
 20
277.2540179196591
 30
0
 11
188.7077396691575
 21
274.2540179196591
 31
0
  0
LINE
  8
1
 62
3
 10
187.4367783512245
 20
277.2540179196591
 30
0
 11
188.7077396691575
 21
277.2540179196591
 31
0
  0
LINE
  8
1
 62
3
 10
187.4367783512245
 20
274.2540179196591
 30
0
 11
188.7077396691575
 21
274.2540179196591
 31
0
  0
LINE
  8
1
 62
3
 10
187.4367783512245
 20
274.2540179196591
 30
0
 11
187.4367783512245
 21
277.2540179196591
 31
0
  0
LINE
  8
1
 62
3
 10
188.7077396691575
 20
299.254017919659
 30
0
 11
189.1563142519574
 21
299.254017919659
 31
0
  0
LINE
  8
1
 62
3
 10
188.7077396691575
 20
302.254017919659
 30
0
 11
187.4367783512245
 21
302.254017919659
 31
0
  0
LINE
  8
1
 62
3
 10
188.7077396691575
 20
302.254017919659
 30
0
 11
188.7077396691575
 21
299.254017919659
 31
0
  0
LINE
  8
1
 62
3
 10
187.4367783512245
 20
302.254017919659
 30
0
 11
186.4274855399247
 21
302.254017919659
 31
0
  0
LINE
  8
1
 62
3
 10
187.4367783512245
 20
299.254017919659
 30
0
 11
188.7077396691575
 21
299.254017919659
 31
0
  0
LINE
  8
1
 62
3
 10
187.4367783512245
 20
299.254017919659
 30
0
 11
187.4367783512245
 21
302.254017919659
 31
0
  0
LINE
  8
1
 62
3
 10
189.1563142519574
 20
274.2540179196591
 30
0
 11
193.2087987465177
 21
274.2540179196591
 31
0
  0
LINE
  8
1
 62
3
 10
189.1563142519574
 20
277.2540179196591
 30
0
 11
189.1563142519574
 21
274.2540179196591
 31
0
  0
LINE
  8
1
 62
3
 10
186.4274855399247
 20
277.2540179196591
 30
0
 11
187.4367783512245
 21
277.2540179196591
 31
0
  0
LINE
  8
1
 62
3
 10
186.4274855399247
 20
274.2540179196591
 30
0
 11
187.4367783512245
 21
274.2540179196591
 31
0
  0
LINE
  8
1
 62
3
 10
186.4274855399247
 20
274.2540179196591
 30
0
 11
186.4274855399247
 21
277.2540179196591
 31
0
  0
LINE
  8
1
 62
3
 10
189.1563142519574
 20
302.254017919659
 30
0
 11
188.7077396691575
 21
302.254017919659
 31
0
  0
LINE
  8
1
 62
3
 10
189.1563142519574
 20
299.254017919659
 30
0
 11
189.1563142519574
 21
302.254017919659
 31
0
  0
LINE
  8
1
 62
3
 10
186.4274855399247
 20
299.254017919659
 30
0
 11
187.4367783512245
 21
299.254017919659
 31
0
  0
LINE
  8
1
 62
3
 10
186.4274855399247
 20
302.254017919659
 30
0
 11
185.3087987465175
 21
302.254017919659
 31
0
  0
LINE
  8
1
 62
3
 10
186.4274855399247
 20
302.254017919659
 30
0
 11
186.4274855399247
 21
299.254017919659
 31
0
  0
LINE
  8
1
 62
3
 10
185.3087987465175
 20
296.2040179196591
 30
0
 11
185.3087987465175
 21
294.2040179196588
 31
0
  0
LINE
  8
1
 62
3
 10
190.6141816460566
 20
296.2040179196591
 30
0
 11
190.0534634175565
 21
296.2040179196591
 31
0
  0
LINE
  8
1
 62
3
 10
190.6141816460566
 20
294.2040179196588
 30
0
 11
190.6141816460566
 21
296.2040179196591
 31
0
  0
LINE
  8
1
 62
3
 10
185.3087987465175
 20
294.2040179196588
 30
0
 11
190.0534634175565
 21
294.2040179196588
 31
0
  0
LINE
  8
1
 62
3
 10
185.3087987465175
 20
294.2040179196588
 30
0
 11
185.3087987465175
 21
282.304017919659
 31
0
  0
LINE
  8
1
 62
3
 10
185.3087987465175
 20
282.304017919659
 30
0
 11
185.3087987465175
 21
294.2040179196588
 31
0
  0
LINE
  8
1
 62
3
 10
185.3087987465175
 20
282.304017919659
 30
0
 11
185.3087987465175
 21
280.304017919659
 31
0
  0
LINE
  8
1
 62
3
 10
190.6141816460566
 20
282.304017919659
 30
0
 11
190.0534634175565
 21
282.304017919659
 31
0
  0
LINE
  8
1
 62
3
 10
190.6141816460566
 20
280.304017919659
 30
0
 11
190.6141816460566
 21
282.304017919659
 31
0
  0
LINE
  8
1
 62
3
 10
185.3087987465175
 20
280.304017919659
 30
0
 11
185.3087987465175
 21
274.2540179196591
 31
0
  0
LINE
  8
1
 62
3
 10
185.3087987465175
 20
280.304017919659
 30
0
 11
190.0534634175565
 21
280.304017919659
 31
0
  0
LINE
  8
1
 62
3
 10
185.3087987465175
 20
274.2540179196591
 30
0
 11
186.4274855399247
 21
274.2540179196591
 31
0
  0
LINE
  8
1
 62
3
 10
185.3087987465175
 20
302.254017919659
 30
0
 11
185.3087987465175
 21
296.2040179196591
 31
0
  0
LINE
  8
1
 62
3
 10
193.2087987465177
 20
302.254017919659
 30
0
 11
189.1563142519574
 21
302.254017919659
 31
0
  0
LINE
  8
1
 62
3
 10
193.2087987465177
 20
274.2540179196591
 30
0
 11
193.2087987465177
 21
302.254017919659
 31
0
  0
LINE
  8
1
 62
3
 10
213.2087987465177
 20
289.754017919659
 30
0
 11
233.6186235604433
 21
289.7540179196591
 31
0
  0
LINE
  8
1
 62
3
 10
213.2087987465177
 20
286.754017919659
 30
0
 11
233.1728017177028
 21
286.7540179196591
 31
0
  0
LINE
  8
1
 62
3
 10
234.4913083408555
 20
288.814065405057
 30
0
 11
261.0459329590267
 21
288.814065405057
 31
0
  0
LINE
  8
1
 62
3
 10
369.0234230079166
 20
137.6711514876246
 30
0
 11
369.0234230079166
 21
145.4762113178888
 31
0
  0
LINE
  8
1
 62
3
 10
409.6234230079166
 20
145.5340896637422
 30
0
 11
409.6234230079166
 21
145.7417777346619
 31
0
  0
LINE
  8
1
 62
3
 10
411.6311636894168
 20
145.5361065981659
 30
0
 11
410.9543374856846
 21
144.9356501786678
 31
0
  0
LINE
  8
1
 62
3
 10
395.0234230079166
 20
199.7887798953913
 30
0
 11
395.0234230079166
 21
200.1975782594108
 31
0
  0
LINE
  8
1
 62
3
 10
383.6234230079166
 20
199.7887798953913
 30
0
 11
383.6234230079166
 21
200.1975782594108
 31
0
  0
LINE
  8
1
 62
3
 10
409.6234230079166
 20
137.6711514876241
 30
0
 11
409.6234230079166
 21
145.5340896637422
 31
0
  0
LINE
  8
1
 62
3
 10
369.0234230079166
 20
145.5135809899819
 30
0
 11
369.0234230079166
 21
145.742841346234
 31
0
  0
LINE
  8
1
 62
3
 10
410.3234230079167
 20
129.4211379221754
 30
0
 11
408.4848608356826
 21
129.4211379221754
 31
0
  0
LINE
  8
1
 62
3
 10
412.3234230079167
 20
129.4211379221754
 30
0
 11
412.6518501326631
 21
129.4211379221754
 31
0
  0
LINE
  8
1
 62
3
 10
366.3234230079166
 20
129.4211379221756
 30
0
 11
365.9949958831704
 21
129.4211379221756
 31
0
  0
LINE
  8
1
 62
1
 10
422.5734230079167
 20
206.8613140089373
 30
0
 11
422.5734230079167
 21
197.9809618354145
 31
0
  0
LINE
  8
1
 62
1
 10
427.0135990946782
 20
202.421137922176
 30
0
 11
418.133246921155
 21
202.421137922176
 31
0
  0
LINE
  8
1
 62
1
 10
427.0135990946782
 20
135.921137922176
 30
0
 11
418.133246921155
 21
135.921137922176
 31
0
  0
LINE
  8
1
 62
1
 10
422.5734230079167
 20
131.4809618354147
 30
0
 11
422.5734230079167
 21
140.3613140089373
 31
0
  0
LINE
  8
1
 62
3
 10
364.8234230079166
 20
129.4211379221756
 30
0
 11
365.9949958831704
 21
129.4211379221756
 31
0
  0
LINE
  8
1
 62
1
 10
360.5135990946779
 20
135.9211379221761
 30
0
 11
351.6332469211552
 21
135.9211379221761
 31
0
  0
LINE
  8
1
 62
1
 10
356.0734230079166
 20
140.3613140089373
 30
0
 11
356.0734230079166
 21
131.4809618354148
 31
0
  0
LINE
  8
1
 62
1
 10
356.0734230079166
 20
197.9809618354145
 30
0
 11
356.0734230079166
 21
206.8613140089373
 31
0
  0
LINE
  8
1
 62
1
 10
360.5135990946779
 20
202.421137922176
 30
0
 11
351.633246921155
 21
202.421137922176
 31
0
  0
LINE
  8
1
 62
3
 10
412.6518501326631
 20
129.4211379221754
 30
0
 11
413.8234230079167
 21
129.4211379221754
 31
0
  0
LINE
  8
1
 62
3
 10
368.3234230079166
 20
129.4211379221756
 30
0
 11
366.3234230079166
 21
129.4211379221756
 31
0
  0
LINE
  8
1
 62
3
 10
410.3234230079167
 20
129.4211379221754
 30
0
 11
412.3234230079167
 21
129.4211379221754
 31
0
  0
LINE
  8
1
 62
3
 10
363.3234230079166
 20
130.9211379221756
 30
0
 11
363.3234230079166
 21
140.1711379221756
 31
0
  0
LINE
  8
1
 62
3
 10
360.3234230079166
 20
195.171137922176
 30
0
 11
352.8234230079166
 21
195.171137922176
 31
0
  0
LINE
  8
1
 62
3
 10
363.3234230079166
 20
198.171137922176
 30
0
 11
363.3234230079166
 21
205.671137922176
 31
0
  0
LINE
  8
1
 62
3
 10
415.3234230079167
 20
140.1711379221754
 30
0
 11
415.3234230079167
 21
130.9211379221754
 31
0
  0
LINE
  8
1
 62
3
 10
418.3234230079167
 20
143.1711379221754
 30
0
 11
425.8234230079167
 21
143.1711379221754
 31
0
  0
LINE
  8
1
 62
3
 10
413.8234230079167
 20
207.171137922176
 30
0
 11
364.8234230079166
 21
207.171137922176
 31
0
  0
LINE
  8
1
 62
3
 10
415.3234230079167
 20
205.671137922176
 30
0
 11
415.3234230079167
 21
198.171137922176
 31
0
  0
LINE
  8
1
 62
3
 10
351.3234230079166
 20
144.6711379221756
 30
0
 11
351.3234230079166
 21
193.671137922176
 31
0
  0
LINE
  8
1
 62
3
 10
352.8234230079166
 20
143.1711379221756
 30
0
 11
360.3234230079166
 21
143.1711379221756
 31
0
  0
LINE
  8
1
 62
3
 10
427.3234230079167
 20
144.6711379221754
 30
0
 11
427.3234230079167
 21
193.671137922176
 31
0
  0
LINE
  8
1
 62
3
 10
425.8234230079167
 20
195.171137922176
 30
0
 11
418.3234230079167
 21
195.171137922176
 31
0
  0
LINE
  8
1
 62
3
 10
408.8234230079167
 20
133.771137922175
 30
0
 11
408.8234230079167
 21
145.0718861337927
 31
0
  0
LINE
  8
1
 62
3
 10
369.8234230079167
 20
133.7711379221751
 30
0
 11
369.8234230079167
 21
145.0728794272831
 31
0
  0
LINE
  8
1
 62
3
 10
408.8234230079167
 20
130.171137922176
 30
0
 11
408.8234230079167
 21
132.5711379221751
 31
0
  0
LINE
  8
1
 62
3
 10
369.8234230079167
 20
130.1711379221761
 30
0
 11
369.8234230079167
 21
132.5711379221753
 31
0
  0
LINE
  8
1
 62
3
 10
394.2234230079168
 20
201.161137922176
 30
0
 11
394.2234230079168
 21
199.7813320517548
 31
0
  0
LINE
  8
1
 62
3
 10
384.4234230079169
 20
201.161137922176
 30
0
 11
384.4234230079169
 21
199.7813320517548
 31
0
  0
LINE
  8
1
 62
3
 10
384.4334230079169
 20
201.171137922176
 30
0
 11
394.2134230079168
 21
201.171137922176
 31
0
  0
LINE
  8
1
 62
3
 10
400.7234230079167
 20
137.8711379221757
 30
0
 11
403.7234230079167
 21
137.8711379221757
 31
0
  0
LINE
  8
1
 62
3
 10
400.7234230079167
 20
135.8711379221757
 30
0
 11
400.7234230079167
 21
137.8711379221757
 31
0
  0
LINE
  8
1
 62
3
 10
378.7234230079167
 20
135.8711379221758
 30
0
 11
400.7234230079167
 21
135.8711379221757
 31
0
  0
LINE
  8
1
 62
3
 10
378.7234230079167
 20
137.8711379221758
 30
0
 11
378.7234230079167
 21
135.8711379221758
 31
0
  0
LINE
  8
1
 62
3
 10
403.7234230079167
 20
128.171137922176
 30
0
 11
375.7234230079167
 21
128.1711379221761
 31
0
  0
LINE
  8
1
 62
3
 10
403.7234230079167
 20
137.8711379221757
 30
0
 11
403.7234230079167
 21
128.171137922176
 31
0
  0
LINE
  8
1
 62
3
 10
375.7234230079167
 20
137.8711379221758
 30
0
 11
378.7234230079167
 21
137.8711379221758
 31
0
  0
LINE
  8
1
 62
3
 10
375.7234230079167
 20
128.1711379221761
 30
0
 11
375.7234230079167
 21
137.8711379221758
 31
0
  0
LINE
  8
1
 62
3
 10
375.7234230079167
 20
129.1711379221752
 30
0
 11
370.8234230079178
 21
129.1711379221752
 31
0
  0
LINE
  8
1
 62
3
 10
403.7234230079167
 20
129.1711379221751
 30
0
 11
407.8234230079167
 21
129.1711379221751
 31
0
  0
LINE
  8
1
 62
3
 10
407.4488293566683
 20
132.2697058218941
 30
0
 11
407.0088810094384
 21
132.709654169124
 31
0
  0
LINE
  8
1
 62
3
 10
406.3980135638278
 20
132.2697058218941
 30
0
 11
406.8379619110578
 21
132.709654169124
 31
0
  0
LINE
  8
1
 62
3
 10
407.8255758496845
 20
133.6972681077507
 30
0
 11
407.3856275024546
 21
133.2573197605209
 31
0
  0
LINE
  8
1
 62
3
 10
407.8255758496845
 20
132.6464523149104
 30
0
 11
407.3856275024546
 21
133.0864006621402
 31
0
  0
LINE
  8
1
 62
3
 10
406.8379619110578
 20
133.634066253537
 30
0
 11
406.8335447471876
 21
133.6384834174074
 31
0
  0
LINE
  8
1
 62
3
 10
406.8335447471876
 20
133.6384834174074
 30
0
 11
406.3980135638278
 21
134.074014600767
 31
0
  0
LINE
  8
1
 62
3
 10
407.4488293566683
 20
134.074014600767
 30
0
 11
407.0088810094383
 21
133.634066253537
 31
0
  0
LINE
  8
1
 62
3
 10
406.0212670708117
 20
132.6464523149104
 30
0
 11
406.4612154180416
 21
133.0864006621402
 31
0
  0
LINE
  8
1
 62
3
 10
406.0212670708117
 20
133.6972681077507
 30
0
 11
406.4612154180416
 21
133.2573197605209
 31
0
  0
LINE
  8
1
 62
3
 10
372.2488324520057
 20
132.2697058218942
 30
0
 11
371.8088841047759
 21
132.7096541691241
 31
0
  0
LINE
  8
1
 62
3
 10
371.1980166591654
 20
132.2697058218942
 30
0
 11
371.6379650063954
 21
132.7096541691241
 31
0
  0
LINE
  8
1
 62
3
 10
372.625578945022
 20
133.6972681077509
 30
0
 11
372.1856305977921
 21
133.2573197605211
 31
0
  0
LINE
  8
1
 62
3
 10
372.625578945022
 20
132.6464523149105
 30
0
 11
372.1856305977921
 21
133.0864006621403
 31
0
  0
LINE
  8
1
 62
3
 10
371.6379650063954
 20
133.6340662535371
 30
0
 11
371.6335478425251
 21
133.6384834174076
 31
0
  0
LINE
  8
1
 62
3
 10
371.6335478425251
 20
133.6384834174076
 30
0
 11
371.1980166591654
 21
134.0740146007672
 31
0
  0
LINE
  8
1
 62
3
 10
372.2488324520057
 20
134.0740146007672
 30
0
 11
371.8088841047759
 21
133.6340662535371
 31
0
  0
LINE
  8
1
 62
3
 10
370.8212701661493
 20
132.6464523149105
 30
0
 11
371.2612185133791
 21
133.0864006621403
 31
0
  0
LINE
  8
1
 62
3
 10
370.8212701661493
 20
133.6972681077509
 30
0
 11
371.2612185133791
 21
133.2573197605211
 31
0
  0
LINE
  8
1
 62
3
 10
370.1619851801495
 20
129.4211379221756
 30
0
 11
368.3234230079166
 21
129.4211379221756
 31
0
  0
LINE
  8
1
 62
1
 10
432.073423007917
 20
169.171137922176
 30
0
 11
346.5734230079164
 21
169.171137922176
 31
0
  0
LINE
  8
1
 62
3
 10
376.0117057909254
 20
180.943863921849
 30
0
 11
402.0117057909254
 21
180.943863921849
 31
0
  0
LINE
  8
1
 62
3
 10
375.0117057909254
 20
191.943863921849
 30
0
 11
375.0117057909254
 21
181.943863921849
 31
0
  0
LINE
  8
1
 62
3
 10
402.0117057909254
 20
192.943863921849
 30
0
 11
376.0117057909254
 21
192.943863921849
 31
0
  0
LINE
  8
1
 62
3
 10
403.0117057909254
 20
181.943863921849
 30
0
 11
403.0117057909254
 21
191.943863921849
 31
0
  0
LINE
  8
1
 62
1
 10
389.3240367806503
 20
125.1711379221761
 30
0
 11
389.3240367806503
 21
211.9211379221762
 31
0
  0
LINE
  8
1
 62
3
 10
247.1865552767254
 20
24.06314356932282
 30
0
 11
247.1865552767254
 21
41.5631435693231
 31
0
  0
LINE
  8
1
 62
3
 10
240.786255276725
 20
18.31314356932322
 30
0
 11
242.286255276725
 21
18.31314356932322
 31
0
  0
LINE
  8
1
 62
3
 10
240.786255276725
 20
26.31314356932322
 30
0
 11
242.286255276725
 21
26.31314356932322
 31
0
  0
LINE
  8
1
 62
3
 10
240.786255276725
 20
29.56314356932271
 30
0
 11
242.286255276725
 21
29.56314356932271
 31
0
  0
LINE
  8
1
 62
3
 10
240.786255276725
 20
81.56314356932319
 30
0
 11
242.286255276725
 21
81.56314356932319
 31
0
  0
LINE
  8
1
 62
3
 10
240.786255276725
 20
84.81314356932319
 30
0
 11
242.286255276725
 21
84.81314356932319
 31
0
  0
LINE
  8
1
 62
3
 10
240.786255276725
 20
92.81314356932319
 30
0
 11
242.286255276725
 21
92.81314356932319
 31
0
  0
LINE
  8
1
 62
3
 10
240.786255276725
 20
93.56314356932319
 30
0
 11
240.786255276725
 21
15.56314356932299
 31
0
  0
LINE
  8
1
 62
3
 10
242.286255276725
 20
93.56314356932319
 30
0
 11
240.786255276725
 21
93.56314356932319
 31
0
  0
LINE
  8
1
 62
3
 10
240.786255276725
 20
95.56314356932342
 30
0
 11
240.786255276725
 21
93.56314356932319
 31
0
  0
LINE
  8
1
 62
2
 10
202.7862807203586
 20
59.56314356932293
 30
0
 11
202.7862807203586
 21
51.56314356932322
 31
0
  0
LINE
  8
1
 62
3
 10
202.7862807203586
 20
51.56314356932322
 30
0
 11
202.2862807203586
 21
52.06314356932322
 31
0
  0
LINE
  8
1
 62
3
 10
202.2862807203586
 20
59.06314356932293
 30
0
 11
202.2862807203586
 21
52.06314356932322
 31
0
  0
LINE
  8
1
 62
3
 10
202.7862807203586
 20
51.56314356932322
 30
0
 11
231.286255276725
 21
51.5631435693231
 31
0
  0
LINE
  8
1
 62
3
 10
202.2862807203586
 20
55.5631435693231
 30
0
 11
202.2862807203586
 21
59.06314356932293
 31
0
  0
LINE
  8
1
 62
3
 10
231.286255276725
 20
59.5631435693231
 30
0
 11
226.2862807203586
 21
59.5631435693231
 31
0
  0
LINE
  8
1
 62
1
 10
284.6862552767251
 20
55.5631435693231
 30
0
 11
197.2862807203586
 21
55.5631435693231
 31
0
  0
LINE
  8
1
 62
3
 10
231.286255276725
 20
89.06314356932296
 30
0
 11
231.286255276725
 21
59.06314356932293
 31
0
  0
LINE
  8
1
 62
3
 10
231.286255276725
 20
91.71314356932305
 30
0
 11
231.286255276725
 21
89.06314356932296
 31
0
  0
LINE
  8
1
 62
3
 10
231.6362552767248
 20
92.06314356932296
 30
0
 11
234.286255276725
 21
92.06314356932296
 31
0
  0
LINE
  8
1
 62
3
 10
231.286255276725
 20
91.71314356932305
 30
0
 11
231.6362552767248
 21
92.06314356932296
 31
0
  0
LINE
  8
1
 62
3
 10
234.2862552767252
 20
95.56314356932364
 30
0
 11
234.286255276725
 21
92.06314356932296
 31
0
  0
LINE
  8
1
 62
3
 10
231.286255276725
 20
22.06314356932282
 30
0
 11
231.286255276725
 21
19.4131435693229
 31
0
  0
LINE
  8
1
 62
3
 10
234.286255276725
 20
19.06314356932299
 30
0
 11
231.6362552767248
 21
19.06314356932299
 31
0
  0
LINE
  8
1
 62
3
 10
231.286255276725
 20
19.4131435693229
 30
0
 11
231.6362552767248
 21
19.06314356932299
 31
0
  0
LINE
  8
1
 62
3
 10
234.286255276725
 20
19.06314356932299
 30
0
 11
234.286255276725
 21
15.5631435693231
 31
0
  0
LINE
  8
1
 62
3
 10
234.286255276725
 20
15.5631435693231
 30
0
 11
240.786255276725
 21
15.56314356932299
 31
0
  0
LINE
  8
1
 62
3
 10
231.286255276725
 20
59.06314356932293
 30
0
 11
231.286255276725
 21
22.06314356932282
 31
0
  0
LINE
  8
1
 62
3
 10
242.286255276725
 20
86.84050857224895
 30
0
 11
242.286255276725
 21
93.56314356932319
 31
0
  0
LINE
  8
1
 62
3
 10
234.2862552767252
 20
95.56314356932364
 30
0
 11
240.786255276725
 21
95.56314356932342
 31
0
  0
LINE
  8
1
 62
3
 10
234.286255276725
 20
92.06314356932296
 30
0
 11
234.286255276725
 21
19.06314356932299
 31
0
  0
LINE
  8
1
 62
3
 10
246.2862552767258
 20
88.06314356932307
 30
0
 11
246.2862552767258
 21
69.56314356932307
 31
0
  0
LINE
  8
1
 62
3
 10
246.2862552767258
 20
88.06314356932307
 30
0
 11
242.286255276725
 21
88.06314356932296
 31
0
  0
LINE
  8
1
 62
3
 10
244.6986883736755
 20
40.0631435693231
 30
0
 11
243.8862552767249
 21
40.06314356932322
 31
0
  0
LINE
  8
1
 62
3
 10
243.8862552767249
 20
35.863143569323
 30
0
 11
244.6986883736754
 21
35.86314356932311
 31
0
  0
LINE
  8
1
 62
3
 10
245.5862629116164
 20
38.32564356932292
 30
0
 11
245.4112629116164
 21
38.32564356932292
 31
0
  0
LINE
  8
1
 62
3
 10
245.4112629116164
 20
38.32564356932292
 30
0
 11
245.4112629116164
 21
37.60064356932301
 31
0
  0
LINE
  8
1
 62
3
 10
245.4112629116164
 20
37.60064356932301
 30
0
 11
245.5862629116164
 21
37.60064356932301
 31
0
  0
LINE
  8
1
 62
3
 10
279.2862552767253
 20
84.36314356932314
 30
0
 11
279.2862552767253
 21
61.5631435693231
 31
0
  0
LINE
  8
1
 62
3
 10
279.2862552767253
 20
55.5631435693231
 30
0
 11
279.2862552767253
 21
61.5631435693231
 31
0
  0
LINE
  8
1
 62
3
 10
279.2862552767253
 20
49.5631435693231
 30
0
 11
279.2862552767253
 21
26.76314356932321
 31
0
  0
LINE
  8
1
 62
3
 10
277.0862552767252
 20
24.5631435693231
 30
0
 11
248.8865552767254
 21
24.56314356932333
 31
0
  0
LINE
  8
1
 62
3
 10
279.2862552767253
 20
49.5631435693231
 30
0
 11
279.2862552767253
 21
55.5631435693231
 31
0
  0
LINE
  8
1
 62
3
 10
279.6862552767251
 20
51.26314356932332
 30
0
 11
279.6862552767251
 21
49.86314356932311
 31
0
  0
LINE
  8
1
 62
3
 10
279.3862552767251
 20
61.5631435693235
 30
0
 11
279.2862552767253
 21
61.5631435693231
 31
0
  0
LINE
  8
1
 62
3
 10
279.6862552767251
 20
61.26314356932332
 30
0
 11
279.6862552767251
 21
59.86314356932311
 31
0
  0
LINE
  8
1
 62
3
 10
279.6862552767251
 20
51.26314356932332
 30
0
 11
279.6862552767251
 21
59.86314356932311
 31
0
  0
LINE
  8
1
 62
3
 10
279.3862552767251
 20
61.5631435693235
 30
0
 11
279.6862552767251
 21
61.26314356932332
 31
0
  0
LINE
  8
1
 62
3
 10
279.6862552767251
 20
49.86314356932311
 30
0
 11
279.3862552767251
 21
49.5631435693231
 31
0
  0
LINE
  8
1
 62
3
 10
279.6862552767252
 20
59.36314356932323
 30
0
 11
279.6862552767251
 21
51.76314356932321
 31
0
  0
LINE
  8
1
 62
3
 10
279.2862552767253
 20
49.5631435693231
 30
0
 11
279.3862552767251
 21
49.5631435693231
 31
0
  0
LINE
  8
1
 62
3
 10
246.6862807203592
 20
26.1631435693233
 30
0
 11
247.1862807203592
 21
26.1631435693233
 31
0
  0
LINE
  8
1
 62
3
 10
246.6862807203592
 20
84.96314356932305
 30
0
 11
246.6862807203592
 21
69.56314356932307
 31
0
  0
LINE
  8
1
 62
3
 10
246.6862807203592
 20
26.16022708010851
 30
0
 11
246.6862807203592
 21
29.51314356932343
 31
0
  0
LINE
  8
1
 62
3
 10
248.8865552767254
 20
86.56314356932342
 30
0
 11
277.0862552767252
 21
86.56314356932307
 31
0
  0
LINE
  8
1
 62
3
 10
246.6862807203592
 20
84.96314356932305
 30
0
 11
247.1865552767254
 21
84.96314356932305
 31
0
  0
LINE
  8
1
 62
3
 10
247.1865552767254
 20
84.96314356932305
 30
0
 11
247.1865552767254
 21
87.0631435693233
 31
0
  0
LINE
  8
1
 62
3
 10
247.1865552767254
 20
87.0631435693233
 30
0
 11
248.3868298330915
 21
87.0631435693233
 31
0
  0
LINE
  8
1
 62
3
 10
202.2862807203586
 20
59.06314356932293
 30
0
 11
202.7862807203586
 21
59.56314356932293
 31
0
  0
LINE
  8
1
 62
3
 10
231.286255276725
 20
59.5631435693231
 30
0
 11
202.7862807203586
 21
59.56314356932293
 31
0
  0
LINE
  8
1
 62
3
 10
246.2862552767258
 20
41.5631435693231
 30
0
 11
246.2862552767258
 21
30.76318675958331
 31
0
  0
LINE
  8
1
 62
3
 10
246.6862807203592
 20
41.5631435693231
 30
0
 11
246.6862807203592
 21
29.51314356932343
 31
0
  0
LINE
  8
1
 62
3
 10
247.1865552767254
 20
69.56314356932307
 30
0
 11
247.1865552767254
 21
84.96314356932305
 31
0
  0
LINE
  8
1
 62
3
 10
248.5708301663515
 20
65.87177297231111
 30
0
 11
248.5708301663515
 21
69.56314356932307
 31
0
  0
LINE
  8
1
 62
3
 10
249.186255276725
 20
65.87177297231111
 30
0
 11
248.5708301663515
 21
65.87177297231111
 31
0
  0
LINE
  8
1
 62
3
 10
249.186255276725
 20
63.25451416633493
 30
0
 11
248.5708301663515
 21
63.25451416633493
 31
0
  0
LINE
  8
1
 62
3
 10
249.3862552767249
 20
66.0631435693231
 30
0
 11
249.3862552767249
 21
63.0631435693231
 31
0
  0
LINE
  8
1
 62
3
 10
249.3862552767249
 20
63.0631435693231
 30
0
 11
249.186255276725
 21
63.25451416633493
 31
0
  0
LINE
  8
1
 62
3
 10
249.186255276725
 20
65.87177297231111
 30
0
 11
249.3862552767249
 21
66.0631435693231
 31
0
  0
LINE
  8
1
 62
3
 10
248.5708301663515
 20
69.56314356932307
 30
0
 11
243.8862552767249
 21
69.56314356932307
 31
0
  0
LINE
  8
1
 62
3
 10
248.5708301663515
 20
47.87177297231128
 30
0
 11
248.5708301663515
 21
63.25451416633493
 31
0
  0
LINE
  8
1
 62
3
 10
248.5708301663515
 20
41.5631435693231
 30
0
 11
249.186255276725
 21
41.5631435693231
 31
0
  0
LINE
  8
1
 62
3
 10
248.5708301663515
 20
45.2545141663351
 30
0
 11
248.5708301663515
 21
41.5631435693231
 31
0
  0
LINE
  8
1
 62
3
 10
249.186255276725
 20
47.87177297231128
 30
0
 11
248.5708301663515
 21
47.87177297231128
 31
0
  0
LINE
  8
1
 62
3
 10
249.186255276725
 20
45.2545141663351
 30
0
 11
248.5708301663515
 21
45.2545141663351
 31
0
  0
LINE
  8
1
 62
3
 10
243.8862552767249
 20
41.5631435693231
 30
0
 11
248.5708301663515
 21
41.5631435693231
 31
0
  0
LINE
  8
1
 62
3
 10
249.8862552767249
 20
41.5631435693231
 30
0
 11
249.8862552767249
 21
69.56314356932307
 31
0
  0
LINE
  8
1
 62
3
 10
249.8862552767249
 20
69.56314356932307
 30
0
 11
249.186255276725
 21
69.56314356932307
 31
0
  0
LINE
  8
1
 62
3
 10
243.8862552767249
 20
69.56314356932307
 30
0
 11
243.8862552767249
 21
41.5631435693231
 31
0
  0
LINE
  8
1
 62
3
 10
249.186255276725
 20
41.5631435693231
 30
0
 11
249.8862552767249
 21
41.5631435693231
 31
0
  0
LINE
  8
1
 62
3
 10
249.186255276725
 20
69.56314356932307
 30
0
 11
248.5708301663515
 21
69.56314356932307
 31
0
  0
LINE
  8
1
 62
3
 10
249.3862552767249
 20
48.0631435693231
 30
0
 11
249.3862552767249
 21
45.0631435693231
 31
0
  0
LINE
  8
1
 62
3
 10
249.3862552767249
 20
45.0631435693231
 30
0
 11
249.186255276725
 21
45.2545141663351
 31
0
  0
LINE
  8
1
 62
3
 10
249.186255276725
 20
47.87177297231128
 30
0
 11
249.3862552767249
 21
48.0631435693231
 31
0
  0
LINE
  8
1
 62
3
 10
248.3868298330915
 20
24.06314356932282
 30
0
 11
247.1865552767254
 21
24.06314356932282
 31
0
  0
LINE
  8
1
 62
3
 10
243.8862552767249
 20
41.5631435693231
 30
0
 11
243.8862552767249
 21
36.0631435693231
 31
0
  0
LINE
  8
1
 62
3
 10
243.8862552767249
 20
36.0631435693231
 30
0
 11
242.286255276725
 21
36.0631435693231
 31
0
  0
LINE
  8
1
 62
3
 10
242.286255276725
 20
23.06314356932322
 30
0
 11
246.2862552767258
 21
23.0631435693231
 31
0
  0
LINE
  8
1
 62
3
 10
246.2862552767258
 20
34.25001893239991
 30
0
 11
246.2862552767258
 21
23.0631435693231
 31
0
  0
LINE
  8
1
 62
3
 10
243.8862552767249
 20
36.0631435693231
 30
0
 11
243.8862552767249
 21
35.863143569323
 31
0
  0
LINE
  8
1
 62
3
 10
243.8862552767249
 20
71.06314356932296
 30
0
 11
244.6986883736755
 21
71.06314356932307
 31
0
  0
LINE
  8
1
 62
3
 10
244.6986883736754
 20
75.26314356932312
 30
0
 11
243.8862552767249
 21
75.26314356932323
 31
0
  0
LINE
  8
1
 62
3
 10
245.4112629116164
 20
72.80064356932326
 30
0
 11
245.5862629116164
 21
72.80064356932326
 31
0
  0
LINE
  8
1
 62
3
 10
245.4112629116164
 20
73.52564356932317
 30
0
 11
245.4112629116164
 21
72.80064356932326
 31
0
  0
LINE
  8
1
 62
3
 10
245.5862629116164
 20
73.52564356932317
 30
0
 11
245.4112629116164
 21
73.52564356932317
 31
0
  0
LINE
  8
1
 62
3
 10
243.8862552767249
 20
75.26314356932323
 30
0
 11
243.8862552767249
 21
75.06314356932307
 31
0
  0
LINE
  8
1
 62
3
 10
242.286255276725
 20
75.06314356932307
 30
0
 11
243.8862552767249
 21
75.06314356932307
 31
0
  0
LINE
  8
1
 62
3
 10
243.8862552767249
 20
75.06314356932307
 30
0
 11
243.8862552767249
 21
69.56314356932307
 31
0
  0
LINE
  8
1
 62
3
 10
242.286255276725
 20
17.5631435693231
 30
0
 11
242.286255276725
 21
86.84050857224895
 31
0
  0
LINE
  8
1
 62
3
 10
242.286255276725
 20
17.5631435693231
 30
0
 11
240.786255276725
 21
17.5631435693231
 31
0
  0
ARC
  8
1
 62
3
 10
93.65007292873392
 20
169.171137922176
 30
0
 40
3.999999999999989
 50
255.52248781407
 51
284.47751218593
  0
ARC
  8
1
 62
3
 10
93.65007292873392
 20
169.171137922176
 30
0
 40
3.999999999999989
 50
284.47751218593
 51
0
  0
ARC
  8
1
 62
3
 10
93.65007292873392
 20
169.171137922176
 30
0
 40
4
 50
0
 51
255.52248781407
  0
ARC
  8
1
 62
3
 10
93.65007292873392
 20
169.171137922176
 30
0
 40
4.700000000000053
 50
318.1316937737065
 51
0
  0
ARC
  8
1
 62
3
 10
93.65007292873392
 20
169.171137922176
 30
0
 40
4.699999999999903
 50
180
 51
221.8683062262925
  0
ARC
  8
1
 62
3
 10
93.56870393508032
 20
169.6650182485586
 30
0
 40
4.806808424543241
 50
354.1026806983087
 51
89.03005857679203
  0
ARC
  8
1
 62
3
 10
93.73144192238763
 20
169.6650182485586
 30
0
 40
4.806808424543317
 50
90.96994142320934
 51
185.8973193016913
  0
ARC
  8
1
 62
3
 10
240.799970635752
 20
133.1718602113306
 30
0
 40
4.799999999999949
 50
342.4172239915731
 51
355.6688512692113
  0
ARC
  8
1
 62
3
 10
242.9970552022882
 20
132.8218602113307
 30
0
 40
2.982960852905273
 50
37.1157559778615
 51
55.21831468208927
  0
ARC
  8
1
 62
3
 10
240.799970635752
 20
133.1718602113306
 30
0
 40
4.79999999999981
 50
4.331148730787718
 51
17.58277600842591
  0
ARC
  8
1
 62
3
 10
242.9970552022883
 20
133.5218602113307
 30
0
 40
2.982960852905166
 50
304.7816853179062
 51
322.8842440221332
  0
ARC
  8
1
 62
3
 10
389.3234230079167
 20
169.171137922176
 30
0
 40
32.5
 50
180
 51
228.2704652751673
  0
ARC
  8
1
 62
3
 10
389.3234230079167
 20
169.171137922176
 30
0
 40
32.49999999999989
 50
313.3451802810877
 51
78.16773095150325
  0
ARC
  8
1
 62
3
 10
389.3234230079167
 20
169.171137922176
 30
0
 40
32.5
 50
180
 51
228.2704652751673
  0
ARC
  8
1
 62
3
 10
389.3234230079167
 20
169.171137922176
 30
0
 40
32.49999999999994
 50
101.832269048497
 51
180
  0
ARC
  8
1
 62
4
 10
389.3234230079167
 20
169.171137922176
 30
0
 40
32.5000000000004
 50
210.0576211967898
 51
210.5882742142299
  0
ARC
  8
1
 62
3
 10
389.3234230079167
 20
169.171137922176
 30
0
 40
32.5000000000004
 50
210.0576211967898
 51
210.5882742142299
  0
ARC
  8
1
 62
3
 10
406.9234214602479
 20
133.1718602113305
 30
0
 40
1.04399999999981
 50
210.216198285253
 51
239.783801714756
  0
ARC
  8
1
 62
3
 10
406.9234214602479
 20
133.1718602113305
 30
0
 40
0.4571999999998676
 50
262.5415509437182
 51
277.4584490563524
  0
ARC
  8
1
 62
3
 10
406.9234214602479
 20
133.1718602113305
 30
0
 40
1.044000000000149
 50
300.2161982852602
 51
329.7838017147596
  0
ARC
  8
1
 62
3
 10
406.9234214602479
 20
133.1718602113305
 30
0
 40
0.45720000000025
 50
352.5415509436814
 51
7.458449056315079
  0
ARC
  8
1
 62
3
 10
406.9234214602479
 20
133.1718602113305
 30
0
 40
1.044000000000231
 50
30.2161982852431
 51
59.78380171474141
  0
ARC
  8
1
 62
3
 10
406.9234214602479
 20
133.1718602113305
 30
0
 40
0.4571999999999414
 50
82.54155094364758
 51
97.45844905628178
  0
ARC
  8
1
 62
3
 10
406.9234214602479
 20
133.1718602113305
 30
0
 40
1.044000000000027
 50
120.2161982852424
 51
149.7838017147443
  0
ARC
  8
1
 62
3
 10
406.9234214602479
 20
133.1718602113305
 30
0
 40
0.4571999999999083
 50
172.5415509436794
 51
187.4584490563242
  0
ARC
  8
1
 62
3
 10
371.7234245555854
 20
133.1718602113306
 30
0
 40
1.043999999999697
 50
210.2161982852548
 51
239.7838017147579
  0
ARC
  8
1
 62
3
 10
371.7234245555854
 20
133.1718602113306
 30
0
 40
0.4571999999998603
 50
262.5415509437253
 51
277.4584490563665
  0
ARC
  8
1
 62
3
 10
371.7234245555854
 20
133.1718602113306
 30
0
 40
1.044000000000067
 50
300.2161982852555
 51
329.783801714761
  0
ARC
  8
1
 62
3
 10
371.7234245555854
 20
133.1718602113306
 30
0
 40
0.45720000000025
 50
352.5415509436814
 51
7.458449056318611
  0
ARC
  8
1
 62
3
 10
371.7234245555854
 20
133.1718602113306
 30
0
 40
1.044000000000289
 50
30.21619828524849
 51
59.78380171475074
  0
ARC
  8
1
 62
3
 10
371.7234245555854
 20
133.1718602113306
 30
0
 40
0.4571999999999562
 50
82.54155094363347
 51
97.45844905627472
  0
ARC
  8
1
 62
3
 10
371.7234245555854
 20
133.1718602113306
 30
0
 40
1.044000000000121
 50
120.2161982852358
 51
149.7838017147358
  0
ARC
  8
1
 62
3
 10
371.7234245555854
 20
133.1718602113306
 30
0
 40
0.4571999999999119
 50
172.5415509436758
 51
187.4584490563242
  0
ARC
  8
1
 62
3
 10
389.3234230079167
 20
169.171137922176
 30
0
 40
6
 50
0
 51
15.63848843708449
  0
ARC
  8
1
 62
3
 10
389.3234230079167
 20
169.171137922176
 30
0
 40
5.999999999999936
 50
164.3615115629151
 51
255.6384884370819
  0
ARC
  8
1
 62
3
 10
394.5195754306233
 20
172.171137922176
 30
0
 40
1.499999999999903
 50
292.819244218546
 51
127.1807557814555
  0
ARC
  8
1
 62
3
 10
389.3234230079167
 20
163.171137922176
 30
0
 40
1.500000000000168
 50
172.8192442185425
 51
7.180755781458288
  0
ARC
  8
1
 62
3
 10
389.3234230079167
 20
169.171137922176
 30
0
 40
6.000000000000093
 50
44.3615115629181
 51
135.6384884370812
  0
ARC
  8
1
 62
3
 10
389.3234230079167
 20
169.171137922176
 30
0
 40
6
 50
284.3615115629166
 51
0
  0
ARC
  8
1
 62
3
 10
384.1272705852101
 20
172.171137922176
 30
0
 40
1.500000000000205
 50
52.81924421854276
 51
247.180755781458
  0
ARC
  8
1
 62
3
 10
240.7999706357521
 20
37.96314356932302
 30
0
 40
4.799999999999976
 50
342.4172239915732
 51
355.668851269211
  0
ARC
  8
1
 62
3
 10
242.9970552022882
 20
37.61314356932311
 30
0
 40
2.982960852905351
 50
37.11575597785986
 51
55.21831468208904
  0
ARC
  8
1
 62
3
 10
240.7999706357521
 20
37.96314356932302
 30
0
 40
4.79999999999981
 50
4.331148730787718
 51
17.58277600842549
  0
ARC
  8
1
 62
3
 10
242.9970552022884
 20
38.3131435693231
 30
0
 40
2.982960852905132
 50
304.7816853179061
 51
322.8842440221336
  0
ARC
  8
1
 62
3
 10
240.7999706357521
 20
73.16314356932321
 30
0
 40
4.799999999999814
 50
4.331148730788395
 51
17.58277600842613
  0
ARC
  8
1
 62
3
 10
242.9970552022882
 20
73.51314356932312
 30
0
 40
2.982960852905352
 50
304.7816853179104
 51
322.8842440221393
  0
ARC
  8
1
 62
3
 10
240.7999706357521
 20
73.16314356932321
 30
0
 40
4.79999999999996
 50
342.4172239915739
 51
355.6688512692116
  0
ARC
  8
1
 62
3
 10
242.9970552022884
 20
72.81314356932307
 30
0
 40
2.98296085290536
 50
37.11575597786641
 51
55.21831468209451
  0
CIRCLE
  8
1
 62
3
 10
126.9000729287339
 20
135.921137922176
 30
0
 40
2.749999999999985
  0
CIRCLE
  8
1
 62
3
 10
60.40007292873392
 20
135.921137922176
 30
0
 40
2.750000000000012
  0
CIRCLE
  8
1
 62
3
 10
126.9000729287339
 20
202.421137922176
 30
0
 40
2.750000000000104
  0
CIRCLE
  8
1
 62
3
 10
60.40007292873392
 20
202.421137922176
 30
0
 40
2.750000000000055
  0
CIRCLE
  8
1
 62
3
 10
93.65007292873392
 20
169.171137922176
 30
0
 40
10.99999999999999
  0
CIRCLE
  8
1
 62
3
 10
93.65007292873392
 20
169.171137922176
 30
0
 40
33.49999999999999
  0
CIRCLE
  8
1
 62
3
 10
93.65007292873392
 20
169.171137922176
 30
0
 40
36.64999999999998
  0
CIRCLE
  8
1
 62
3
 10
93.65007292873392
 20
169.171137922176
 30
0
 40
11.84999999999999
  0
CIRCLE
  8
1
 62
3
 10
356.0734230079166
 20
135.9211379221761
 30
0
 40
2.599999999999966
  0
CIRCLE
  8
1
 62
3
 10
356.0734230079166
 20
202.421137922176
 30
0
 40
2.599999999999896
  0
CIRCLE
  8
1
 62
3
 10
422.5734230079167
 20
135.921137922176
 30
0
 40
2.599999999999994
  0
CIRCLE
  8
1
 62
3
 10
422.5734230079167
 20
202.421137922176
 30
0
 40
2.599999999999798
  0
CIRCLE
  8
1
 62
3
 10
422.5734230079167
 20
202.421137922176
 30
0
 40
4.000000000000171
  0
CIRCLE
  8
1
 62
3
 10
422.5734230079167
 20
135.921137922176
 30
0
 40
4.000000000000171
  0
CIRCLE
  8
1
 62
3
 10
356.0734230079166
 20
135.9211379221761
 30
0
 40
4
  0
CIRCLE
  8
1
 62
3
 10
356.0734230079166
 20
202.421137922176
 30
0
 40
4
  0
CIRCLE
  8
1
 62
3
 10
406.9234214602479
 20
133.1718602113305
 30
0
 40
2.015999999999792
  0
CIRCLE
  8
1
 62
3
 10
371.7234245555854
 20
133.1718602113306
 30
0
 40
2.015999999999679
  0
CIRCLE
  8
1
 62
3
 10
389.3240367806503
 20
169.171137922176
 30
0
 40
31.00000000000006
  0
CIRCLE
  8
1
 62
3
 10
389.3240367806503
 20
169.171137922176
 30
0
 40
5.999388762664
  0
CIRCLE
  8
1
 62
3
 10
389.3240367806503
 20
169.171137922176
 30
0
 40
4
  0
CIRCLE
  8
1
 62
3
 10
246.7563630493037
 20
68.0631435693231
 30
0
 40
0.3499999999997954
  0
CIRCLE
  8
1
 62
3
 10
246.7563630493037
 20
43.0631435693231
 30
0
 40
0.3499999999996817
  0
CIRCLE
  8
1
 62
3
 10
246.7563630493037
 20
55.5631435693231
 30
0
 40
0.3499999999996817
  0
CIRCLE
  8
1
 62
3
 10
246.7563630493037
 20
53.0631435693231
 30
0
 40
0.3499999999996817
  0
CIRCLE
  8
1
 62
3
 10
246.7563630493037
 20
50.5631435693231
 30
0
 40
0.3499999999996817
  0
CIRCLE
  8
1
 62
3
 10
246.7563630493037
 20
48.0631435693231
 30
0
 40
0.3499999999996817
  0
CIRCLE
  8
1
 62
3
 10
246.7563630493037
 20
45.5631435693231
 30
0
 40
0.3499999999996817
  0
CIRCLE
  8
1
 62
3
 10
246.7563630493037
 20
58.0631435693231
 30
0
 40
0.3499999999996817
  0
CIRCLE
  8
1
 62
3
 10
246.7563630493037
 20
60.5631435693231
 30
0
 40
0.3499999999996817
  0
CIRCLE
  8
1
 62
3
 10
246.7563630493037
 20
63.0631435693231
 30
0
 40
0.3499999999996817
  0
CIRCLE
  8
1
 62
3
 10
246.7563630493037
 20
65.5631435693231
 30
0
 40
0.3499999999997954
  0
POLYLINE
  8
1
 62
3
 66
1
  0
VERTEX
  8
1
 10
208.5131254388178
 20
288.8548359463371
 30
0
 42
-0.001154420490509919
  0
VERTEX
  8
1
 10
207.781533787962
 20
288.9334509709811
 30
0
 42
-0.003468734099921518
  0
VERTEX
  8
1
 10
207.0512767200073
 20
289.0187571180045
 30
0
 42
-0.005796547176633091
  0
VERTEX
  8
1
 10
206.3236888178545
 20
289.1174455097865
 30
0
 42
-0.008136977558681429
  0
VERTEX
  8
1
 10
205.6001046644049
 20
289.2362072687066
 30
0
 42
-0.0175684670086953
  0
VERTEX
  8
1
 10
204.4039514769286
 20
289.4962290434002
 30
0
 42
-0.003142605946872882
  0
VERTEX
  8
1
 10
203.9278404241211
 20
289.6197837261233
 30
0
 42
-5.559773153007576e-005
  0
VERTEX
  8
1
 10
203.4523256851016
 20
289.7464342834468
 30
0
 42
0.003030683839550111
  0
VERTEX
  8
1
 10
202.9762072608352
 20
289.8702174335039
 30
0
 42
0.006125008534305519
  0
VERTEX
  8
1
 10
202.4982851522865
 20
289.9851698944279
 30
0
 42
0.009595418813378597
  0
VERTEX
  8
1
 10
201.8499670356863
 20
290.1196993622131
 30
0
 42
0.003443420274585819
  0
VERTEX
  8
1
 10
201.1980723899937
 20
290.2373309632789
 30
0
 42
0.001921277061839528
  0
VERTEX
  8
1
 10
200.5444811588678
 20
290.3480414681805
 30
0
 42
-0.00305980764169906
  0
VERTEX
  8
1
 10
199.8910732859674
 20
290.4618076474735
 30
0
 42
-0.006880434131528512
  0
VERTEX
  8
1
 10
199.2397287149516
 20
290.5886062717128
 30
0
 42
-0.005683946695435814
  0
VERTEX
  8
1
 10
198.6542049353332
 20
290.7196429200467
 30
0
 42
-0.001199148558302069
  0
VERTEX
  8
1
 10
198.0703375855815
 20
290.8587718570073
 30
0
 42
0.003285732452804951
  0
VERTEX
  8
1
 10
197.4865654826562
 20
290.9953102916678
 30
0
 42
0.007799462787616488
  0
VERTEX
  8
1
 10
196.901327443517
 20
291.1185754331011
 30
0
 42
0.01237618344513907
  0
VERTEX
  8
1
 10
196.3130622851235
 20
291.2178844903804
 30
0
 42
0.01495152526744192
  0
VERTEX
  8
1
 10
195.6981397347317
 20
291.2874114565005
 30
0
 42
0.009328849676464392
  0
VERTEX
  8
1
 10
195.0792637461203
 20
291.3270923828796
 30
0
 42
0.008782865382999522
  0
VERTEX
  8
1
 10
194.4574226788443
 20
291.344388779453
 30
0
 42
0.003218905574745387
  0
VERTEX
  8
1
 10
193.8336048924584
 20
291.346762156156
 30
0
 42
0.002755082482875018
  0
VERTEX
  8
1
 10
193.2087987465177
 20
291.3416740229237
 30
0
  0
SEQEND
  8
1
  0
POLYLINE
  8
1
 62
3
 66
1
  0
VERTEX
  8
1
 10
209.5352456900887
 20
287.754017919659
 30
0
 42
-7.052380750284413e-005
  0
VERTEX
  8
1
 10
209.2447453276271
 20
287.7773931979054
 30
0
 42
-0.0002115044989212254
  0
VERTEX
  8
1
 10
208.9542122429484
 20
287.8009360678854
 30
0
 42
-0.0003522839047036407
  0
VERTEX
  8
1
 10
208.6636137138357
 20
287.8248141213327
 30
0
 42
-0.0004927261341811376
  0
VERTEX
  8
1
 10
208.3729170180719
 20
287.8491949499812
 30
0
 42
-0.00063269276776069
  0
VERTEX
  8
1
 10
208.0820894334401
 20
287.8742461455643
 30
0
 42
-0.002829224898409198
  0
VERTEX
  8
1
 10
207.4124795239639
 20
287.9360842418813
 30
0
 42
-0.005262177555174684
  0
VERTEX
  8
1
 10
206.7437929349428
 20
288.0087641150101
 30
0
 42
-0.007717915863626467
  0
VERTEX
  8
1
 10
206.077819514026
 20
288.0986894930002
 30
0
 42
-0.01019790816413201
  0
VERTEX
  8
1
 10
205.4163491088628
 20
288.2122641039007
 30
0
 42
-0.02165487244655102
  0
VERTEX
  8
1
 10
204.2954693524528
 20
288.4792395321387
 30
0
 42
-0.003174607387795471
  0
VERTEX
  8
1
 10
203.832112383252
 20
288.6128179639954
 30
0
 42
0.001341736710592681
  0
VERTEX
  8
1
 10
203.3692835161216
 20
288.7480832872783
 30
0
 42
0.005867617844068662
  0
VERTEX
  8
1
 10
202.9051656076834
 20
288.8764918179338
 30
0
 42
0.01043616403224773
  0
VERTEX
  8
1
 10
202.4379415145586
 20
288.989499871909
 30
0
 42
0.01572676402675777
  0
VERTEX
  8
1
 10
201.7968033639392
 20
289.1094764010695
 30
0
 42
0.004938296709170075
  0
VERTEX
  8
1
 10
201.149994411352
 20
289.2030438896032
 30
0
 42
0.001884020283140784
  0
VERTEX
  8
1
 10
200.5009160722274
 20
289.2879152056258
 30
0
 42
-0.00690936992239273
  0
VERTEX
  8
1
 10
199.8529697619959
 20
289.3818032172532
 30
0
 42
-0.01379629701620859
  0
VERTEX
  8
1
 10
199.2095568960877
 20
289.5024207926011
 30
0
 42
-0.0122455014735708
  0
VERTEX
  8
1
 10
198.6096196916729
 20
289.6507199595974
 30
0
 42
-0.004376625229235911
  0
VERTEX
  8
1
 10
198.0138378420793
 20
289.8191665323446
 30
0
 42
0.003443735131276013
  0
VERTEX
  8
1
 10
197.4193235879372
 20
289.9884600710062
 30
0
 42
0.01135075693028956
  0
VERTEX
  8
1
 10
196.8231891698775
 20
290.1393001357453
 30
0
 42
0.01951810480750529
  0
VERTEX
  8
1
 10
196.2225468285307
 20
290.2523862867254
 30
0
 42
0.02289053426954419
  0
VERTEX
  8
1
 10
195.628296504608
 20
290.3127861237083
 30
0
 42
0.013855852637474
  0
VERTEX
  8
1
 10
195.0283799856986
 20
290.3294738238515
 30
0
 42
0.013368617823413
  0
VERTEX
  8
1
 10
194.4242138205494
 20
290.3133774213649
 30
0
 42
0.004535915094007172
  0
VERTEX
  8
1
 10
193.8172145579069
 20
290.2754249504584
 30
0
 42
0.004326632835593986
  0
VERTEX
  8
1
 10
193.2087987465177
 20
290.226544445342
 30
0
  0
SEQEND
  8
1
  0
POLYLINE
  8
1
 62
3
 66
1
  0
VERTEX
  8
1
 10
193.2087987465177
 20
301.254017919659
 30
0
 42
-0.001607743817768172
  0
VERTEX
  8
1
 10
194.116927665453
 20
301.2503525068112
 30
0
 42
-0.004839459238667839
  0
VERTEX
  8
1
 10
195.0234104777661
 20
301.2350132390596
 30
0
 42
-0.008112118624322312
  0
VERTEX
  8
1
 10
195.9266010768347
 20
301.1963262615007
 30
0
 42
-0.01142630948611894
  0
VERTEX
  8
1
 10
196.8248533560367
 20
301.1226177192306
 30
0
 42
-0.01474034783442831
  0
VERTEX
  8
1
 10
197.7165212087498
 20
301.0022137573458
 30
0
 42
-0.01091907975233253
  0
VERTEX
  8
1
 10
198.3306562743537
 20
300.8860598166822
 30
0
 42
-0.01003733773340101
  0
VERTEX
  8
1
 10
198.9405156920339
 20
300.7440133238749
 30
0
 42
-0.009167219348214104
  0
VERTEX
  8
1
 10
199.5457881565777
 20
300.578296042686
 30
0
 42
-0.008316733795589257
  0
VERTEX
  8
1
 10
200.1461623627718
 20
300.3911297368779
 30
0
 42
-0.02049271564575864
  0
VERTEX
  8
1
 10
201.7599115594166
 20
299.784056524564
 30
0
 42
-0.01613454575085823
  0
VERTEX
  8
1
 10
202.7522547901462
 20
299.3240157769642
 30
0
 42
-0.01882779289651546
  0
VERTEX
  8
1
 10
203.7087536076935
 20
298.796502264815
 30
0
 42
-0.02154182287545707
  0
VERTEX
  8
1
 10
204.6198049221596
 20
298.1934043255182
 30
0
 42
-0.02412403713672448
  0
VERTEX
  8
1
 10
205.4758056436455
 20
297.5066102964752
 30
0
 42
-0.0183707184758511
  0
VERTEX
  8
1
 10
206.2933906689596
 20
296.7186576378591
 30
0
 42
-0.003824838419023379
  0
VERTEX
  8
1
 10
207.0786786662208
 20
295.8918714350397
 30
0
 42
0.01068385427300135
  0
VERTEX
  8
1
 10
207.8672491434128
 20
295.0838023238467
 30
0
 42
0.02605597401748485
  0
VERTEX
  8
1
 10
208.6946816085188
 20
294.3520009401098
 30
0
 42
0.04330280254898389
  0
VERTEX
  8
1
 10
209.5965555695225
 20
293.754017919659
 30
0
 42
0.03453843384904422
  0
VERTEX
  8
1
 10
210.2592946508647
 20
293.4501599544121
 30
0
 42
0.01926728948015931
  0
VERTEX
  8
1
 10
210.9618401015781
 20
293.2155406326631
 30
0
 42
0.01966704674601712
  0
VERTEX
  8
1
 10
211.69424032932
 20
293.0328502935376
 30
0
 42
0.005391877216709828
  0
VERTEX
  8
1
 10
212.4465437417475
 20
292.8847792761611
 30
0
 42
0.006832092944606717
  0
VERTEX
  8
1
 10
213.2087987465178
 20
292.754017919659
 30
0
  0
SEQEND
  8
1
  0
POLYLINE
  8
1
 62
3
 66
1
  0
VERTEX
  8
1
 10
193.2087987465177
 20
300.254017919659
 30
0
 42
-0.001607743817768172
  0
VERTEX
  8
1
 10
194.116927665453
 20
300.2503525068112
 30
0
 42
-0.004839459238542381
  0
VERTEX
  8
1
 10
195.0234104777661
 20
300.2350132390596
 30
0
 42
-0.008112118624322312
  0
VERTEX
  8
1
 10
195.9266010768347
 20
300.1963262615007
 30
0
 42
-0.01142630948611894
  0
VERTEX
  8
1
 10
196.8248533560367
 20
300.1226177192306
 30
0
 42
-0.01474034783455357
  0
VERTEX
  8
1
 10
197.7165212087498
 20
300.0022137573458
 30
0
 42
-0.01091907975224259
  0
VERTEX
  8
1
 10
198.3306562743537
 20
299.8860598166822
 30
0
 42
-0.01003733773349005
  0
VERTEX
  8
1
 10
198.9405156920339
 20
299.7440133238749
 30
0
 42
-0.009167219348127498
  0
VERTEX
  8
1
 10
199.5457881565777
 20
299.578296042686
 30
0
 42
-0.008316733795330556
  0
VERTEX
  8
1
 10
200.1461623627718
 20
299.3911297368779
 30
0
 42
-0.02049271564586305
  0
VERTEX
  8
1
 10
201.7599115594166
 20
298.784056524564
 30
0
 42
-0.01613454575095241
  0
VERTEX
  8
1
 10
202.7522547901462
 20
298.3240157769642
 30
0
 42
-0.01882779289651546
  0
VERTEX
  8
1
 10
203.7087536076935
 20
297.796502264815
 30
0
 42
-0.02154182287545707
  0
VERTEX
  8
1
 10
204.6198049221596
 20
297.1934043255182
 30
0
 42
-0.02412403713680558
  0
VERTEX
  8
1
 10
205.4758056436455
 20
296.5066102964752
 30
0
 42
-0.01837071847592318
  0
VERTEX
  8
1
 10
206.2933906689596
 20
295.7186576378591
 30
0
 42
-0.003824838418954655
  0
VERTEX
  8
1
 10
207.0786786662208
 20
294.8918714350397
 30
0
 42
0.01068385427300135
  0
VERTEX
  8
1
 10
207.8672491434128
 20
294.0838023238467
 30
0
 42
0.02605597401750415
  0
VERTEX
  8
1
 10
208.6946816085188
 20
293.3520009401099
 30
0
 42
0.04330280254892371
  0
VERTEX
  8
1
 10
209.5965555695225
 20
292.754017919659
 30
0
 42
0.03453843384912676
  0
VERTEX
  8
1
 10
210.2592946508647
 20
292.4501599544121
 30
0
 42
0.01926728948007135
  0
VERTEX
  8
1
 10
210.9618401015781
 20
292.2155406326631
 30
0
 42
0.01966704674610714
  0
VERTEX
  8
1
 10
211.6942403293199
 20
292.0328502935376
 30
0
 42
0.005391877216621507
  0
VERTEX
  8
1
 10
212.4465437417474
 20
291.8847792761611
 30
0
 42
0.006832092944695206
  0
VERTEX
  8
1
 10
213.2087987465177
 20
291.754017919659
 30
0
  0
SEQEND
  8
1
  0
POLYLINE
  8
1
 62
3
 66
1
  0
VERTEX
  8
1
 10
193.2087987465177
 20
298.754017919659
 30
0
 42
-0.001902789264483825
  0
VERTEX
  8
1
 10
193.9508645821954
 20
298.7998122800241
 30
0
 42
-0.005745277525823041
  0
VERTEX
  8
1
 10
194.6911542051548
 20
298.8341580502978
 30
0
 42
-0.009686512557536102
  0
VERTEX
  8
1
 10
195.4278914026776
 20
298.8456066403891
 30
0
 42
-0.0137492844428458
  0
VERTEX
  8
1
 10
196.1592999620457
 20
298.8227094602066
 30
0
 42
-0.01788295130671503
  0
VERTEX
  8
1
 10
196.8836036705407
 20
298.754017919659
 30
0
 42
-0.01866086244707637
  0
VERTEX
  8
1
 10
197.6435601908089
 20
298.6230111376902
 30
0
 42
-0.01353317069715441
  0
VERTEX
  8
1
 10
198.3970274527154
 20
298.4425122870621
 30
0
 42
-0.008418840654079505
  0
VERTEX
  8
1
 10
199.1475212349404
 20
298.2275168274184
 30
0
 42
-0.00342287677494026
  0
VERTEX
  8
1
 10
199.8985573161641
 20
297.9930202184029
 30
0
 42
0.001454396476900855
  0
VERTEX
  8
1
 10
200.6536514750667
 20
297.754017919659
 30
0
 42
0.00234110007499906
  0
VERTEX
  8
1
 10
201.4970296380728
 20
297.4940986910697
 30
0
 42
-0.008094591874605966
  0
VERTEX
  8
1
 10
202.3336874455756
 20
297.2217103228417
 30
0
 42
-0.01670365432666279
  0
VERTEX
  8
1
 10
203.1475798346123
 20
296.9114689815345
 30
0
 42
-0.02578314228303557
  0
VERTEX
  8
1
 10
203.9226617422202
 20
296.5379908337078
 30
0
 42
-0.07276438933756838
  0
VERTEX
  8
1
 10
205.3571922030149
 20
295.4555578950332
 30
0
 42
-0.01438878185762145
  0
VERTEX
  8
1
 10
206.0216013926654
 20
294.7591423409058
 30
0
 42
0.002813176268262921
  0
VERTEX
  8
1
 10
206.6707931018441
 20
294.0465518782808
 30
0
 42
0.02037324986591098
  0
VERTEX
  8
1
 10
207.3394447580072
 20
293.3776930018998
 30
0
 42
0.04059420823346165
  0
VERTEX
  8
1
 10
208.0622337886107
 20
292.8124722065048
 30
0
 42
0.05710425916608715
  0
VERTEX
  8
1
 10
208.9598502987901
 20
292.3582739661794
 30
0
 42
0.03290429397084462
  0
VERTEX
  8
1
 10
209.9452644632374
 20
292.0657473144914
 30
0
 42
0.03065123788449455
  0
VERTEX
  8
1
 10
210.9965268683858
 20
291.8944743542816
 30
0
 42
0.008913767507501298
  0
VERTEX
  8
1
 10
212.0916881006683
 20
291.8040371883906
 30
0
 42
0.00990990761975882
  0
VERTEX
  8
1
 10
213.2087987465177
 20
291.754017919659
 30
0
  0
SEQEND
  8
1
  0
POLYLINE
  8
1
 62
3
 66
1
  0
VERTEX
  8
1
 10
193.2087987465177
 20
297.754017919659
 30
0
 42
-0.001829921716480956
  0
VERTEX
  8
1
 10
193.9500137928449
 20
297.7979446847722
 30
0
 42
-0.005521412245368856
  0
VERTEX
  8
1
 10
194.6896653237915
 20
297.8308897586072
 30
0
 42
-0.009297014988874338
  0
VERTEX
  8
1
 10
195.4261898239768
 20
297.8418714498855
 30
0
 42
-0.01317426561348534
  0
VERTEX
  8
1
 10
196.1580237780201
 20
297.8199080673289
 30
0
 42
-0.01710602726133167
  0
VERTEX
  8
1
 10
196.8836036705407
 20
297.754017919659
 30
0
 42
-0.01816776250884552
  0
VERTEX
  8
1
 10
197.6458454691553
 20
297.6280276261859
 30
0
 42
-0.01395037294209765
  0
VERTEX
  8
1
 10
198.4016257297675
 20
297.4526061139121
 30
0
 42
-0.009739958315310238
  0
VERTEX
  8
1
 10
199.153289871525
 20
297.2401797483748
 30
0
 42
-0.005623898474799023
  0
VERTEX
  8
1
 10
199.9031833135755
 20
297.0031748951113
 30
0
 42
-0.001607917713915333
  0
VERTEX
  8
1
 10
200.6536514750667
 20
296.754017919659
 30
0
 42
-0.003035046830079574
  0
VERTEX
  8
1
 10
201.5009305503334
 20
296.4673881205438
 30
0
 42
-0.01003263971667983
  0
VERTEX
  8
1
 10
202.3377097037875
 20
296.1597776784244
 30
0
 42
-0.01731546574560477
  0
VERTEX
  8
1
 10
203.1497729826453
 20
295.8098569611152
 30
0
 42
-0.02487359489831243
  0
VERTEX
  8
1
 10
203.9229044341229
 20
295.3962963364302
 30
0
 42
-0.03223808317310111
  0
VERTEX
  8
1
 10
204.6428881054366
 20
294.8977661721838
 30
0
 42
-0.02888700042257632
  0
VERTEX
  8
1
 10
205.3488434115979
 20
294.2578937136724
 30
0
 42
-0.01142416437683848
  0
VERTEX
  8
1
 10
206.0104698278481
 20
293.5538578438885
 30
0
 42
0.005159818166298224
  0
VERTEX
  8
1
 10
206.6610531593352
 20
292.8439702199554
 30
0
 42
0.02241317470667327
  0
VERTEX
  8
1
 10
207.3338792112068
 20
292.1865424989964
 30
0
 42
0.04260597243949507
  0
VERTEX
  8
1
 10
208.0622337886107
 20
291.6398863381347
 30
0
 42
0.05849288245864968
  0
VERTEX
  8
1
 10
208.9612410191542
 20
291.2146387554419
 30
0
 42
0.0336391002891436
  0
VERTEX
  8
1
 10
209.9471187570562
 20
290.9547737720808
 30
0
 42
0.03098575730260028
  0
VERTEX
  8
1
 10
210.9981493754773
 20
290.8189457382186
 30
0
 42
0.009028684574776621
  0
VERTEX
  8
1
 10
212.0926152475777
 20
290.7658090040223
 30
0
 42
0.009946353456387891
  0
VERTEX
  8
1
 10
213.2087987465177
 20
290.754017919659
 30
0
  0
SEQEND
  8
1
  0
POLYLINE
  8
1
 62
3
 66
1
  0
VERTEX
  8
1
 10
193.2087987465177
 20
296.254017919659
 30
0
 42
-0.001399310508407901
  0
VERTEX
  8
1
 10
193.8409782362231
 20
296.2741668067051
 30
0
 42
-0.004208486187273498
  0
VERTEX
  8
1
 10
194.4725504406019
 20
296.2872122263047
 30
0
 42
-0.007044180568926539
  0
VERTEX
  8
1
 10
195.1029080743276
 20
296.2860507110115
 30
0
 42
-0.009906475772613528
  0
VERTEX
  8
1
 10
195.7314438520737
 20
296.2635787933789
 30
0
 42
-0.0127679887451888
  0
VERTEX
  8
1
 10
196.3575504885137
 20
296.2126930059608
 30
0
 42
-0.01604707638822627
  0
VERTEX
  8
1
 10
197.1080367171592
 20
296.1066474078313
 30
0
 42
-0.01397860901112568
  0
VERTEX
  8
1
 10
197.8528145997272
 20
295.9553567245065
 30
0
 42
-0.01197752447280495
  0
VERTEX
  8
1
 10
198.5905865953912
 20
295.7651694301027
 30
0
 42
-0.0100652744519953
  0
VERTEX
  8
1
 10
199.3200551633249
 20
295.5424339987358
 30
0
 42
-0.008241774927314845
  0
VERTEX
  8
1
 10
200.0399227627017
 20
295.2934989045219
 30
0
 42
-0.00383855397406599
  0
VERTEX
  8
1
 10
200.5060682064573
 20
295.1195480475228
 30
0
 42
-0.001856704054535444
  0
VERTEX
  8
1
 10
200.9695088049008
 20
294.9405631329186
 30
0
 42
0.0001371936478803419
  0
VERTEX
  8
1
 10
201.4322168368617
 20
294.7600292932787
 30
0
 42
0.002130188905962061
  0
VERTEX
  8
1
 10
201.8961645811694
 20
294.5814316611723
 30
0
 42
0.004105463467965126
  0
VERTEX
  8
1
 10
202.3633243166534
 20
294.4082553691686
 30
0
 42
0.004136423690074091
  0
VERTEX
  8
1
 10
202.942089229336
 20
294.2044932384606
 30
0
 42
-0.004610467601049152
  0
VERTEX
  8
1
 10
203.5203498572043
 20
293.9982997855608
 30
0
 42
-0.01190343574349541
  0
VERTEX
  8
1
 10
204.0897897258124
 20
293.7738225019994
 30
0
 42
-0.01931776423046315
  0
VERTEX
  8
1
 10
204.6420923607142
 20
293.5152088793062
 30
0
 42
-0.0265895651260324
  0
VERTEX
  8
1
 10
205.1689412874636
 20
293.2066064090114
 30
0
 42
-0.02465029267624372
  0
VERTEX
  8
1
 10
205.7272624678854
 20
292.7902654170162
 30
0
 42
-0.007303506873369821
  0
VERTEX
  8
1
 10
206.2634362185378
 20
292.3347352512302
 30
0
 42
0.009583372171303357
  0
VERTEX
  8
1
 10
206.7982105051631
 20
291.884459421858
 30
0
 42
0.02737041927795464
  0
VERTEX
  8
1
 10
207.3523332935036
 20
291.4838814391041
 30
0
 42
0.04757618206166918
  0
VERTEX
  8
1
 10
207.9465525493015
 20
291.1774448131728
 30
0
 42
0.03703160076218526
  0
VERTEX
  8
1
 10
208.3606588570416
 20
291.0461565683241
 30
0
 42
0.0198071486195036
  0
VERTEX
  8
1
 10
208.7943138862947
 20
290.9612364662652
 30
0
 42
0.02086257844040347
  0
VERTEX
  8
1
 10
209.2415412787765
 20
290.9109143846472
 30
0
 42
0.004976522058824565
  0
VERTEX
  8
1
 10
209.6963646762028
 20
290.8834202011216
 30
0
 42
0.007214920840714491
  0
VERTEX
  8
1
 10
210.1528077202892
 20
290.8669837933392
 30
0
 42
-0.0005860077343951963
  0
VERTEX
  8
1
 10
210.7738553311994
 20
290.8460010512636
 30
0
 42
-0.0004655068744678219
  0
VERTEX
  8
1
 10
211.3883366716666
 20
290.8239446874143
 30
0
 42
-0.0003378585558058795
  0
VERTEX
  8
1
 10
211.9978933093016
 20
290.8010831072348
 30
0
 42
-0.0002048992799108464
  0
VERTEX
  8
1
 10
212.604166811715
 20
290.7776847161686
 30
0
 42
-6.866814293739505e-005
  0
VERTEX
  8
1
 10
213.2087987465177
 20
290.754017919659
 30
0
  0
SEQEND
  8
1
  0
POLYLINE
  8
1
 62
3
 66
1
  0
VERTEX
  8
1
 10
193.2087987465177
 20
295.254017919659
 30
0
 42
-0.001437466414749085
  0
VERTEX
  8
1
 10
193.8413832762446
 20
295.2749769905718
 30
0
 42
-0.004324802430527035
  0
VERTEX
  8
1
 10
194.4732592606396
 20
295.2886300480714
 30
0
 42
-0.007243808653308323
  0
VERTEX
  8
1
 10
195.1037181543707
 20
295.2876710787449
 30
0
 42
-0.01019656978478726
  0
VERTEX
  8
1
 10
195.7320514121061
 20
295.264794069179
 30
0
 42
-0.01315520811122033
  0
VERTEX
  8
1
 10
196.3575504885137
 20
295.2126930059608
 30
0
 42
-0.01633930251818806
  0
VERTEX
  8
1
 10
197.1067661805774
 20
295.1041060089918
 30
0
 42
-0.01378166540681872
  0
VERTEX
  8
1
 10
197.8502234273356
 20
294.95017371553
 30
0
 42
-0.0112793159795537
  0
VERTEX
  8
1
 10
198.5873100554807
 20
294.7586155104086
 30
0
 42
-0.008860671032301024
  0
VERTEX
  8
1
 10
199.3174138917053
 20
294.5371507784614
 30
0
 42
-0.006521860467581454
  0
VERTEX
  8
1
 10
200.0399227627017
 20
294.2934989045219
 30
0
 42
-0.003263998879637076
  0
VERTEX
  8
1
 10
200.5089657443355
 20
294.1253438660029
 30
0
 42
-0.002743206220185678
  0
VERTEX
  8
1
 10
200.9751570006483
 20
293.9518609722113
 30
0
 42
-0.00221434659723305
  0
VERTEX
  8
1
 10
201.4391669215393
 20
293.7739312441438
 30
0
 42
-0.001680038634066161
  0
VERTEX
  8
1
 10
201.9016658969079
 20
293.5924357027973
 30
0
 42
-0.001142648290337849
  0
VERTEX
  8
1
 10
202.3633243166534
 20
293.4082553691686
 30
0
 42
-0.003025283605815492
  0
VERTEX
  8
1
 10
202.9427342438681
 20
293.1724692795492
 30
0
 42
-0.006884513991906531
  0
VERTEX
  8
1
 10
203.5174379976065
 20
292.9252148328268
 30
0
 42
-0.01075366762059231
  0
VERTEX
  8
1
 10
204.0829984848186
 20
292.6578759475249
 30
0
 42
-0.01459082984926963
  0
VERTEX
  8
1
 10
204.6349786124544
 20
292.3618365421662
 30
0
 42
-0.01827915716369738
  0
VERTEX
  8
1
 10
205.1689412874636
 20
292.0284805352738
 30
0
 42
-0.01457721295466707
  0
VERTEX
  8
1
 10
205.7174301432022
 20
291.6290113037408
 30
0
 42
-0.001460479569297515
  0
VERTEX
  8
1
 10
206.2548809500851
 20
291.2106814734769
 30
0
 42
0.01170481162209111
  0
VERTEX
  8
1
 10
206.7958484552826
 20
290.8069826867695
 30
0
 42
0.02559818686937137
  0
VERTEX
  8
1
 10
207.3548874059646
 20
290.4514065859058
 30
0
 42
0.04086222631777918
  0
VERTEX
  8
1
 10
207.9465525493015
 20
290.1774448131728
 30
0
 42
0.03180568557315084
  0
VERTEX
  8
1
 10
208.3653044732772
 20
290.0532259604087
 30
0
 42
0.01804985857805364
  0
VERTEX
  8
1
 10
208.800191636609
 20
289.9701808386456
 30
0
 42
0.01830108516273587
  0
VERTEX
  8
1
 10
209.2463283550518
 20
289.9181990412812
 30
0
 42
0.005464783303498554
  0
VERTEX
  8
1
 10
209.6988289443603
 20
289.8871701617132
 30
0
 42
0.006549699693601177
  0
VERTEX
  8
1
 10
210.1528077202892
 20
289.8669837933392
 30
0
 42
0.0004093587785519726
  0
VERTEX
  8
1
 10
210.7717094022172
 20
289.8427355182122
 30
0
 42
0.0003245172124375486
  0
VERTEX
  8
1
 10
211.3854754330237
 20
289.8195906433458
 30
0
 42
0.0002340549038504828
  0
VERTEX
  8
1
 10
211.995389725489
 20
289.797273318675
 30
0
 42
0.0001422883527426269
  0
VERTEX
  8
1
 10
212.6027361923935
 20
289.7755076941344
 30
0
 42
4.708687547127498e-005
  0
VERTEX
  8
1
 10
213.2087987465177
 20
289.754017919659
 30
0
  0
SEQEND
  8
1
  0
POLYLINE
  8
1
 62
3
 66
1
  0
VERTEX
  8
1
 10
193.2087987465177
 20
293.754017919659
 30
0
 42
-0.001358152088046823
  0
VERTEX
  8
1
 10
193.8407149901852
 20
293.7792336732865
 30
0
 42
-0.004084509566323691
  0
VERTEX
  8
1
 10
194.4720897600356
 20
293.7975509808111
 30
0
 42
-0.006836327826037152
  0
VERTEX
  8
1
 10
195.1023815822519
 20
293.8020713961303
 30
0
 42
-0.00961451280047986
  0
VERTEX
  8
1
 10
195.731048983017
 20
293.7858964731408
 30
0
 42
-0.01239487570160196
  0
VERTEX
  8
1
 10
196.3575504885137
 20
293.7421277657402
 30
0
 42
-0.0172046020121062
  0
VERTEX
  8
1
 10
197.1850068630045
 20
293.6334486116958
 30
0
 42
-0.01506268212933416
  0
VERTEX
  8
1
 10
198.0060830266584
 20
293.4711810039633
 30
0
 42
-0.01298929339481195
  0
VERTEX
  8
1
 10
198.8191710766951
 20
293.262536307567
 30
0
 42
-0.01101450300657807
  0
VERTEX
  8
1
 10
199.6226631103345
 20
293.0147258875312
 30
0
 42
-0.009143100764615986
  0
VERTEX
  8
1
 10
200.4149512247965
 20
292.7349611088806
 30
0
 42
-0.003751510980003183
  0
VERTEX
  8
1
 10
200.8506214472719
 20
292.5683873056099
 30
0
 42
-0.00207286582479691
  0
VERTEX
  8
1
 10
201.2836174602458
 20
292.3970266329185
 30
0
 42
-0.0003846956452958389
  0
VERTEX
  8
1
 10
201.7152317893309
 20
292.223753028867
 30
0
 42
0.001309348898524874
  0
VERTEX
  8
1
 10
202.1467569601397
 20
292.0514404315155
 30
0
 42
0.003005986051633503
  0
VERTEX
  8
1
 10
202.5794854982847
 20
291.8829627789244
 30
0
 42
0.003951844712140998
  0
VERTEX
  8
1
 10
203.0434965474402
 20
291.7097018331793
 30
0
 42
0.001611805709484932
  0
VERTEX
  8
1
 10
203.5096531932244
 20
291.5415257675185
 30
0
 42
0.001288536037798034
  0
VERTEX
  8
1
 10
203.9772609136295
 20
291.3758853112358
 30
0
 42
-0.0005425218245663045
  0
VERTEX
  8
1
 10
204.4456251866481
 20
291.2102311936254
 30
0
 42
-0.001862584056962178
  0
VERTEX
  8
1
 10
204.9140514902726
 20
291.0420141439811
 30
0
 42
-0.001452496948317069
  0
VERTEX
  8
1
 10
205.5669597030003
 20
290.8013066178396
 30
0
 42
0.0026562368245552
  0
VERTEX
  8
1
 10
206.2205764942305
 20
290.5621229683538
 30
0
 42
0.006791582524720321
  0
VERTEX
  8
1
 10
206.8768413823597
 20
290.3359363209474
 30
0
 42
0.01103558094100112
  0
VERTEX
  8
1
 10
207.5376938857842
 20
290.1342198010438
 30
0
 42
0.0153598082047051
  0
VERTEX
  8
1
 10
208.2050735229006
 20
289.9684465340666
 30
0
 42
0.02443126801014918
  0
VERTEX
  8
1
 10
209.184551990279
 20
289.8064601245043
 30
0
 42
0.01606205456696792
  0
VERTEX
  8
1
 10
210.1782081758874
 20
289.7238741727292
 30
0
 42
0.01393493870889389
  0
VERTEX
  8
1
 10
211.1824976501683
 20
289.7008385642945
 30
0
 42
0.005770450064205433
  0
VERTEX
  8
1
 10
212.1938759835642
 20
289.7175031847534
 30
0
 42
0.003972978688976263
  0
VERTEX
  8
1
 10
213.2087987465177
 20
289.754017919659
 30
0
  0
SEQEND
  8
1
  0
POLYLINE
  8
1
 62
3
 66
1
  0
VERTEX
  8
1
 10
193.2087987465177
 20
292.754017919659
 30
0
 42
-0.001362471609755245
  0
VERTEX
  8
1
 10
193.8407427480263
 20
292.779324099952
 30
0
 42
-0.004097610774240974
  0
VERTEX
  8
1
 10
194.4721383362576
 20
292.7977092274758
 30
0
 42
-0.006858595752736329
  0
VERTEX
  8
1
 10
195.1024370979342
 20
292.8022522494613
 30
0
 42
-0.009646437364310815
  0
VERTEX
  8
1
 10
195.7310906197787
 20
292.7860321131392
 30
0
 42
-0.01243679960362065
  0
VERTEX
  8
1
 10
196.3575504885137
 20
292.7421277657405
 30
0
 42
-0.01723934499776149
  0
VERTEX
  8
1
 10
197.1849086919177
 20
292.6331287999366
 30
0
 42
-0.01504120646969837
  0
VERTEX
  8
1
 10
198.0058806466067
 20
292.4705217108609
 30
0
 42
-0.01291158192507465
  0
VERTEX
  8
1
 10
198.8189135732221
 20
292.2616974390013
 30
0
 42
-0.01088102849109527
  0
VERTEX
  8
1
 10
199.6224546924049
 20
292.0140469248453
 30
0
 42
-0.008953596705439987
  0
VERTEX
  8
1
 10
200.4149512247965
 20
291.7349611088806
 30
0
 42
-0.00370378141841321
  0
VERTEX
  8
1
 10
200.8508117088637
 20
291.5690071204296
 30
0
 42
-0.002172491294249384
  0
VERTEX
  8
1
 10
201.283983617423
 20
291.3982194624459
 30
0
 42
-0.0006319289789205065
  0
VERTEX
  8
1
 10
201.7156787112974
 20
291.2252089656922
 30
0
 42
0.0009139763724358691
  0
VERTEX
  8
1
 10
202.1471087513103
 20
291.0525864609309
 30
0
 42
0.002461932441367413
  0
VERTEX
  8
1
 10
202.5794854982847
 20
290.8829627789244
 30
0
 42
0.00347315035383173
  0
VERTEX
  8
1
 10
203.042823719013
 20
290.7075099613141
 30
0
 42
0.002008603979350835
  0
VERTEX
  8
1
 10
203.5082837625872
 20
290.5370645759824
 30
0
 42
0.002047564781424821
  0
VERTEX
  8
1
 10
203.9755312949961
 20
290.3702507359616
 30
0
 42
0.0005824769216038275
  0
VERTEX
  8
1
 10
204.4442319822283
 20
290.2056925542838
 30
0
 42
0.0006242501460350026
  0
VERTEX
  8
1
 10
204.9140514902726
 20
290.0420141439811
 30
0
 42
0.0003363676650478508
  0
VERTEX
  8
1
 10
205.5653416551851
 20
289.8165161634322
 30
0
 42
0.005230759132295863
  0
VERTEX
  8
1
 10
206.2191106131279
 20
289.5982807458735
 30
0
 42
0.006236406617792505
  0
VERTEX
  8
1
 10
206.8763366918772
 20
289.3955193602657
 30
0
 42
0.011230599243354
  0
VERTEX
  8
1
 10
207.5379982192093
 20
289.2164434755693
 30
0
 42
0.01235024403533375
  0
VERTEX
  8
1
 10
208.2050735229006
 20
289.0692645607447
 30
0
 42
0.02178204566643908
  0
VERTEX
  8
1
 10
209.1894783631234
 20
288.921596037794
 30
0
 42
0.01290993169172052
  0
VERTEX
  8
1
 10
210.1847766730132
 20
288.8422806036788
 30
0
 42
0.0128793355732071
  0
VERTEX
  8
1
 10
211.1882450851535
 20
288.8142299861905
 30
0
 42
0.004130453161865986
  0
VERTEX
  8
1
 10
212.1971602321272
 20
288.82035591312
 30
0
 42
0.004305287327020247
  0
VERTEX
  8
1
 10
213.2087987465177
 20
288.8435701122585
 30
0
  0
SEQEND
  8
1
  0
POLYLINE
  8
1
 62
3
 66
1
  0
VERTEX
  8
1
 10
193.2087987465177
 20
286.254017919659
 30
0
 42
-0.001012204111019176
  0
VERTEX
  8
1
 10
193.8400385874194
 20
286.2733369259319
 30
0
 42
-0.003041506933752782
  0
VERTEX
  8
1
 10
194.4709060551955
 20
286.2875281995681
 30
0
 42
-0.005083541123795067
  0
VERTEX
  8
1
 10
195.1010287767203
 20
286.2914640079309
 30
0
 42
-0.007140173251190555
  0
VERTEX
  8
1
 10
195.7300343788683
 20
286.2800166183837
 30
0
 42
-0.02015103824148581
  0
VERTEX
  8
1
 10
197.0946210672984
 20
286.1805985796422
 30
0
 42
-0.005713191267175618
  0
VERTEX
  8
1
 10
197.8302508394516
 20
286.0899738697809
 30
0
 42
-0.001504699509094726
  0
VERTEX
  8
1
 10
198.5655825496314
 20
285.9885957520415
 30
0
 42
0.002686391856148353
  0
VERTEX
  8
1
 10
199.3017589424954
 20
285.8888758097594
 30
0
 42
0.00687485721674299
  0
VERTEX
  8
1
 10
200.0399227627016
 20
285.8032256262703
 30
0
 42
0.006540794940932419
  0
VERTEX
  8
1
 10
200.5039574455479
 20
285.7619649729842
 30
0
 42
0.006046787787773474
  0
VERTEX
  8
1
 10
200.968768298344
 20
285.7324054945609
 30
0
 42
0.007915314743080491
  0
VERTEX
  8
1
 10
201.4339019651121
 20
285.715846542338
 30
0
 42
0.007448605158241777
  0
VERTEX
  8
1
 10
201.8989050898746
 20
285.7135874676536
 30
0
 42
0.01990100913000759
  0
VERTEX
  8
1
 10
202.9267484576386
 20
285.7648530503908
 30
0
 42
0.006705255688161493
  0
VERTEX
  8
1
 10
203.4888306389549
 20
285.822977334272
 30
0
 42
0.006951790059378019
  0
VERTEX
  8
1
 10
204.0497624468597
 20
285.8965153328049
 30
0
 42
0.002464144041417181
  0
VERTEX
  8
1
 10
204.6097354676102
 20
285.980681905305
 30
0
 42
0.002737693092489712
  0
VERTEX
  8
1
 10
205.1689412874636
 20
286.0706919110879
 30
0
 42
-0.0001339878577999579
  0
VERTEX
  8
1
 10
205.7238261098106
 20
286.1614623379927
 30
0
 42
-0.001401259120548985
  0
VERTEX
  8
1
 10
206.2785863737997
 20
286.2504648185197
 30
0
 42
-0.00267116650105378
  0
VERTEX
  8
1
 10
206.8336653527992
 20
286.3348874229197
 30
0
 42
-0.003942555143010172
  0
VERTEX
  8
1
 10
207.3895063201771
 20
286.4119182214432
 30
0
 42
-0.005212195614843785
  0
VERTEX
  8
1
 10
207.9465525493015
 20
286.478745284341
 30
0
 42
-0.004276427742072702
  0
VERTEX
  8
1
 10
208.3865677005037
 20
286.5227951659367
 30
0
 42
-0.003618960280930684
  0
VERTEX
  8
1
 10
208.8274036311109
 20
286.5599070366516
 30
0
 42
-0.002963333241836585
  0
VERTEX
  8
1
 10
209.2688575032158
 20
286.5912246427325
 30
0
 42
-0.00230990775909241
  0
VERTEX
  8
1
 10
209.710726478911
 20
286.6178917304259
 30
0
 42
-0.001658437888669381
  0
VERTEX
  8
1
 10
210.1528077202892
 20
286.6410520459786
 30
0
 42
-0.001659181814346874
  0
VERTEX
  8
1
 10
210.7639843067094
 20
286.6690638737208
 30
0
 42
-0.001291066999954896
  0
VERTEX
  8
1
 10
211.37517530568
 20
286.6934632661256
 30
0
 42
-0.0009224660059055051
  0
VERTEX
  8
1
 10
211.9863771140633
 20
286.7151533320273
 30
0
 42
-0.0005535777014993078
  0
VERTEX
  8
1
 10
212.5975861287217
 20
286.7350371802604
 30
0
 42
-0.0001845410468982386
  0
VERTEX
  8
1
 10
213.2087987465177
 20
286.754017919659
 30
0
  0
SEQEND
  8
1
  0
POLYLINE
  8
1
 62
3
 66
1
  0
VERTEX
  8
1
 10
193.2087987465177
 20
285.254017919659
 30
0
 42
-0.001012204111019176
  0
VERTEX
  8
1
 10
193.8400385874194
 20
285.2733369259319
 30
0
 42
-0.003041506933572702
  0
VERTEX
  8
1
 10
194.4709060551955
 20
285.2875281995681
 30
0
 42
-0.005083541123885441
  0
VERTEX
  8
1
 10
195.1010287767203
 20
285.2914640079309
 30
0
 42
-0.007140173251280932
  0
VERTEX
  8
1
 10
195.7300343788683
 20
285.2800166183837
 30
0
 42
-0.02015103824160288
  0
VERTEX
  8
1
 10
197.0946210672984
 20
285.1805985796422
 30
0
 42
-0.005713191267023512
  0
VERTEX
  8
1
 10
197.8302508394516
 20
285.0899738697809
 30
0
 42
-0.001504699509019009
  0
VERTEX
  8
1
 10
198.5655825496314
 20
284.9885957520415
 30
0
 42
0.002686391856300066
  0
VERTEX
  8
1
 10
199.3017589424954
 20
284.8888758097594
 30
0
 42
0.006874857216553188
  0
VERTEX
  8
1
 10
200.0399227627016
 20
284.8032256262703
 30
0
 42
0.006540794941160135
  0
VERTEX
  8
1
 10
200.5039574455479
 20
284.7619649729842
 30
0
 42
0.006046787787485249
  0
VERTEX
  8
1
 10
200.968768298344
 20
284.7324054945608
 30
0
 42
0.007915314743490467
  0
VERTEX
  8
1
 10
201.4339019651121
 20
284.715846542338
 30
0
 42
0.007448605157771016
  0
VERTEX
  8
1
 10
201.8989050898746
 20
284.7135874676536
 30
0
 42
0.01990100913050539
  0
VERTEX
  8
1
 10
202.9267484576386
 20
284.7648530503909
 30
0
 42
0.0067052556876375
  0
VERTEX
  8
1
 10
203.4888306389549
 20
284.8229773342721
 30
0
 42
0.006951790059851941
  0
VERTEX
  8
1
 10
204.0497624468597
 20
284.8965153328049
 30
0
 42
0.002464144040992962
  0
VERTEX
  8
1
 10
204.6097354676102
 20
284.980681905305
 30
0
 42
0.002737693092913821
  0
VERTEX
  8
1
 10
205.1689412874636
 20
285.0706919110879
 30
0
 42
-0.0001339878579995759
  0
VERTEX
  8
1
 10
205.7238261098106
 20
285.1614623379927
 30
0
 42
-0.001401259120548985
  0
VERTEX
  8
1
 10
206.2785863737997
 20
285.2504648185197
 30
0
 42
-0.00267116650105378
  0
VERTEX
  8
1
 10
206.8336653527992
 20
285.3348874229197
 30
0
 42
-0.003942555143010172
  0
VERTEX
  8
1
 10
207.3895063201771
 20
285.4119182214432
 30
0
 42
-0.005212195614843785
  0
VERTEX
  8
1
 10
207.9465525493015
 20
285.478745284341
 30
0
 42
-0.004276427742200602
  0
VERTEX
  8
1
 10
208.3865677005037
 20
285.5227951659368
 30
0
 42
-0.003618960281058805
  0
VERTEX
  8
1
 10
208.8274036311109
 20
285.5599070366516
 30
0
 42
-0.002963333241836585
  0
VERTEX
  8
1
 10
209.2688575032158
 20
285.5912246427325
 30
0
 42
-0.002309907759220752
  0
VERTEX
  8
1
 10
209.710726478911
 20
285.6178917304259
 30
0
 42
-0.001658437888797723
  0
VERTEX
  8
1
 10
210.1528077202892
 20
285.6410520459786
 30
0
 42
-0.001659181814344653
  0
VERTEX
  8
1
 10
210.7639843067095
 20
285.6690638737208
 30
0
 42
-0.001291066999767268
  0
VERTEX
  8
1
 10
211.37517530568
 20
285.6934632661256
 30
0
 42
-0.0009224660058093597
  0
VERTEX
  8
1
 10
211.9863771140633
 20
285.7151533320273
 30
0
 42
-0.0005535777015923445
  0
VERTEX
  8
1
 10
212.5975861287217
 20
285.7350371802604
 30
0
 42
-0.00018454104708409
  0
VERTEX
  8
1
 10
213.2087987465177
 20
285.754017919659
 30
0
  0
SEQEND
  8
1
  0
POLYLINE
  8
1
 62
3
 66
1
  0
VERTEX
  8
1
 10
193.2087987465177
 20
281.2540179196591
 30
0
 42
0.002401515546312261
  0
VERTEX
  8
1
 10
193.9532758084966
 20
281.1957097391066
 30
0
 42
0.007248840753243484
  0
VERTEX
  8
1
 10
194.6953738511819
 20
281.1519786036922
 30
0
 42
0.01229879808585419
  0
VERTEX
  8
1
 10
195.4327138552801
 20
281.1374015585541
 30
0
 42
0.01753962731825338
  0
VERTEX
  8
1
 10
196.1629168014976
 20
281.1665556488304
 30
0
 42
0.02289826929952988
  0
VERTEX
  8
1
 10
196.8836036705407
 20
281.2540179196591
 30
0
 42
0.02623792913380484
  0
VERTEX
  8
1
 10
197.6532768098677
 20
281.4253410626757
 30
0
 42
0.0153345102164417
  0
VERTEX
  8
1
 10
198.412028089005
 20
281.6618404480621
 30
0
 42
0.01262719634039784
  0
VERTEX
  8
1
 10
199.1629475789315
 20
281.9428365398566
 30
0
 42
0.002243745492186291
  0
VERTEX
  8
1
 10
199.9091253506258
 20
282.2476498020976
 30
0
 42
-0.002052424584146376
  0
VERTEX
  8
1
 10
200.6536514750667
 20
282.5556006988235
 30
0
 42
-0.004718784384062921
  0
VERTEX
  8
1
 10
201.4501932680687
 20
282.8700336213369
 30
0
 42
-0.002952234778128836
  0
VERTEX
  8
1
 10
202.2478826840505
 20
283.1708431098733
 30
0
 42
-0.001148070354276298
  0
VERTEX
  8
1
 10
203.0462248665682
 20
283.4644361371529
 30
0
 42
0.0006697605109458634
  0
VERTEX
  8
1
 10
203.8447249591781
 20
283.7572196758962
 30
0
 42
0.002482044596527224
  0
VERTEX
  8
1
 10
204.6428881054366
 20
284.0556006988235
 30
0
 42
0.001978882975322251
  0
VERTEX
  8
1
 10
205.3202326788188
 20
284.3157264942818
 30
0
 42
-0.002424872975764955
  0
VERTEX
  8
1
 10
205.9989086417829
 20
284.5742940982638
 30
0
 42
-0.005965402688230335
  0
VERTEX
  8
1
 10
206.6808468863733
 20
284.821093386989
 30
0
 42
-0.009563208241454705
  0
VERTEX
  8
1
 10
207.3679783046345
 20
285.0459142366772
 30
0
 42
-0.01321986738208683
  0
VERTEX
  8
1
 10
208.0622337886107
 20
285.2385465235482
 30
0
 42
-0.01938778054352313
  0
VERTEX
  8
1
 10
209.0693415493885
 20
285.4456139682645
 30
0
 42
-0.01499239441264095
  0
VERTEX
  8
1
 10
210.0912527973687
 20
285.5833659693179
 30
0
 42
-0.01059728124997053
  0
VERTEX
  8
1
 10
211.1242666607507
 20
285.6691313876245
 30
0
 42
-0.006296230251565861
  0
VERTEX
  8
1
 10
212.1646822677339
 20
285.7202390840996
 30
0
 42
-0.002086734309696642
  0
VERTEX
  8
1
 10
213.2087987465177
 20
285.754017919659
 30
0
  0
SEQEND
  8
1
  0
POLYLINE
  8
1
 62
3
 66
1
  0
VERTEX
  8
1
 10
193.2087987465177
 20
280.2540179196591
 30
0
 42
0.002401515546160492
  0
VERTEX
  8
1
 10
193.9532758084966
 20
280.1957097391066
 30
0
 42
0.00724884075339526
  0
VERTEX
  8
1
 10
194.6953738511819
 20
280.1519786036922
 30
0
 42
0.01229879808570251
  0
VERTEX
  8
1
 10
195.4327138552801
 20
280.1374015585541
 30
0
 42
0.01753962731836566
  0
VERTEX
  8
1
 10
196.1629168014976
 20
280.1665556488303
 30
0
 42
0.0228982692994965
  0
VERTEX
  8
1
 10
196.8836036705407
 20
280.2540179196591
 30
0
 42
0.02623792913380056
  0
VERTEX
  8
1
 10
197.6532768098677
 20
280.4253410626757
 30
0
 42
0.01533451021644664
  0
VERTEX
  8
1
 10
198.412028089005
 20
280.6618404480621
 30
0
 42
0.01262719634039218
  0
VERTEX
  8
1
 10
199.1629475789315
 20
280.9428365398566
 30
0
 42
0.002243745492191786
  0
VERTEX
  8
1
 10
199.9091253506258
 20
281.2476498020976
 30
0
 42
-0.002052424584146376
  0
VERTEX
  8
1
 10
200.6536514750667
 20
281.5556006988235
 30
0
 42
-0.004718784384062921
  0
VERTEX
  8
1
 10
201.4501932680687
 20
281.8700336213369
 30
0
 42
-0.002952234778128836
  0
VERTEX
  8
1
 10
202.2478826840505
 20
282.1708431098733
 30
0
 42
-0.001148070354276298
  0
VERTEX
  8
1
 10
203.0462248665682
 20
282.4644361371529
 30
0
 42
0.0006697605109458634
  0
VERTEX
  8
1
 10
203.8447249591781
 20
282.7572196758962
 30
0
 42
0.002482044596527224
  0
VERTEX
  8
1
 10
204.6428881054366
 20
283.0556006988235
 30
0
 42
0.001978882975285669
  0
VERTEX
  8
1
 10
205.3202326788188
 20
283.3157264942818
 30
0
 42
-0.002424872975824464
  0
VERTEX
  8
1
 10
205.9989086417829
 20
283.5742940982638
 30
0
 42
-0.005965402688216346
  0
VERTEX
  8
1
 10
206.6808468863733
 20
283.821093386989
 30
0
 42
-0.009563208241454705
  0
VERTEX
  8
1
 10
207.3679783046345
 20
284.0459142366772
 30
0
 42
-0.01321986738208683
  0
VERTEX
  8
1
 10
208.0622337886107
 20
284.2385465235482
 30
0
 42
-0.01938778054352313
  0
VERTEX
  8
1
 10
209.0693415493885
 20
284.4456139682645
 30
0
 42
-0.01499239441258654
  0
VERTEX
  8
1
 10
210.0912527973687
 20
284.583365969318
 30
0
 42
-0.01059728124992056
  0
VERTEX
  8
1
 10
211.1242666607507
 20
284.6691313876245
 30
0
 42
-0.006296230251620487
  0
VERTEX
  8
1
 10
212.1646822677339
 20
284.7202390840996
 30
0
 42
-0.00208673430958784
  0
VERTEX
  8
1
 10
213.2087987465177
 20
284.7540179196591
 30
0
  0
SEQEND
  8
1
  0
POLYLINE
  8
1
 62
3
 66
1
  0
VERTEX
  8
1
 10
193.2087987465177
 20
276.2540179196591
 30
0
 42
0.004358729398469223
  0
VERTEX
  8
1
 10
194.1779127971909
 20
276.2585451048452
 30
0
 42
0.01337584483503368
  0
VERTEX
  8
1
 10
195.1301344583075
 20
276.2967868050063
 30
0
 42
0.02383563990216842
  0
VERTEX
  8
1
 10
196.0485713403106
 20
276.4024575351173
 30
0
 42
0.03589190169524862
  0
VERTEX
  8
1
 10
196.9163310536436
 20
276.6092718101534
 30
0
 42
0.04895632414662922
  0
VERTEX
  8
1
 10
197.7165212087498
 20
276.9509441450895
 30
0
 42
0.04576326853644347
  0
VERTEX
  8
1
 10
198.3743046561129
 20
277.3940883573514
 30
0
 42
0.02110922930114344
  0
VERTEX
  8
1
 10
198.9842606458257
 20
277.9361447158349
 30
0
 42
0.01598160533307051
  0
VERTEX
  8
1
 10
199.5678054915223
 20
278.53782584466
 30
0
 42
-0.001092134691134674
  0
VERTEX
  8
1
 10
200.1463555068368
 20
279.1598443679463
 30
0
 42
-0.01369804711996477
  0
VERTEX
  8
1
 10
200.7413270054035
 20
279.7629129098137
 30
0
 42
-0.02555441647289364
  0
VERTEX
  8
1
 10
201.5972507605751
 20
280.4958845105982
 30
0
 42
-0.02143501596000931
  0
VERTEX
  8
1
 10
202.510355497389
 20
281.1395167447731
 30
0
 42
-0.01692967819406335
  0
VERTEX
  8
1
 10
203.4689462204413
 20
281.71047945384
 30
0
 42
-0.01233822321835113
  0
VERTEX
  8
1
 10
204.4613279343281
 20
282.2254424792999
 30
0
 42
-0.007800748263417891
  0
VERTEX
  8
1
 10
205.4758056436455
 20
282.7010756626544
 30
0
 42
-0.005362192224293067
  0
VERTEX
  8
1
 10
206.2826778873418
 20
283.055851415775
 30
0
 42
-0.007366627213632799
  0
VERTEX
  8
1
 10
207.0970861981851
 20
283.3894806089963
 30
0
 42
-0.009412356290832979
  0
VERTEX
  8
1
 10
207.9201333797681
 20
283.6948324266418
 30
0
 42
-0.0114936811927752
  0
VERTEX
  8
1
 10
208.752922235683
 20
283.9647760530353
 30
0
 42
-0.02517093435365948
  0
VERTEX
  8
1
 10
210.3090273315703
 20
284.3460261375633
 30
0
 42
-0.008504618118648581
  0
VERTEX
  8
1
 10
211.0281503425188
 20
284.4722195922055
 30
0
 42
-0.006047552492758589
  0
VERTEX
  8
1
 10
211.7522617901431
 20
284.5776740390321
 30
0
 42
-0.00361433953027443
  0
VERTEX
  8
1
 10
212.4796988622178
 20
284.6693024806482
 30
0
 42
-0.001202089796587969
  0
VERTEX
  8
1
 10
213.2087987465177
 20
284.7540179196591
 30
0
  0
SEQEND
  8
1
  0
POLYLINE
  8
1
 62
3
 66
1
  0
VERTEX
  8
1
 10
193.2087987465177
 20
275.2540179196591
 30
0
 42
0.004358729398469223
  0
VERTEX
  8
1
 10
194.1779127971909
 20
275.2585451048452
 30
0
 42
0.01337584483500386
  0
VERTEX
  8
1
 10
195.1301344583075
 20
275.2967868050062
 30
0
 42
0.02383563990225845
  0
VERTEX
  8
1
 10
196.0485713403106
 20
275.4024575351173
 30
0
 42
0.03589190169512734
  0
VERTEX
  8
1
 10
196.9163310536436
 20
275.6092718101534
 30
0
 42
0.04895632414675158
  0
VERTEX
  8
1
 10
197.7165212087498
 20
275.9509441450895
 30
0
 42
0.04576326853632209
  0
VERTEX
  8
1
 10
198.3743046561129
 20
276.3940883573514
 30
0
 42
0.02110922930126551
  0
VERTEX
  8
1
 10
198.9842606458257
 20
276.9361447158349
 30
0
 42
0.0159816053329257
  0
VERTEX
  8
1
 10
199.5678054915223
 20
277.53782584466
 30
0
 42
-0.001092134691180415
  0
VERTEX
  8
1
 10
200.1463555068368
 20
278.1598443679463
 30
0
 42
-0.01369804711996477
  0
VERTEX
  8
1
 10
200.7413270054035
 20
278.7629129098137
 30
0
 42
-0.02555441647285254
  0
VERTEX
  8
1
 10
201.5972507605751
 20
279.4958845105982
 30
0
 42
-0.02143501595984048
  0
VERTEX
  8
1
 10
202.510355497389
 20
280.1395167447732
 30
0
 42
-0.01692967819401937
  0
VERTEX
  8
1
 10
203.4689462204413
 20
280.71047945384
 30
0
 42
-0.01233822321844129
  0
VERTEX
  8
1
 10
204.4613279343281
 20
281.2254424792999
 30
0
 42
-0.007800748263417891
  0
VERTEX
  8
1
 10
205.4758056436455
 20
281.7010756626544
 30
0
 42
-0.005362192224234224
  0
VERTEX
  8
1
 10
206.2826778873418
 20
282.055851415775
 30
0
 42
-0.007366627213633243
  0
VERTEX
  8
1
 10
207.0970861981851
 20
282.3894806089962
 30
0
 42
-0.009412356290832757
  0
VERTEX
  8
1
 10
207.9201333797681
 20
282.6948324266419
 30
0
 42
-0.01149368119271435
  0
VERTEX
  8
1
 10
208.752922235683
 20
282.9647760530353
 30
0
 42
-0.02517093435365948
  0
VERTEX
  8
1
 10
210.3090273315703
 20
283.3460261375633
 30
0
 42
-0.008504618118878413
  0
VERTEX
  8
1
 10
211.0281503425188
 20
283.4722195922055
 30
0
 42
-0.006047552492835198
  0
VERTEX
  8
1
 10
211.7522617901431
 20
283.5776740390321
 30
0
 42
-0.00361433953027443
  0
VERTEX
  8
1
 10
212.4796988622178
 20
283.6693024806482
 30
0
 42
-0.001202089796587969
  0
VERTEX
  8
1
 10
213.2087987465177
 20
283.7540179196591
 30
0
  0
SEQEND
  8
1
  0
POLYLINE
  8
1
 62
3
 66
1
  0
VERTEX
  8
1
 10
209.5352456900887
 20
287.754017919659
 30
0
 42
0.02259622956507517
  0
VERTEX
  8
1
 10
210.7573684250805
 20
287.6426344334784
 30
0
 42
0.02274159424209491
  0
VERTEX
  8
1
 10
211.9818861105569
 20
287.6426344334784
 30
0
 42
0.02251383879707025
  0
VERTEX
  8
1
 10
213.2087987465177
 20
287.754017919659
 30
0
  0
SEQEND
  8
1
  0
POLYLINE
  8
1
 62
3
 66
1
  0
VERTEX
  8
1
 10
234.5746627443495
 20
286.7841967831415
 30
0
 42
0.04071025067890009
  0
VERTEX
  8
1
 10
234.8993423270061
 20
286.9979928577457
 30
0
 42
0.06199146047014994
  0
VERTEX
  8
1
 10
235.1025957017569
 20
287.2073572225107
 30
0
 42
0.0861916850381301
  0
VERTEX
  8
1
 10
235.2024695822678
 20
287.4125415499526
 30
0
 42
0.09222976083322654
  0
VERTEX
  8
1
 10
235.2170106822052
 20
287.6137975125874
 30
0
 42
0.07064619444112157
  0
VERTEX
  8
1
 10
235.1642657152351
 20
287.811376782931
 30
0
 42
0.04304327987042917
  0
VERTEX
  8
1
 10
235.0622813950238
 20
288.0055310334992
 30
0
 42
0.02162533274560949
  0
VERTEX
  8
1
 10
234.9291044352373
 20
288.1965119368082
 30
0
 42
0.005216753894936497
  0
VERTEX
  8
1
 10
234.7827815495418
 20
288.3845711653739
 30
0
 42
-0.01010100466112463
  0
VERTEX
  8
1
 10
234.6413594516035
 20
288.5699603917123
 30
0
 42
-0.02869426395840914
  0
VERTEX
  8
1
 10
234.5228848550886
 20
288.7529312883394
 30
0
 42
-0.0557310895248309
  0
VERTEX
  8
1
 10
234.4454044736632
 20
288.933735527771
 30
0
 42
-0.09207917610886797
  0
VERTEX
  8
1
 10
234.4269650209934
 20
289.1126247825232
 30
0
 42
-0.1128213517736015
  0
VERTEX
  8
1
 10
234.4856132107454
 20
289.2898507251119
 30
0
 42
-0.09080172897720434
  0
VERTEX
  8
1
 10
234.6393957565853
 20
289.4656650280531
 30
0
 42
-0.05754649676416715
  0
VERTEX
  8
1
 10
234.9063593721795
 20
289.6403193638628
 30
0
 42
-0.03525709866023669
  0
VERTEX
  8
1
 10
235.3045507711939
 20
289.814065405057
 30
0
  0
SEQEND
  8
1
  0
POLYLINE
  8
1
 62
3
 66
1
  0
VERTEX
  8
1
 10
233.1728017177028
 20
286.7540179196591
 30
0
 42
0.05080912477661186
  0
VERTEX
  8
1
 10
233.4305503942518
 20
286.9667836702779
 30
0
 42
0.06988837635705743
  0
VERTEX
  8
1
 10
233.5844641249696
 20
287.1805602282609
 30
0
 42
0.08041446078050206
  0
VERTEX
  8
1
 10
233.6518130209599
 20
287.3951533519081
 30
0
 42
0.07024993852514017
  0
VERTEX
  8
1
 10
233.6498671933261
 20
287.6103687995193
 30
0
 42
0.04773994140963594
  0
VERTEX
  8
1
 10
233.5958967531718
 20
287.8260123293946
 30
0
 42
0.02608758836502423
  0
VERTEX
  8
1
 10
233.5071718116006
 20
288.0418896998341
 30
0
 42
0.008309190313584475
  0
VERTEX
  8
1
 10
233.4009624797159
 20
288.2578066691378
 30
0
 42
-0.007700004216471243
  0
VERTEX
  8
1
 10
233.2945388686213
 20
288.4735689956057
 30
0
 42
-0.02496678281131287
  0
VERTEX
  8
1
 10
233.2051710894203
 20
288.6889824375375
 30
0
 42
-0.04605941347127692
  0
VERTEX
  8
1
 10
233.1501292532165
 20
288.9038527532335
 30
0
 42
-0.06985250210003453
  0
VERTEX
  8
1
 10
233.1466834711133
 20
289.1179857009938
 30
0
 42
-0.08496459672878116
  0
VERTEX
  8
1
 10
233.2121038542144
 20
289.3311870391181
 30
0
 42
-0.07831527128209012
  0
VERTEX
  8
1
 10
233.3636605136232
 20
289.5432625259066
 30
0
 42
-0.05838989814926518
  0
VERTEX
  8
1
 10
233.6186235604433
 20
289.7540179196591
 30
0
  0
SEQEND
  8
1
  0
POLYLINE
  8
1
 62
3
 66
1
  0
VERTEX
  8
1
 10
213.2087987465177
 20
283.7540179196591
 30
0
 42
-0.001257159032288146
  0
VERTEX
  8
1
 10
214.1152978031946
 20
283.7869874616557
 30
0
 42
0.01672185237808016
  0
VERTEX
  8
1
 10
215.0571149304626
 20
283.8506715423364
 30
0
 42
0.03588864036883491
  0
VERTEX
  8
1
 10
215.9800945207588
 20
284.0109328386209
 30
0
 42
0.05941825443860298
  0
VERTEX
  8
1
 10
216.8300809665203
 20
284.3336340274289
 30
0
 42
0.04885265694403307
  0
VERTEX
  8
1
 10
217.488698494711
 20
284.7835650805836
 30
0
 42
0.01888671491543681
  0
VERTEX
  8
1
 10
218.0955089760292
 20
285.3304558269371
 30
0
 42
-0.008828815731278082
  0
VERTEX
  8
1
 10
218.6971966546232
 20
285.8944194359362
 30
0
 42
-0.03690414509090946
  0
VERTEX
  8
1
 10
219.3404457746414
 20
286.3955690770279
 30
0
 42
-0.06556888939167509
  0
VERTEX
  8
1
 10
220.0719405802322
 20
286.754017919659
 30
0
  0
SEQEND
  8
1
  0
POLYLINE
  8
1
 62
3
 66
1
  0
VERTEX
  8
1
 10
213.2087987465177
 20
284.7540179196591
 30
0
 42
0.05088675466861809
  0
VERTEX
  8
1
 10
213.8746303108952
 20
284.6458059200667
 30
0
 42
0.04911865911494557
  0
VERTEX
  8
1
 10
214.513391303322
 20
284.6737451492871
 30
0
 42
0.04309929058849227
  0
VERTEX
  8
1
 10
215.1253562249395
 20
284.8172742546053
 30
0
 42
0.03504233058658119
  0
VERTEX
  8
1
 10
215.7107995768894
 20
285.0558318833063
 30
0
 42
0.02689835495065461
  0
VERTEX
  8
1
 10
216.2699958603133
 20
285.3688566826755
 30
0
 42
0.01955705333409924
  0
VERTEX
  8
1
 10
216.803219576353
 20
285.735787299998
 30
0
 42
0.01309512459632356
  0
VERTEX
  8
1
 10
217.3107452261499
 20
286.1360623825592
 30
0
 42
0.007177072648356869
  0
VERTEX
  8
1
 10
217.7928473108456
 20
286.5491205776438
 30
0
  0
VERTEX
  8
1
 10
218.0244502978873
 20
286.754017919659
 30
0
  0
SEQEND
  8
1
  0
POLYLINE
  8
1
 62
3
 66
1
  0
VERTEX
  8
1
 10
213.2087987465177
 20
285.754017919659
 30
0
 42
0.03319036030470859
  0
VERTEX
  8
1
 10
214.0414475943316
 20
285.7826581370947
 30
0
 42
0.03460150905413571
  0
VERTEX
  8
1
 10
214.8473091798905
 20
285.9219166429798
 30
0
 42
0.03473851473760999
  0
VERTEX
  8
1
 10
215.6263835031946
 20
286.1717934373144
 30
0
 42
0.03357139695122061
  0
VERTEX
  8
1
 10
216.3786705642436
 20
286.5322885200985
 30
0
  0
VERTEX
  8
1
 10
216.7447688714225
 20
286.754017919659
 30
0
  0
SEQEND
  8
1
  0
POLYLINE
  8
1
 62
3
 66
1
  0
VERTEX
  8
1
 10
213.2087987465178
 20
292.754017919659
 30
0
 42
-0.0546604111336679
  0
VERTEX
  8
1
 10
214.3120238514356
 20
292.82735125899
 30
0
 42
-0.05135122700112777
  0
VERTEX
  8
1
 10
215.4055734630781
 20
292.6669694783551
 30
0
 42
-0.05006728031370736
  0
VERTEX
  8
1
 10
216.444688425975
 20
292.2898900018024
 30
0
 42
-0.05119903610656994
  0
VERTEX
  8
1
 10
217.3846095846553
 20
291.7131302533795
 30
0
 42
-0.02216330777443807
  0
VERTEX
  8
1
 10
217.9415228548243
 20
291.2375147924628
 30
0
 42
0.003396894471913953
  0
VERTEX
  8
1
 10
218.4788958670851
 20
290.7425713337859
 30
0
 42
0.02951794661266335
  0
VERTEX
  8
1
 10
219.0406701818583
 20
290.2895243721956
 30
0
 42
0.05588776907663386
  0
VERTEX
  8
1
 10
219.6707873595641
 20
289.9395984025379
 30
0
 42
0.07410302475772544
  0
VERTEX
  8
1
 10
220.4131889606233
 20
289.754017919659
 30
0
  0
SEQEND
  8
1
  0
POLYLINE
  8
1
 62
3
 66
1
  0
VERTEX
  8
1
 10
213.2087987465177
 20
291.754017919659
 30
0
 42
-0.03995606799186865
  0
VERTEX
  8
1
 10
214.2497049318886
 20
291.7746029251913
 30
0
 42
-0.04484345164722876
  0
VERTEX
  8
1
 10
215.2240236123647
 20
291.6244228777597
 30
0
 42
-0.04740704220143475
  0
VERTEX
  8
1
 10
216.1317547879461
 20
291.3034777773644
 30
0
 42
-0.04670923927628066
  0
VERTEX
  8
1
 10
216.9728984586328
 20
290.8117676240051
 30
0
 42
-0.04301924621614007
  0
VERTEX
  8
1
 10
217.7474546244248
 20
290.149292417682
 30
0
  0
VERTEX
  8
1
 10
218.1097623929852
 20
289.754017919659
 30
0
  0
SEQEND
  8
1
  0
POLYLINE
  8
1
 62
3
 66
1
  0
VERTEX
  8
1
 10
213.2087987465177
 20
290.754017919659
 30
0
 42
-0.03245757378771665
  0
VERTEX
  8
1
 10
214.0212472359399
 20
290.7685054340977
 30
0
 42
-0.03477904894004336
  0
VERTEX
  8
1
 10
214.8023965169159
 20
290.675749191317
 30
0
 42
-0.03591000814404421
  0
VERTEX
  8
1
 10
215.5522465894455
 20
290.475749191317
 30
0
 42
-0.03559658832337014
  0
VERTEX
  8
1
 10
216.270797453529
 20
290.1685054340977
 30
0
 42
-0.03391144079502594
  0
VERTEX
  8
1
 10
216.9580491091662
 20
289.754017919659
 30
0
  0
SEQEND
  8
1
  0
ARC
  8
1
 62
3
 10
356.3240367806503
 20
136.171137922176
 30
0
 40
7
 50
180
 51
270
  0
ARC
  8
1
 62
3
 10
422.3240367806503
 20
136.171137922176
 30
0
 40
7
 50
270
 51
0
  0
ARC
  8
1
 62
3
 10
422.3240367806503
 20
202.171137922176
 30
0
 40
7
 50
0
 51
90
  0
ARC
  8
1
 62
3
 10
356.3240367806503
 20
202.171137922176
 30
0
 40
7
 50
90
 51
180
  0
ARC
  8
1
 62
3
 10
248.8865552767254
 20
137.6711379221762
 30
0
 40
0.5
 50
90
 51
156.421821521851
  0
ARC
  8
1
 62
3
 10
95.48007292873393
 20
164.141137922176
 30
0
 40
1.669999999999988
 50
270
 51
0
  0
ARC
  8
1
 62
3
 10
91.82007292873382
 20
164.141137922176
 30
0
 40
1.669999999999902
 50
180
 51
270
  0
ARC
  8
1
 62
3
 10
95.46007292873392
 20
164.161137922176
 30
0
 40
0.6899999999999977
 50
270
 51
0
  0
ARC
  8
1
 62
3
 10
95.46007292873392
 20
164.1688985749413
 30
0
 40
0.6899999999999977
 50
0
 51
90
  0
ARC
  8
1
 62
3
 10
91.84007292873392
 20
164.161137922176
 30
0
 40
0.6899999999999977
 50
180
 51
270
  0
ARC
  8
1
 62
3
 10
91.84007292873392
 20
164.1688985749413
 30
0
 40
0.6900000000001114
 50
90
 51
180
  0
ARC
  8
1
 62
3
 10
60.65007292873392
 20
136.171137922176
 30
0
 40
7
 50
180
 51
270
  0
ARC
  8
1
 62
3
 10
126.6500729287339
 20
136.171137922176
 30
0
 40
7
 50
270
 51
0
  0
ARC
  8
1
 62
3
 10
60.65007292873392
 20
202.171137922176
 30
0
 40
7
 50
90
 51
180
  0
ARC
  8
1
 62
3
 10
126.6500729287339
 20
202.171137922176
 30
0
 40
6.999999999999986
 50
0
 51
90
  0
ARC
  8
1
 62
3
 10
246.8062629116167
 20
129.3225179024807
 30
0
 40
0.3000000000000114
 50
270
 51
0
  0
ARC
  8
1
 62
3
 10
246.7662629116167
 20
129.3225179024809
 30
0
 40
0.2999999999998977
 50
180
 51
270
  0
ARC
  8
1
 62
3
 10
277.0862552767251
 20
197.971137922176
 30
0
 40
2.200000000000159
 50
0
 51
90
  0
ARC
  8
1
 62
3
 10
277.0862552767251
 20
140.371137922176
 30
0
 40
2.199999999999989
 50
270
 51
0
  0
ARC
  8
1
 62
3
 10
248.8865552767254
 20
200.6711379221763
 30
0
 40
0.5
 50
180
 51
270
  0
ARC
  8
1
 62
3
 10
307.4091025614042
 20
281.9588415013574
 30
0
 40
0.5
 50
180
 51
270
  0
ARC
  8
1
 62
3
 10
307.4091025614042
 20
285.9588415013566
 30
0
 40
0.5
 50
90
 51
180
  0
ARC
  8
1
 62
3
 10
307.4091025614042
 20
294.9588415013566
 30
0
 40
0.5
 50
180
 51
270
  0
ARC
  8
1
 62
3
 10
307.4091025614042
 20
298.9588415013566
 30
0
 40
0.5
 50
90
 51
180
  0
ARC
  8
1
 62
3
 10
318.0091025614041
 20
298.9588415013566
 30
0
 40
0.5
 50
0
 51
90
  0
ARC
  8
1
 62
3
 10
318.009102561404
 20
281.9588415013574
 30
0
 40
0.5
 50
270
 51
0
  0
ARC
  8
1
 62
3
 10
410.4234230079168
 20
145.5340896637422
 30
0
 40
0.8000000000002387
 50
180
 51
311.5783115319707
  0
ARC
  8
1
 62
3
 10
368.2234230079167
 20
145.5135809899819
 30
0
 40
0.7999999999999903
 50
228.2704652751503
 51
0
  0
ARC
  8
1
 62
3
 10
382.8234230079167
 20
199.7887798953913
 30
0
 40
0.7999999999999479
 50
349.2722664569577
 51
0
  0
ARC
  8
1
 62
3
 10
382.8234230079167
 20
200.1975782594108
 30
0
 40
0.7999999999998977
 50
0
 51
101.8322690484973
  0
ARC
  8
1
 62
3
 10
395.8234230079167
 20
200.1975782594108
 30
0
 40
0.8000000000000662
 50
78.16773095151069
 51
180
  0
ARC
  8
1
 62
3
 10
407.6234230079166
 20
137.6711514876241
 30
0
 40
2.000000000000216
 50
306.869897645843
 51
0
  0
ARC
  8
1
 62
3
 10
360.3234230079166
 20
140.1711379221756
 30
0
 40
3
 50
0
 51
90
  0
ARC
  8
1
 62
3
 10
360.3234230079166
 20
198.171137922176
 30
0
 40
3
 50
270
 51
0
  0
ARC
  8
1
 62
3
 10
418.3234230079167
 20
140.1711379221754
 30
0
 40
3
 50
90
 51
180
  0
ARC
  8
1
 62
3
 10
418.3234230079167
 20
198.171137922176
 30
0
 40
3
 50
180
 51
270
  0
ARC
  8
1
 62
3
 10
352.8234230079166
 20
193.671137922176
 30
0
 40
1.5
 50
90
 51
180
  0
ARC
  8
1
 62
3
 10
364.8234230079166
 20
205.671137922176
 30
0
 40
1.5
 50
90
 51
180
  0
ARC
  8
1
 62
3
 10
413.8234230079167
 20
205.671137922176
 30
0
 40
1.5
 50
0
 51
90
  0
ARC
  8
1
 62
3
 10
425.8234230079167
 20
193.671137922176
 30
0
 40
1.5
 50
0
 51
90
  0
ARC
  8
1
 62
3
 10
425.8234230079167
 20
144.6711379221754
 30
0
 40
1.5
 50
270
 51
0
  0
ARC
  8
1
 62
3
 10
352.8234230079166
 20
144.6711379221756
 30
0
 40
1.5
 50
180
 51
270
  0
ARC
  8
1
 62
3
 10
364.8234230079166
 20
130.9211379221756
 30
0
 40
1.5
 50
180
 51
270
  0
ARC
  8
1
 62
3
 10
413.8234230079167
 20
130.9211379221754
 30
0
 40
1.5
 50
270
 51
0
  0
ARC
  8
1
 62
3
 10
371.0234230079166
 20
137.6711514876246
 30
0
 40
2
 50
180
 51
233.1301023541575
  0
ARC
  8
1
 62
3
 10
407.8234230079158
 20
130.171137922176
 30
0
 40
1.00000000000091
 50
270
 51
0
  0
ARC
  8
1
 62
3
 10
370.8234230079167
 20
130.1711379221761
 30
0
 40
1
 50
180
 51
270
  0
ARC
  8
1
 62
3
 10
394.2134230079168
 20
201.161137922176
 30
0
 40
0.009999999999990905
 50
0
 51
90
  0
ARC
  8
1
 62
3
 10
384.4334230079169
 20
201.161137922176
 30
0
 40
0.009999999999990905
 50
90
 51
180
  0
ARC
  8
1
 62
3
 10
406.9868192778654
 20
132.6875924375509
 30
0
 40
0.03120000000007723
 50
45.00000000007382
 51
97.45844905599859
  0
ARC
  8
1
 62
3
 10
406.8600236426308
 20
132.6875924375509
 30
0
 40
0.03120000000020147
 50
82.54155094369089
 51
134.9999999998524
  0
ARC
  8
1
 62
3
 10
407.4076892340278
 20
133.2352580289478
 30
0
 40
0.03120000000017772
 50
135.0000000001845
 51
187.4584490561021
  0
ARC
  8
1
 62
3
 10
407.4076892340278
 20
133.1084623937133
 30
0
 40
0.03120000000017195
 50
172.5415509441049
 51
224.9999999998524
  0
ARC
  8
1
 62
3
 10
406.8600236426308
 20
133.6561279851101
 30
0
 40
0.03120000000003704
 50
225.0000000001477
 51
277.4584490563159
  0
ARC
  8
1
 62
3
 10
406.9868192778654
 20
133.6561279851101
 30
0
 40
0.03120000000015114
 50
262.5415509439947
 51
314.9999999997786
  0
ARC
  8
1
 62
3
 10
406.4391536864687
 20
133.1084623937133
 30
0
 40
0.03119999999995665
 50
314.9999999997047
 51
7.458449056003481
  0
ARC
  8
1
 62
3
 10
406.4391536864687
 20
133.2352580289478
 30
0
 40
0.0311999999997358
 50
352.5415509437895
 51
45.00000000025835
  0
ARC
  8
1
 62
3
 10
371.7868223732028
 20
132.687592437551
 30
0
 40
0.03120000000011743
 50
45
 51
97.45844905568808
  0
ARC
  8
1
 62
3
 10
371.6600267379683
 20
132.687592437551
 30
0
 40
0.03120000000020884
 50
82.5415509435874
 51
134.9999999997047
  0
ARC
  8
1
 62
3
 10
372.2076923293652
 20
133.235258028948
 30
0
 40
0.03120000000011743
 50
135
 51
187.4584490562845
  0
ARC
  8
1
 62
3
 10
372.2076923293652
 20
133.1084623937134
 30
0
 40
0.03120000000005553
 50
172.5415509441296
 51
225
  0
ARC
  8
1
 62
3
 10
371.6600267379683
 20
133.6561279851102
 30
0
 40
0.03119999999995665
 50
225.0000000002952
 51
277.4584490564126
  0
ARC
  8
1
 62
3
 10
371.7868223732028
 20
133.6561279851102
 30
0
 40
0.03120000000015719
 50
262.541550944312
 51
315
  0
ARC
  8
1
 62
3
 10
371.2391567818062
 20
133.1084623937134
 30
0
 40
0.03119999999999684
 50
314.9999999997786
 51
7.458449055938179
  0
ARC
  8
1
 62
3
 10
371.2391567818062
 20
133.235258028948
 30
0
 40
0.03119999999980324
 50
352.5415509436478
 51
45.00000000022143
  0
ARC
  8
1
 62
3
 10
395.8234230079167
 20
199.7887798953913
 30
0
 40
0.8000000000000682
 50
180
 51
190.7103357656683
  0
ARC
  8
1
 62
3
 10
402.0117057909254
 20
181.943863921849
 30
0
 40
1
 50
270
 51
0
  0
ARC
  8
1
 62
3
 10
402.0117057909254
 20
191.943863921849
 30
0
 40
1
 50
0
 51
90
  0
ARC
  8
1
 62
3
 10
376.0117057909254
 20
191.943863921849
 30
0
 40
1
 50
90
 51
180
  0
ARC
  8
1
 62
3
 10
376.0117057909254
 20
181.943863921849
 30
0
 40
1
 50
180
 51
270
  0
ARC
  8
1
 62
3
 10
248.8865552767254
 20
24.06314356932333
 30
0
 40
0.5
 50
90
 51
156.421821521851
  0
ARC
  8
1
 62
3
 10
277.0862552767252
 20
84.36314356932314
 30
0
 40
2.200000000000102
 50
0
 51
90
  0
ARC
  8
1
 62
3
 10
277.0862552767252
 20
26.76314356932321
 30
0
 40
2.200000000000109
 50
270
 51
0
  0
ARC
  8
1
 62
3
 10
248.8865552767254
 20
87.06314356932342
 30
0
 40
0.5
 50
180
 51
270
  0
ARC
  8
1
 62
3
 10
248.8865552767254
 20
24.06314356932333
 30
0
 40
0.5
 50
90
 51
180.0000000000586
  0
TEXT
  8
1
 62
2
 10
322.1091025614041
 20
278.0188415013574
 30
0
 40
3.199999999999997
  1
1
 50
90
 41
0.9000000000000015
 72
1
 73
2
 11
320.5091025614041
 21
279.4588415013574
 31
0
  0
TEXT
  8
1
 62
2
 10
322.109102561404
 20
300.0188415013566
 30
0
 40
3.199999999999997
  1
4
 50
90
 41
0.9000000000000015
 72
1
 73
2
 11
320.509102561404
 21
301.4588415013566
 31
0
  0
TEXT
  8
1
 62
2
 10
306.5091025614041
 20
278.0188415013574
 30
0
 40
3.199999999999997
  1
5
 50
90
 41
0.9000000000000015
 72
1
 73
2
 11
304.9091025614041
 21
279.4588415013574
 31
0
  0
TEXT
  8
1
 62
2
 10
306.5091025614043
 20
300.0188415013566
 30
0
 40
3.199999999999997
  1
8
 50
90
 41
0.9000000000000015
 72
1
 73
2
 11
304.9091025614043
 21
301.4588415013566
 31
0
  0
TEXT
  8
1
 62
2
 10
184.9087987465175
 20
270.8140179196591
 30
0
 40
3.199999999999997
  1
1
 50
90
 41
0.9000000000000015
 72
1
 73
2
 11
183.3087987465175
 21
272.2540179196591
 31
0
  0
TEXT
  8
1
 62
2
 10
184.9087987465175
 20
301.374017919659
 30
0
 40
3.199999999999997
  1
11
 50
90
 41
0.9000000000000015
 72
1
 73
2
 11
183.3087987465175
 21
304.254017919659
 31
0
  0
TEXT
  8
1
 62
2
 10
207.8144792814711
 20
-15.34070382780673
 30
0
 40
5
  1
FY8S25H-D3
 41
0.9
  0
TEXT
  8
1
 62
2
 10
250.6614556686955
 20
46.04022319718409
 30
0
 40
3
  1
11
 50
270
 41
0.9
 72
1
 73
2
 11
252.1614556686955
 21
43.34022319718409
 31
0
  0
TEXT
  8
1
 62
2
 10
250.5750229906877
 20
70.45400285695732
 30
0
 40
3
  1
1
 50
270
 41
0.9
 72
1
 73
2
 11
252.0750229906877
 21
69.10400285695732
 31
0
  0
TEXT
  8
1
 62
2
 10
226.0485329279725
 20
259.6446452601149
 30
0
 40
4
  1
付属ケーブル
 41
0.9
  0
ENDSEC
  0
EOF
