  0
SECTION
  2
HEADER
  9
$ACADVER
  1
AC1009
  9
$INSBASE
 10
0
 20
0
  9
$EXTMIN
 10
121.73025326118
 20
-9.256074993666941
  9
$EXTMAX
 10
471.8664910873138
 20
294.5531453718558
  9
$LIMMIN
 10
121.73025326118
 20
-9.256074993666941
  9
$LIMMAX
 10
471.8664910873138
 20
294.5531453718558
  9
$VIEWCTR
 10
10
 20
10
  9
$VIEWSIZE
 40
10
  9
$SNAPMODE
 70
0
  9
$SNAPUNIT
 10
1
 20
1
  9
$SNAPBASE
 10
0
 20
0
  9
$SNAPANG
 50
0
  9
$SNAPSTYLE
 70
0
  9
$SNAPISOPAIR
 70
0
  9
$GRIDMODE
 70
0
  9
$GRIDUNIT
 10
0
 20
0
  9
$ORTHOMODE
 70
0
  9
$REGENMODE
 70
1
  9
$FILLMODE
 70
1
  9
$QTEXTMODE
 70
0
  9
$DRAGMODE
 70
2
  9
$LTSCALE
 40
1
  9
$OSMODE
 70
0
  9
$ATTMODE
 70
1
  9
$TEXTSIZE
 40
3.5
  9
$TRACEWID
 40
0.5
  9
$TEXTSTYLE
  7
STANDARD
  9
$CLAYER
  8
0
  9
$CELTYPE
  6
BYLAYER
  9
$CECOLOR
 62
256
  9
$DIMSCALE
 40
1
  9
$DIMASZ
 40
0.18
  9
$DIMEXO
 40
0.0625
  9
$DIMDLI
 40
0.38
  9
$DIMRND
 40
0
  9
$DIMDLE
 40
0
  9
$DIMEXE
 40
0.18
  9
$DIMTP
 40
0
  9
$DIMTM
 40
0
  9
$DIMTXT
 40
0.18
  9
$DIMCEN
 40
0.09
  9
$DIMTSZ
 40
0
  9
$DIMTOL
 70
0
  9
$DIMLIM
 70
0
  9
$DIMTIH
 70
1
  9
$DIMTOH
 70
1
  9
$DIMSE1
 70
0
  9
$DIMSE2
 70
0
  9
$DIMTAD
 70
0
  9
$DIMZIN
 70
0
  9
$DIMBLK
  1

  9
$DIMASO
 70
1
  9
$DIMSHO
 70
1
  9
$DIMPOST
  1

  9
$DIMAPOST
  1

  9
$DIMALT
 70
0
  9
$DIMALTD
 70
2
  9
$DIMALTF
 40
25.4
  9
$DIMLFAC
 40
1
  9
$DIMTOFL
 70
0
  9
$DIMTVP
 40
0
  9
$DIMTIX
 70
0
  9
$DIMSOXD
 70
0
  9
$DIMSAH
 70
0
  9
$DIMBLK1
  1

  9
$DIMBLK2
  1

  9
$DIMSTYLE
  2
*UNNAMED
  9
$DIMCLRD
 70
0
  9
$DIMCLRE
 70
0
  9
$DIMCLRT
 70
0
  9
$DIMTFAC
 40
1
  9
$DIMGAP
 40
0.09
  9
$LUNITS
 70
2
  9
$LUPREC
 70
4
  9
$AXISMODE
 70
0
  9
$AXISUNIT
 10
0
 20
0
  9
$SKETCHINC
 40
0.1
  9
$FILLETRAD
 40
2
  9
$AUNITS
 70
0
  9
$AUPREC
 70
0
  9
$MENU
  1
ACAD
  9
$ELEVATION
 40
0
  9
$THICKNESS
 40
0
  9
$VIEWDIR
 10
0
 20
0
 30
1
  9
$LIMCHECK
 70
0
  9
$BLIPMODE
 70
1
  9
$CHAMFERA
 40
0
  9
$CHAMFERB
 40
0
  9
$FASTZOOM
 70
1
  9
$SKPOLY
 70
0
  9
$ANGBASE
 50
0
  9
$ANGDIR
 70
0
  9
$PDMODE
 70
0
  9
$PDSIZE
 40
0
  9
$PLINEWID
 40
0
  9
$COORDS
 70
2
  0
ENDSEC
  0
SECTION
  2
TABLES
  0
TABLE
  2
DIMSTYLE
 70
0
  0
ENDTAB
  0
TABLE
  2
LTYPE
 70
9
  0
LTYPE
  2
CONTINUOUS
 70
64
  3
Solid line
 72
65
 73
0
 40
0
  0
LTYPE
  2
BORDER
 70
64
  3
__ __ . __ __ .
 72
65
 73
6
 40
16.12469516304564
 49
4.607055760870182
 49
-2.303527880435091
 49
4.607055760870182
 49
-2.303527880435091
 49
0
 49
-2.303527880435091
  0
LTYPE
  2
CENTER
 70
64
  3
____ _ ____ _
 72
65
 73
4
 40
18.42822304348073
 49
11.51763940217546
 49
-2.303527880435091
 49
2.303527880435091
 49
-2.303527880435091
  0
LTYPE
  2
DASHDOT
 70
64
  3
__ . __ . __ .
 72
65
 73
4
 40
9.214111521740364
 49
4.607055760870182
 49
-2.303527880435091
 49
0
 49
-2.303527880435091
  0
LTYPE
  2
DASHED
 70
64
  3
__ __ __ __ __
 72
65
 73
2
 40
6.910583641305273
 49
4.607055760870182
 49
-2.303527880435091
  0
LTYPE
  2
DIVIDE
 70
64
  3
__ . . __ . . 
 72
65
 73
6
 40
11.51763940217546
 49
4.607055760870182
 49
-2.303527880435091
 49
0
 49
-2.303527880435091
 49
0
 49
-2.303527880435091
  0
LTYPE
  2
DOT
 70
64
  3
..............
 72
65
 73
4
 40
4.607055760870182
 49
0
 49
-2.303527880435091
 49
0
 49
-2.303527880435091
  0
LTYPE
  2
HIDDEN
 70
64
  3
_ _ _ _ _ _ _
 72
65
 73
2
 40
3.455291820652636
 49
2.303527880435091
 49
-1.151763940217546
  0
LTYPE
  2
PHANTOM
 70
64
  3
_____ _ _ _____ _ _ 
 72
65
 73
6
 40
23.03527880435091
 49
11.51763940217546
 49
-2.303527880435091
 49
2.303527880435091
 49
-2.303527880435091
 49
2.303527880435091
 49
-2.303527880435091
  0
ENDTAB
  0
TABLE
  2
LAYER
 70
3
  0
LAYER
  2
1
 70
0
 62
7
  6
CONTINUOUS
  0
LAYER
  2
0
 70
0
 62
7
  6
CONTINUOUS
  0
ENDTAB
  0
TABLE
  2
STYLE
 70
4
  0
STYLE
  2
STANDARD
 70
0
 40
0
 41
1
 50
0
 71
0
 42
3.5
  3
txt
  4

  0
STYLE
  2
SIMPLEX
 70
0
 40
0
 41
1
 50
0
 71
0
 42
3.5
  3
simplex
  4

  0
STYLE
  2
COMPLEX
 70
0
 40
0
 41
1
 50
0
 71
0
 42
3.5
  3
complex
  4

  0
STYLE
  2
ITALIC
 70
0
 40
0
 41
1
 50
0
 71
0
 42
3.5
  3
italic
  4

  0
ENDTAB
  0
TABLE
  2
VIEW
 70
0
  0
ENDTAB
  0
ENDSEC
  0
SECTION
  2
BLOCKS
  0
BLOCK
  8
0
  2
GI74421-02_____-10W
 70
0
 10
-211.8105529358386
 20
-255.0065145224606
 30
0
  0
ENDBLK
  8
0
  0
BLOCK
  8
0
  2
GI74421-18__-___6W
 70
0
 10
-70.14115682529587
 20
359.9570439024211
 30
0
  0
INSERT
  8
0
  2
GI74421-02_____-10W
 10
-211.8105529358386
 20
-255.0065145224606
 30
0
  0
ENDBLK
  8
0
  0
BLOCK
  8
0
  2
____6S5_5____11___I
 70
0
 10
86.15346403836928
 20
-22.07945328168586
 30
0
  0
INSERT
  8
0
  2
GI74421-18__-___6W
 10
-70.14115682529587
 20
359.9570439024211
 30
0
  0
ENDBLK
  8
0
  0
ENDSEC
  0
SECTION
  2
ENTITIES
  0
LINE
  8
1
 62
3
 10
288.3839811881501
 20
63.62502172705175
 30
0
 11
278.3839811881501
 21
63.62502172705175
 31
0
  0
LINE
  8
1
 62
3
 10
288.3839811881501
 20
56.82502172705173
 30
0
 11
278.3839811881501
 21
56.82502172705173
 31
0
  0
LINE
  8
1
 62
3
 10
278.3839811881501
 20
63.62502172705175
 30
0
 11
278.3839811881501
 21
56.82502172705173
 31
0
  0
LINE
  8
1
 62
1
  6
CENTER
 10
289.3839811881501
 20
62.92502172705176
 30
0
 11
276.3839811881501
 21
62.92502172705176
 31
0
  0
LINE
  8
1
 62
1
  6
CENTER
 10
276.3839811881501
 20
57.52502172705172
 30
0
 11
289.3839811881501
 21
57.52502172705172
 31
0
  0
LINE
  8
1
 62
2
 10
279.8839811881501
 20
63.62502172705175
 30
0
 11
285.5898586801557
 21
56.82502172705173
 31
0
  0
LINE
  8
1
 62
2
 10
280.8839811881501
 20
63.62502172705175
 30
0
 11
286.5898586801557
 21
56.82502172705173
 31
0
  0
LINE
  8
1
 62
2
 10
281.8839811881501
 20
63.62502172705175
 30
0
 11
287.5898586801557
 21
56.82502172705173
 31
0
  0
LINE
  8
1
 62
3
 10
288.3839811881501
 20
175.1675898413375
 30
0
 11
278.3839811881501
 21
175.1675898413375
 31
0
  0
LINE
  8
1
 62
3
 10
288.3839811881501
 20
168.3675898413375
 30
0
 11
278.3839811881501
 21
168.3675898413375
 31
0
  0
LINE
  8
1
 62
3
 10
278.3839811881501
 20
175.1675898413375
 30
0
 11
278.3839811881501
 21
168.3675898413375
 31
0
  0
LINE
  8
1
 62
1
  6
CENTER
 10
289.3839811881501
 20
174.4675898413375
 30
0
 11
276.3839811881501
 21
174.4675898413375
 31
0
  0
LINE
  8
1
 62
1
  6
CENTER
 10
276.3839811881501
 20
169.0675898413375
 30
0
 11
289.3839811881501
 21
169.0675898413375
 31
0
  0
LINE
  8
1
 62
2
 10
279.8839811881501
 20
175.1675898413375
 30
0
 11
285.5898586801557
 21
168.3675898413375
 31
0
  0
LINE
  8
1
 62
2
 10
280.8839811881501
 20
175.1675898413375
 30
0
 11
286.5898586801557
 21
168.3675898413375
 31
0
  0
LINE
  8
1
 62
2
 10
281.8839811881501
 20
175.1675898413375
 30
0
 11
287.5898586801557
 21
168.3675898413375
 31
0
  0
LINE
  8
1
 62
3
 10
302.48398118815
 20
42.62502172705171
 30
0
 11
301.9004344938995
 21
42.62502172705171
 31
0
  0
LINE
  8
1
 62
3
 10
301.9004344938995
 20
77.82502172705171
 30
0
 11
302.48398118815
 21
77.82502172705171
 31
0
  0
LINE
  8
1
 62
3
 10
321.7839811881497
 20
144.2675898413375
 30
0
 11
305.1839811881503
 21
144.2675898413374
 31
0
  0
LINE
  8
1
 62
3
 10
305.1839811881504
 20
199.2675898413374
 30
0
 11
321.7839811881497
 21
199.2675898413375
 31
0
  0
LINE
  8
1
 62
3
 10
170.4103982520666
 20
168.4630475129663
 30
0
 11
170.4103982520666
 21
166.6475898413379
 31
0
  0
LINE
  8
1
 62
3
 10
172.0103982520664
 20
168.4630475129663
 30
0
 11
172.0103982520664
 21
166.6475898413379
 31
0
  0
LINE
  8
1
 62
3
 10
173.6103982520666
 20
167.4475898413379
 30
0
 11
173.6103982520666
 21
167.7405240500678
 31
0
  0
LINE
  8
1
 62
3
 10
172.0103982520664
 20
166.6475898413379
 30
0
 11
172.8103982520665
 21
166.6475898413379
 31
0
  0
LINE
  8
1
 62
3
 10
168.8103982520665
 20
167.4475898413379
 30
0
 11
168.8103982520665
 21
167.7405240500678
 31
0
  0
LINE
  8
1
 62
3
 10
170.4103982520666
 20
166.6475898413379
 30
0
 11
169.6103982520666
 21
166.6475898413379
 31
0
  0
LINE
  8
1
 62
3
 10
149.7103982520665
 20
135.767589841338
 30
0
 11
149.7103982520665
 21
138.2675898413378
 31
0
  0
LINE
  8
1
 62
3
 10
190.7103982520665
 20
133.767589841338
 30
0
 11
151.7103982520663
 21
133.7675898413381
 31
0
  0
LINE
  8
1
 62
3
 10
192.7103982520668
 20
138.2675898413376
 30
0
 11
192.7103982520668
 21
135.7675898413381
 31
0
  0
LINE
  8
1
 62
3
 10
192.7103982520668
 20
135.7675898413381
 30
0
 11
192.7103982520667
 21
137.4175898413375
 31
0
  0
LINE
  8
1
 62
1
 10
270.280980165469
 20
171.7675898413375
 30
0
 11
331.8099366113034
 21
171.7675898413375
 31
0
  0
LINE
  8
1
 62
3
 10
298.3839811881501
 20
141.2675898413377
 30
0
 11
298.3839811881501
 21
158.7675898413377
 31
0
  0
LINE
  8
1
 62
3
 10
292.3839811881501
 20
141.2675898413377
 30
0
 11
298.3839811881501
 21
141.2675898413377
 31
0
  0
LINE
  8
1
 62
3
 10
291.38398118815
 20
198.767589841337
 30
0
 11
291.3839811881501
 21
144.7675898413375
 31
0
  0
LINE
  8
1
 62
3
 10
288.73398118815
 20
198.767589841337
 30
0
 11
288.3839811881501
 21
198.4175898413372
 31
0
  0
LINE
  8
1
 62
3
 10
302.9839811881497
 20
159.4675898413378
 30
0
 11
302.9839811881497
 21
158.7675898413376
 31
0
  0
LINE
  8
1
 62
3
 10
302.48398118815
 20
159.4675898413378
 30
0
 11
302.48398118815
 21
152.8930037531609
 31
0
  0
LINE
  8
1
 62
3
 10
302.9839811881497
 20
159.4675898413378
 30
0
 11
302.48398118815
 21
159.4675898413378
 31
0
  0
LINE
  8
1
 62
3
 10
302.48398118815
 20
184.767589841338
 30
0
 11
302.48398118815
 21
198.8092244073176
 31
0
  0
LINE
  8
1
 62
3
 10
302.9839811881497
 20
184.767589841338
 30
0
 11
302.9839811881497
 21
159.4675898413378
 31
0
  0
LINE
  8
1
 62
3
 10
302.9839811881497
 20
184.767589841338
 30
0
 11
302.48398118815
 21
184.767589841338
 31
0
  0
LINE
  8
1
 62
3
 10
299.98398118815
 20
150.4456732937893
 30
0
 11
299.98398118815
 21
141.9675898413375
 31
0
  0
LINE
  8
1
 62
3
 10
302.48398118815
 20
160.7675898413377
 30
0
 11
302.48398118815
 21
159.4675898413378
 31
0
  0
LINE
  8
1
 62
3
 10
302.48398118815
 20
152.8930037531609
 30
0
 11
302.48398118815
 21
150.4456732937893
 31
0
  0
LINE
  8
1
 62
3
 10
298.3839811881501
 20
150.4456732937893
 30
0
 11
302.48398118815
 21
150.4456732937893
 31
0
  0
LINE
  8
1
 62
3
 10
302.48398118815
 20
160.7675898413377
 30
0
 11
302.48398118815
 21
184.767589841338
 31
0
  0
LINE
  8
1
 62
3
 10
302.48398118815
 20
200.3333035555091
 30
0
 11
298.3839811881501
 21
200.3333035555091
 31
0
  0
LINE
  8
1
 62
3
 10
302.48398118815
 20
198.8092244073176
 30
0
 11
302.48398118815
 21
200.3333035555091
 31
0
  0
LINE
  8
1
 62
3
 10
299.98398118815
 20
200.7675898413377
 30
0
 11
299.98398118815
 21
200.3333035555091
 31
0
  0
LINE
  8
1
 62
3
 10
299.98398118815
 20
200.7675898413377
 30
0
 11
298.3839811881501
 21
200.7675898413377
 31
0
  0
LINE
  8
1
 62
3
 10
298.3839811881501
 20
158.7675898413377
 30
0
 11
298.3839811881501
 21
200.7675898413377
 31
0
  0
LINE
  8
1
 62
3
 10
298.3839811881501
 20
202.2675898413378
 30
0
 11
298.3839811881501
 21
198.8092244073176
 31
0
  0
LINE
  8
1
 62
3
 10
298.3839811881501
 20
198.8092244073176
 30
0
 11
298.3839811881501
 21
202.0682985650433
 31
0
  0
LINE
  8
1
 62
3
 10
298.3839811881501
 20
202.2675898413378
 30
0
 11
291.3839811881501
 21
202.2675898413377
 31
0
  0
LINE
  8
1
 62
3
 10
291.3839811881501
 20
202.2675898413377
 30
0
 11
291.38398118815
 21
198.767589841337
 31
0
  0
LINE
  8
1
 62
3
 10
288.73398118815
 20
198.767589841337
 30
0
 11
291.38398118815
 21
198.767589841337
 31
0
  0
LINE
  8
1
 62
3
 10
288.3839811881501
 20
198.4175898413372
 30
0
 11
288.3839811881501
 21
195.767589841337
 31
0
  0
LINE
  8
1
 62
3
 10
288.3839811881501
 20
195.767589841337
 30
0
 11
288.3839811881501
 21
167.7478868322171
 31
0
  0
LINE
  8
1
 62
3
 10
288.3839811881501
 20
167.7478868322171
 30
0
 11
288.3839811881501
 21
147.7675898413375
 31
0
  0
LINE
  8
1
 62
3
 10
288.3839811881501
 20
147.7675898413375
 30
0
 11
288.3839811881501
 21
145.1175898413373
 31
0
  0
LINE
  8
1
 62
3
 10
288.73398118815
 20
144.7675898413375
 30
0
 11
288.3839811881501
 21
145.1175898413373
 31
0
  0
LINE
  8
1
 62
3
 10
291.3839811881501
 20
144.7675898413375
 30
0
 11
288.73398118815
 21
144.7675898413375
 31
0
  0
LINE
  8
1
 62
3
 10
291.3839811881501
 20
144.7675898413375
 30
0
 11
291.3839811881501
 21
141.2675898413375
 31
0
  0
LINE
  8
1
 62
3
 10
291.3839811881501
 20
141.2675898413375
 30
0
 11
292.3839811881501
 21
141.2675898413377
 31
0
  0
LINE
  8
1
 62
3
 10
292.3839811881501
 20
141.2675898413377
 30
0
 11
292.3839811881503
 21
133.7675898413378
 31
0
  0
LINE
  8
1
 62
3
 10
298.3839811881496
 20
133.7771144582882
 30
0
 11
292.3839811881503
 21
133.7675898413378
 31
0
  0
LINE
  8
1
 62
3
 10
298.3839811881501
 20
134.2675898413375
 30
0
 11
298.3839811881501
 21
141.2675898413377
 31
0
  0
LINE
  8
1
 62
3
 10
299.98398118815
 20
134.2675898413375
 30
0
 11
298.3839811881501
 21
134.2675898413375
 31
0
  0
LINE
  8
1
 62
3
 10
299.98398118815
 20
141.9675898413375
 30
0
 11
299.98398118815
 21
134.2675898413375
 31
0
  0
LINE
  8
1
 62
3
 10
303.0039811881501
 20
135.1189698216426
 30
0
 11
302.9639811881499
 21
135.1189698216426
 31
0
  0
LINE
  8
1
 62
3
 10
304.7685484428848
 20
138.9175898413376
 30
0
 11
304.7685484428848
 21
139.2675898413376
 31
0
  0
LINE
  8
1
 62
3
 10
303.30398118815
 20
139.2675898413376
 30
0
 11
302.6639811881499
 21
139.2675898413376
 31
0
  0
LINE
  8
1
 62
3
 10
302.6639811881499
 20
139.2675898413376
 30
0
 11
301.961154067965
 21
139.2675898413376
 31
0
  0
LINE
  8
1
 62
3
 10
302.6639811881499
 20
135.4189698216426
 30
0
 11
302.6639811881499
 21
139.2675898413376
 31
0
  0
LINE
  8
1
 62
3
 10
303.3039811881503
 20
135.4189698216425
 30
0
 11
303.30398118815
 21
139.2675898413376
 31
0
  0
LINE
  8
1
 62
3
 10
304.7685484428848
 20
139.2675898413376
 30
0
 11
303.30398118815
 21
139.2675898413376
 31
0
  0
LINE
  8
1
 62
3
 10
304.7685484428848
 20
134.2675898413376
 30
0
 11
304.7685484428848
 21
138.9175898413376
 31
0
  0
LINE
  8
1
 62
3
 10
305.98398118815
 20
134.2675898413376
 30
0
 11
304.7685484428848
 21
134.2675898413376
 31
0
  0
LINE
  8
1
 62
3
 10
305.98398118815
 20
138.9175898413376
 30
0
 11
305.98398118815
 21
134.2675898413376
 31
0
  0
LINE
  8
1
 62
3
 10
299.98398118815
 20
143.9675898413375
 30
0
 11
305.98398118815
 21
143.9675898413375
 31
0
  0
LINE
  8
1
 62
3
 10
305.98398118815
 20
143.9675898413375
 30
0
 11
305.98398118815
 21
141.9675898413375
 31
0
  0
LINE
  8
1
 62
3
 10
305.98398118815
 20
141.9675898413375
 30
0
 11
305.98398118815
 21
138.9175898413376
 31
0
  0
LINE
  8
1
 62
3
 10
323.9839811881497
 20
177.7872928504583
 30
0
 11
324.3839811881498
 21
177.7872928504583
 31
0
  0
LINE
  8
1
 62
3
 10
323.9839811881497
 20
177.7875898413375
 30
0
 11
323.9839811881497
 21
165.7875898413375
 31
0
  0
LINE
  8
1
 62
3
 10
303.4839811881497
 20
198.0875898413375
 30
0
 11
302.9839811881497
 21
198.0875898413375
 31
0
  0
LINE
  8
1
 62
3
 10
302.9839811881497
 20
148.3375674273382
 30
0
 11
302.9839811881497
 21
158.7675898413376
 31
0
  0
LINE
  8
1
 62
3
 10
302.9839811881497
 20
145.4875898413375
 30
0
 11
302.9839811881497
 21
148.3375674273382
 31
0
  0
LINE
  8
1
 62
3
 10
302.9839811881497
 20
145.4875898413375
 30
0
 11
303.4839811881503
 21
145.4875898413391
 31
0
  0
LINE
  8
1
 62
3
 10
302.9839811881497
 20
195.2376122553368
 30
0
 11
302.9839811881497
 21
184.767589841338
 31
0
  0
LINE
  8
1
 62
3
 10
302.9839811881497
 20
198.0875898413375
 30
0
 11
302.9839811881497
 21
195.2376122553368
 31
0
  0
LINE
  8
1
 62
3
 10
303.4839811881503
 20
145.4875898413391
 30
0
 11
303.4839811881504
 21
199.5175898413375
 31
0
  0
LINE
  8
1
 62
3
 10
303.4839811881503
 20
144.0175898413375
 30
0
 11
303.4839811881497
 21
145.4875898413374
 31
0
  0
LINE
  8
1
 62
3
 10
324.3839811881498
 20
165.7872928504583
 30
0
 11
323.9839811881497
 21
165.7872928504583
 31
0
  0
LINE
  8
1
 62
3
 10
323.9839811881497
 20
179.2875898413375
 30
0
 11
323.9839811881497
 21
177.7875898413375
 31
0
  0
LINE
  8
1
 62
3
 10
324.3839811881498
 20
177.7872928504583
 30
0
 11
324.3839811881498
 21
175.7872928504583
 31
0
  0
LINE
  8
1
 62
3
 10
324.3839811881498
 20
175.7872928504583
 30
0
 11
324.3839811881498
 21
167.7872928504583
 31
0
  0
LINE
  8
1
 62
3
 10
324.3839811881498
 20
167.7872928504583
 30
0
 11
324.3839811881498
 21
165.7872928504583
 31
0
  0
LINE
  8
1
 62
3
 10
323.9839811881497
 20
148.0375898413375
 30
0
 11
323.9839811881497
 21
146.7375898413374
 31
0
  0
LINE
  8
1
 62
3
 10
323.9839811881497
 20
165.7875898413375
 30
0
 11
323.9839811881497
 21
148.0375898413375
 31
0
  0
LINE
  8
1
 62
3
 10
323.9839811881497
 20
196.8175898413374
 30
0
 11
323.9839811881497
 21
195.6175898413374
 31
0
  0
LINE
  8
1
 62
3
 10
323.9839811881497
 20
195.6175898413374
 30
0
 11
323.9839811881497
 21
179.2675898413375
 31
0
  0
LINE
  8
1
 62
3
 10
171.2103982520665
 20
141.2675898413378
 30
0
 11
146.2103982520663
 21
141.267589841338
 31
0
  0
LINE
  8
1
 62
3
 10
171.2103982520665
 20
141.2675898413378
 30
0
 11
196.1590468581688
 21
141.2675898413378
 31
0
  0
LINE
  8
1
 62
3
 10
140.7103982520665
 20
171.7675898413378
 30
0
 11
140.7103982520665
 21
146.7675898413379
 31
0
  0
LINE
  8
1
 62
3
 10
201.7103982520666
 20
146.7675898413378
 30
0
 11
201.7103982520666
 21
171.7675898413379
 31
0
  0
LINE
  8
1
 62
3
 10
201.7103982520666
 20
171.7675898413379
 30
0
 11
201.7103982520667
 21
196.7675898413379
 31
0
  0
LINE
  8
1
 62
3
 10
196.2103982520667
 20
202.2675898413379
 30
0
 11
171.2103982520665
 21
202.2675898413377
 31
0
  0
LINE
  8
1
 62
3
 10
171.2103982520665
 20
202.2675898413377
 30
0
 11
146.2103982520666
 21
202.2675898413382
 31
0
  0
LINE
  8
1
 62
3
 10
140.7103982520665
 20
196.7675898413383
 30
0
 11
140.7103982520665
 21
171.7675898413378
 31
0
  0
LINE
  8
1
 62
1
 10
140.6979204868171
 20
171.7675898413378
 30
0
 11
203.4475368897941
 21
171.7675898413378
 31
0
  0
LINE
  8
1
 62
3
 10
196.2103982520681
 20
141.2675898413377
 30
0
 11
196.210398252065
 21
141.2675898413377
 31
0
  0
LINE
  8
1
 62
1
 10
171.2103982520665
 20
147.767589841338
 30
0
 11
171.2103982520665
 21
137.1991220809276
 31
0
  0
LINE
  8
1
 62
1
 10
171.2103982520665
 20
165.9175898413378
 30
0
 11
171.2103982520665
 21
147.767589841338
 31
0
  0
LINE
  8
1
 62
1
 10
171.2103982520665
 20
207.3360576017479
 30
0
 11
171.2103982520665
 21
165.9175898413378
 31
0
  0
LINE
  8
1
 62
1
 10
195.9603982520664
 20
143.6890072783278
 30
0
 11
195.9603982520664
 21
150.3260270999117
 31
0
  0
LINE
  8
1
 62
1
 10
199.3212795282282
 20
147.0175898413377
 30
0
 11
192.3155363832232
 21
147.0175898413377
 31
0
  0
LINE
  8
1
 62
1
 10
149.6473617846883
 20
147.0175898413378
 30
0
 11
143.0915691773955
 21
147.0175898413378
 31
0
  0
LINE
  8
1
 62
1
 10
146.4603982520665
 20
143.9260287912318
 30
0
 11
146.4603982520665
 21
150.2334959209759
 31
0
  0
LINE
  8
1
 62
1
 10
195.9603982520664
 20
193.3626354740549
 30
0
 11
195.9603982520664
 21
199.9801421053547
 31
0
  0
LINE
  8
1
 62
1
 10
199.0908745606743
 20
196.5175898413378
 30
0
 11
192.5142167357403
 21
196.5175898413378
 31
0
  0
LINE
  8
1
 62
1
 10
146.4603982520665
 20
193.3544824464768
 30
0
 11
146.4603982520665
 21
199.7969546384817
 31
0
  0
LINE
  8
1
 62
1
 10
149.3480168658915
 20
196.5175898413378
 30
0
 11
143.5302692500813
 21
196.5175898413378
 31
0
  0
LINE
  8
1
 62
1
 10
205.2710654790827
 20
171.7675898413378
 30
0
 11
206.2103982520665
 21
171.7675898413378
 31
0
  0
LINE
  8
1
 62
1
 10
206.2103982520665
 20
171.7675898413378
 30
0
 11
137.2104632115849
 21
171.7675898413378
 31
0
  0
LINE
  8
1
 62
3
 10
298.3839811881496
 20
133.7771144582882
 30
0
 11
298.3839811881496
 21
134.267567427338
 31
0
  0
LINE
  8
1
 62
3
 10
299.38398118815
 20
150.0675898413378
 30
0
 11
299.38398118815
 21
143.9675898413378
 31
0
  0
LINE
  8
1
 62
3
 10
298.3839811881501
 20
143.9675898413378
 30
0
 11
299.38398118815
 21
143.9675898413378
 31
0
  0
LINE
  8
1
 62
3
 10
298.3839811881501
 20
150.0675898413378
 30
0
 11
299.38398118815
 21
150.0675898413378
 31
0
  0
LINE
  8
1
 62
3
 10
299.38398118815
 20
199.5675898413379
 30
0
 11
299.38398118815
 21
193.4675898413379
 31
0
  0
LINE
  8
1
 62
3
 10
298.3839811881501
 20
193.4675898413379
 30
0
 11
299.38398118815
 21
193.4675898413379
 31
0
  0
LINE
  8
1
 62
3
 10
298.3839811881501
 20
199.5675898413379
 30
0
 11
299.38398118815
 21
199.5675898413379
 31
0
  0
LINE
  8
1
 62
3
 10
303.0039811881504
 20
135.1189474076432
 30
0
 11
302.9639811881502
 21
135.1189474076432
 31
0
  0
LINE
  8
1
 62
3
 10
302.6639811881502
 20
139.2675674273383
 30
0
 11
301.9420005045974
 21
139.2675674273382
 31
0
  0
LINE
  8
1
 62
3
 10
302.6639811881502
 20
135.4189474076432
 30
0
 11
302.6639811881502
 21
139.2675674273383
 31
0
  0
LINE
  8
1
 62
3
 10
301.9004344938994
 20
137.9534007606713
 30
0
 11
302.0521011605661
 21
137.9534007606713
 31
0
  0
LINE
  8
1
 62
3
 10
301.9004344938996
 20
138.5817340940047
 30
0
 11
301.9004344938994
 21
137.9534007606713
 31
0
  0
LINE
  8
1
 62
3
 10
302.0521011605661
 20
138.5817340940046
 30
0
 11
301.9004344938996
 21
138.5817340940047
 31
0
  0
LINE
  8
1
 62
3
 10
299.9839811881503
 20
135.8409007606714
 30
0
 11
301.2828698943507
 21
135.8409007606714
 31
0
  0
LINE
  8
1
 62
3
 10
301.2828698943507
 20
140.6942340940048
 30
0
 11
299.9839811881503
 21
140.6942340940048
 31
0
  0
LINE
  8
1
 62
3
 10
303.4839811881503
 20
144.0175898413375
 30
0
 11
304.7509684862582
 21
144.0175898413375
 31
0
  0
LINE
  8
1
 62
3
 10
303.4839811881504
 20
199.5175898413375
 30
0
 11
304.7509684862581
 21
199.5175898413375
 31
0
  0
LINE
  8
1
 62
3
 10
340.2269244041927
 20
267.231427270183
 30
0
 11
340.2269244041927
 21
275.6437711669184
 31
0
  0
LINE
  8
1
 62
3
 10
340.2269244041927
 20
264.731427270183
 30
0
 11
340.2269244041927
 21
275.6437711669184
 31
0
  0
LINE
  8
1
 62
3
 10
340.2269244041927
 20
275.6437711669184
 30
0
 11
340.2269244041927
 21
276.7589007445001
 31
0
  0
LINE
  8
1
 62
3
 10
340.2269244041927
 20
275.6437711669184
 30
0
 11
340.2269244041927
 21
276.7589007445001
 31
0
  0
LINE
  8
1
 62
3
 10
340.2269244041927
 20
276.7589007445001
 30
0
 11
340.2269244041927
 21
290.231427270183
 31
0
  0
LINE
  8
1
 62
3
 10
340.2269244041927
 20
276.7589007445001
 30
0
 11
340.2269244041927
 21
287.731427270183
 31
0
  0
LINE
  8
1
 62
3
 10
340.2269244041927
 20
286.731427270183
 30
0
 11
340.2269244041927
 21
285.731427270183
 31
0
  0
LINE
  8
1
 62
3
 10
340.2269244041927
 20
291.731427270183
 30
0
 11
340.2269244041927
 21
290.731427270183
 31
0
  0
LINE
  8
1
 62
3
 10
340.2269244041927
 20
292.731427270183
 30
0
 11
340.2269244041927
 21
284.681427270183
 31
0
  0
LINE
  8
1
 62
3
 10
262.8126452675028
 20
278.1162976926013
 30
0
 11
262.8126452675028
 21
267.231427270183
 31
0
  0
LINE
  8
1
 62
3
 10
262.8126452675028
 20
278.1162976926013
 30
0
 11
262.8126452675028
 21
267.231427270183
 31
0
  0
LINE
  8
1
 62
3
 10
262.8126452675028
 20
279.231427270183
 30
0
 11
262.8126452675028
 21
278.1162976926013
 31
0
  0
LINE
  8
1
 62
3
 10
262.8126452675028
 20
279.231427270183
 30
0
 11
262.8126452675028
 21
278.1162976926013
 31
0
  0
LINE
  8
1
 62
3
 10
340.2269244041927
 20
267.231427270183
 30
0
 11
340.2269244041927
 21
290.231427270183
 31
0
  0
LINE
  8
1
 62
3
 10
340.2269244041927
 20
264.731427270183
 30
0
 11
340.2269244041927
 21
287.731427270183
 31
0
  0
LINE
  8
1
 62
3
 10
340.2269244041927
 20
291.731427270183
 30
0
 11
340.2269244041927
 21
290.731427270183
 31
0
  0
LINE
  8
1
 62
3
 10
340.2269244041927
 20
292.731427270183
 30
0
 11
340.2269244041927
 21
284.681427270183
 31
0
  0
LINE
  8
1
 62
3
 10
320.2269244041927
 20
278.231427270183
 30
0
 11
300.9123121175152
 21
278.1851849691648
 31
0
  0
LINE
  8
1
 62
3
 10
262.8126452675028
 20
290.231427270183
 30
0
 11
262.8126452675028
 21
279.231427270183
 31
0
  0
LINE
  8
1
 62
3
 10
320.2269244041927
 20
279.231427270183
 30
0
 11
300.2093069844532
 21
279.231427270183
 31
0
  0
LINE
  8
1
 62
3
 10
262.8126452675028
 20
287.731427270183
 30
0
 11
262.8126452675028
 21
279.231427270183
 31
0
  0
LINE
  8
1
 62
3
 10
262.8126452675028
 20
285.731427270183
 30
0
 11
262.8126452675028
 21
286.731427270183
 31
0
  0
LINE
  8
1
 62
3
 10
262.8126452675028
 20
288.231427270183
 30
0
 11
262.8126452675028
 21
289.231427270183
 31
0
  0
LINE
  8
1
 62
3
 10
262.8126452675028
 20
284.681427270183
 30
0
 11
262.8126452675028
 21
290.231427270183
 31
0
  0
LINE
  8
1
 62
3
 10
259.0654749502839
 20
288.231427270183
 30
0
 11
254.9126452675028
 21
288.231427270183
 31
0
  0
LINE
  8
1
 62
3
 10
259.0654749502839
 20
289.231427270183
 30
0
 11
259.0654749502839
 21
288.231427270183
 31
0
  0
LINE
  8
1
 62
3
 10
254.9126452675028
 20
289.231427270183
 30
0
 11
254.9126452675028
 21
288.231427270183
 31
0
  0
LINE
  8
1
 62
3
 10
254.9126452675028
 20
289.231427270183
 30
0
 11
259.0654749502839
 21
289.231427270183
 31
0
  0
LINE
  8
1
 62
3
 10
259.0654749502839
 20
285.731427270183
 30
0
 11
254.9126452675028
 21
285.731427270183
 31
0
  0
LINE
  8
1
 62
3
 10
259.0654749502839
 20
286.731427270183
 30
0
 11
259.0654749502839
 21
285.731427270183
 31
0
  0
LINE
  8
1
 62
3
 10
254.9126452675028
 20
286.731427270183
 30
0
 11
254.9126452675028
 21
285.731427270183
 31
0
  0
LINE
  8
1
 62
3
 10
254.9126452675028
 20
286.731427270183
 30
0
 11
259.0654749502839
 21
286.731427270183
 31
0
  0
LINE
  8
1
 62
3
 10
259.0654749502839
 20
283.231427270183
 30
0
 11
254.9126452675028
 21
283.231427270183
 31
0
  0
LINE
  8
1
 62
3
 10
259.0654749502839
 20
284.231427270183
 30
0
 11
259.0654749502839
 21
283.231427270183
 31
0
  0
LINE
  8
1
 62
3
 10
254.9126452675028
 20
284.231427270183
 30
0
 11
254.9126452675028
 21
283.231427270183
 31
0
  0
LINE
  8
1
 62
3
 10
254.9126452675028
 20
284.231427270183
 30
0
 11
259.0654749502839
 21
284.231427270183
 31
0
  0
LINE
  8
1
 62
3
 10
259.0654749502839
 20
280.731427270183
 30
0
 11
254.9126452675028
 21
280.731427270183
 31
0
  0
LINE
  8
1
 62
3
 10
259.0654749502839
 20
281.731427270183
 30
0
 11
259.0654749502839
 21
280.731427270183
 31
0
  0
LINE
  8
1
 62
3
 10
254.9126452675028
 20
281.731427270183
 30
0
 11
254.9126452675028
 21
280.731427270183
 31
0
  0
LINE
  8
1
 62
3
 10
254.9126452675028
 20
281.731427270183
 30
0
 11
259.0654749502839
 21
281.731427270183
 31
0
  0
LINE
  8
1
 62
3
 10
259.0654749502839
 20
278.231427270183
 30
0
 11
254.9126452675028
 21
278.231427270183
 31
0
  0
LINE
  8
1
 62
3
 10
259.0654749502839
 20
279.231427270183
 30
0
 11
259.0654749502839
 21
278.231427270183
 31
0
  0
LINE
  8
1
 62
3
 10
254.9126452675028
 20
279.231427270183
 30
0
 11
254.9126452675028
 21
278.231427270183
 31
0
  0
LINE
  8
1
 62
3
 10
254.9126452675028
 20
279.231427270183
 30
0
 11
259.0654749502839
 21
279.231427270183
 31
0
  0
LINE
  8
1
 62
3
 10
259.0654749502839
 20
275.731427270183
 30
0
 11
254.9126452675028
 21
275.731427270183
 31
0
  0
LINE
  8
1
 62
3
 10
259.0654749502839
 20
276.731427270183
 30
0
 11
259.0654749502839
 21
275.731427270183
 31
0
  0
LINE
  8
1
 62
3
 10
254.9126452675028
 20
276.731427270183
 30
0
 11
254.9126452675028
 21
275.731427270183
 31
0
  0
LINE
  8
1
 62
3
 10
254.9126452675028
 20
276.731427270183
 30
0
 11
259.0654749502839
 21
276.731427270183
 31
0
  0
LINE
  8
1
 62
3
 10
259.0654749502839
 20
273.231427270183
 30
0
 11
254.9126452675028
 21
273.231427270183
 31
0
  0
LINE
  8
1
 62
3
 10
259.0654749502839
 20
274.231427270183
 30
0
 11
259.0654749502839
 21
273.231427270183
 31
0
  0
LINE
  8
1
 62
3
 10
254.9126452675028
 20
274.231427270183
 30
0
 11
254.9126452675028
 21
273.231427270183
 31
0
  0
LINE
  8
1
 62
3
 10
254.9126452675028
 20
274.231427270183
 30
0
 11
259.0654749502839
 21
274.231427270183
 31
0
  0
LINE
  8
1
 62
3
 10
259.0654749502839
 20
270.731427270183
 30
0
 11
254.9126452675028
 21
270.731427270183
 31
0
  0
LINE
  8
1
 62
3
 10
259.0654749502839
 20
271.731427270183
 30
0
 11
259.0654749502839
 21
270.731427270183
 31
0
  0
LINE
  8
1
 62
3
 10
254.9126452675028
 20
271.731427270183
 30
0
 11
254.9126452675028
 21
270.731427270183
 31
0
  0
LINE
  8
1
 62
3
 10
254.9126452675028
 20
271.731427270183
 30
0
 11
259.0654749502839
 21
271.731427270183
 31
0
  0
LINE
  8
1
 62
3
 10
259.0654749502839
 20
268.231427270183
 30
0
 11
254.9126452675028
 21
268.231427270183
 31
0
  0
LINE
  8
1
 62
3
 10
259.0654749502839
 20
269.231427270183
 30
0
 11
259.0654749502839
 21
268.231427270183
 31
0
  0
LINE
  8
1
 62
3
 10
254.9126452675028
 20
269.231427270183
 30
0
 11
254.9126452675028
 21
268.231427270183
 31
0
  0
LINE
  8
1
 62
3
 10
254.9126452675028
 20
269.231427270183
 30
0
 11
259.0654749502839
 21
269.231427270183
 31
0
  0
LINE
  8
1
 62
3
 10
343.3822597331538
 20
286.681427270183
 30
0
 11
342.8215415046539
 21
286.681427270183
 31
0
  0
LINE
  8
1
 62
3
 10
343.3822597331538
 20
284.681427270183
 30
0
 11
348.1269244041928
 21
284.681427270183
 31
0
  0
LINE
  8
1
 62
3
 10
343.3822597331538
 20
284.681427270183
 30
0
 11
343.3822597331538
 21
286.681427270183
 31
0
  0
LINE
  8
1
 62
3
 10
343.3822597331538
 20
272.781427270183
 30
0
 11
342.8215415046539
 21
272.781427270183
 31
0
  0
LINE
  8
1
 62
3
 10
343.3822597331538
 20
270.781427270183
 30
0
 11
348.1269244041928
 21
270.781427270183
 31
0
  0
LINE
  8
1
 62
3
 10
343.3822597331538
 20
270.781427270183
 30
0
 11
343.3822597331538
 21
272.781427270183
 31
0
  0
LINE
  8
1
 62
3
 10
344.7279834815528
 20
292.731427270183
 30
0
 11
344.2794088987529
 21
292.731427270183
 31
0
  0
LINE
  8
1
 62
3
 10
344.7279834815528
 20
289.731427270183
 30
0
 11
344.2794088987529
 21
289.731427270183
 31
0
  0
LINE
  8
1
 62
3
 10
344.7279834815528
 20
289.731427270183
 30
0
 11
344.7279834815528
 21
292.731427270183
 31
0
  0
LINE
  8
1
 62
3
 10
345.9989447994857
 20
289.731427270183
 30
0
 11
344.7279834815528
 21
289.731427270183
 31
0
  0
LINE
  8
1
 62
3
 10
345.9989447994857
 20
292.731427270183
 30
0
 11
344.7279834815528
 21
292.731427270183
 31
0
  0
LINE
  8
1
 62
3
 10
345.9989447994857
 20
292.731427270183
 30
0
 11
345.9989447994857
 21
289.731427270183
 31
0
  0
LINE
  8
1
 62
3
 10
344.7279834815528
 20
267.731427270183
 30
0
 11
344.2794088987529
 21
267.731427270183
 31
0
  0
LINE
  8
1
 62
3
 10
344.7279834815528
 20
264.731427270183
 30
0
 11
345.9989447994857
 21
264.731427270183
 31
0
  0
LINE
  8
1
 62
3
 10
344.7279834815528
 20
264.731427270183
 30
0
 11
344.7279834815528
 21
267.731427270183
 31
0
  0
LINE
  8
1
 62
3
 10
345.9989447994857
 20
264.731427270183
 30
0
 11
347.0082376107859
 21
264.731427270183
 31
0
  0
LINE
  8
1
 62
3
 10
345.9989447994857
 20
267.731427270183
 30
0
 11
344.7279834815528
 21
267.731427270183
 31
0
  0
LINE
  8
1
 62
3
 10
345.9989447994857
 20
267.731427270183
 30
0
 11
345.9989447994857
 21
264.731427270183
 31
0
  0
LINE
  8
1
 62
3
 10
344.2794088987529
 20
292.731427270183
 30
0
 11
340.2269244041927
 21
292.731427270183
 31
0
  0
LINE
  8
1
 62
3
 10
344.2794088987529
 20
289.731427270183
 30
0
 11
344.2794088987529
 21
292.731427270183
 31
0
  0
LINE
  8
1
 62
3
 10
347.0082376107859
 20
289.731427270183
 30
0
 11
345.9989447994857
 21
289.731427270183
 31
0
  0
LINE
  8
1
 62
3
 10
347.0082376107859
 20
292.731427270183
 30
0
 11
345.9989447994857
 21
292.731427270183
 31
0
  0
LINE
  8
1
 62
3
 10
347.0082376107859
 20
292.731427270183
 30
0
 11
347.0082376107859
 21
289.731427270183
 31
0
  0
LINE
  8
1
 62
3
 10
344.2794088987529
 20
264.731427270183
 30
0
 11
344.7279834815528
 21
264.731427270183
 31
0
  0
LINE
  8
1
 62
3
 10
344.2794088987529
 20
267.731427270183
 30
0
 11
344.2794088987529
 21
264.731427270183
 31
0
  0
LINE
  8
1
 62
3
 10
347.0082376107859
 20
267.731427270183
 30
0
 11
345.9989447994857
 21
267.731427270183
 31
0
  0
LINE
  8
1
 62
3
 10
347.0082376107859
 20
264.731427270183
 30
0
 11
348.1269244041928
 21
264.731427270183
 31
0
  0
LINE
  8
1
 62
3
 10
347.0082376107859
 20
264.731427270183
 30
0
 11
347.0082376107859
 21
267.731427270183
 31
0
  0
LINE
  8
1
 62
3
 10
348.1269244041928
 20
270.781427270183
 30
0
 11
348.1269244041928
 21
272.781427270183
 31
0
  0
LINE
  8
1
 62
3
 10
342.8215415046539
 20
270.781427270183
 30
0
 11
343.3822597331538
 21
270.781427270183
 31
0
  0
LINE
  8
1
 62
3
 10
342.8215415046539
 20
272.781427270183
 30
0
 11
342.8215415046539
 21
270.781427270183
 31
0
  0
LINE
  8
1
 62
3
 10
348.1269244041928
 20
272.781427270183
 30
0
 11
343.3822597331538
 21
272.781427270183
 31
0
  0
LINE
  8
1
 62
3
 10
348.1269244041928
 20
272.781427270183
 30
0
 11
348.1269244041928
 21
284.681427270183
 31
0
  0
LINE
  8
1
 62
3
 10
348.1269244041928
 20
284.681427270183
 30
0
 11
348.1269244041928
 21
272.781427270183
 31
0
  0
LINE
  8
1
 62
3
 10
348.1269244041928
 20
284.681427270183
 30
0
 11
348.1269244041928
 21
286.681427270183
 31
0
  0
LINE
  8
1
 62
3
 10
342.8215415046539
 20
284.681427270183
 30
0
 11
343.3822597331538
 21
284.681427270183
 31
0
  0
LINE
  8
1
 62
3
 10
342.8215415046539
 20
286.681427270183
 30
0
 11
342.8215415046539
 21
284.681427270183
 31
0
  0
LINE
  8
1
 62
3
 10
348.1269244041928
 20
286.681427270183
 30
0
 11
348.1269244041928
 21
292.731427270183
 31
0
  0
LINE
  8
1
 62
3
 10
348.1269244041928
 20
286.681427270183
 30
0
 11
343.3822597331538
 21
286.681427270183
 31
0
  0
LINE
  8
1
 62
3
 10
348.1269244041928
 20
292.731427270183
 30
0
 11
347.0082376107859
 21
292.731427270183
 31
0
  0
LINE
  8
1
 62
3
 10
348.1269244041928
 20
264.731427270183
 30
0
 11
348.1269244041928
 21
270.781427270183
 31
0
  0
LINE
  8
1
 62
3
 10
340.2269244041927
 20
264.731427270183
 30
0
 11
344.2794088987529
 21
264.731427270183
 31
0
  0
LINE
  8
1
 62
3
 10
340.2269244041927
 20
292.731427270183
 30
0
 11
340.2269244041927
 21
264.731427270183
 31
0
  0
LINE
  8
1
 62
3
 10
262.8126452675028
 20
290.231427270183
 30
0
 11
254.9126452675028
 21
290.231427270183
 31
0
  0
LINE
  8
1
 62
3
 10
254.9126452675028
 20
267.231427270183
 30
0
 11
262.8126452675028
 21
267.231427270183
 31
0
  0
LINE
  8
1
 62
3
 10
254.9126452675028
 20
290.231427270183
 30
0
 11
254.9126452675028
 21
267.231427270183
 31
0
  0
LINE
  8
1
 62
3
 10
320.2269244041927
 20
274.231427270183
 30
0
 11
301.055763983273
 21
274.231427270183
 31
0
  0
LINE
  8
1
 62
3
 10
320.2269244041927
 20
275.231427270183
 30
0
 11
301.5809948888158
 21
275.231427270183
 31
0
  0
LINE
  8
1
 62
3
 10
320.2269244041927
 20
276.231427270183
 30
0
 11
301.809366961584
 21
276.231427270183
 31
0
  0
LINE
  8
1
 62
3
 10
320.2269244041927
 20
277.231427270183
 30
0
 11
301.5166654502284
 21
277.231427270183
 31
0
  0
LINE
  8
1
 62
3
 10
320.2269244041927
 20
280.231427270183
 30
0
 11
299.8356448755311
 21
280.231427270183
 31
0
  0
LINE
  8
1
 62
3
 10
320.2269244041927
 20
281.231427270183
 30
0
 11
299.9963975459289
 21
281.231427270183
 31
0
  0
LINE
  8
1
 62
3
 10
320.2269244041927
 20
282.231427270183
 30
0
 11
300.5678526610085
 21
282.231427270183
 31
0
  0
LINE
  8
1
 62
3
 10
320.2269244041927
 20
283.231427270183
 30
0
 11
301.342850832153
 21
283.231427270183
 31
0
  0
LINE
  8
1
 62
3
 10
300.481590285512
 20
283.231427270183
 30
0
 11
282.8126452675028
 21
283.231427270183
 31
0
  0
LINE
  8
1
 62
3
 10
300.230389292742
 20
274.231427270183
 30
0
 11
282.8126452675028
 21
274.231427270183
 31
0
  0
LINE
  8
1
 62
3
 10
299.8857640282409
 20
282.231427270183
 30
0
 11
282.8126452675028
 21
282.231427270183
 31
0
  0
LINE
  8
1
 62
3
 10
299.3949342448784
 20
281.231427270183
 30
0
 11
282.8126452675028
 21
281.231427270183
 31
0
  0
LINE
  8
1
 62
3
 10
299.1262713231706
 20
280.231427270183
 30
0
 11
282.8126452675028
 21
280.231427270183
 31
0
  0
LINE
  8
1
 62
3
 10
299.22558532166
 20
279.231427270183
 30
0
 11
279.1390922110739
 21
279.231427270183
 31
0
  0
LINE
  8
1
 62
3
 10
299.8226227190899
 20
278.1825760767661
 30
0
 11
278.116971959803
 21
278.1306092435049
 31
0
  0
LINE
  8
1
 62
3
 10
300.4910695517515
 20
277.231427270183
 30
0
 11
282.8126452675028
 21
277.231427270183
 31
0
  0
LINE
  8
1
 62
3
 10
300.876334702723
 20
276.231427270183
 30
0
 11
282.8126452675028
 21
276.231427270183
 31
0
  0
LINE
  8
1
 62
3
 10
300.7032257201179
 20
275.231427270183
 30
0
 11
282.8126452675028
 21
275.231427270183
 31
0
  0
LINE
  8
1
 62
3
 10
424.6128677946363
 20
181.9278618289182
 30
0
 11
450.6128677946358
 21
181.9278618289182
 31
0
  0
LINE
  8
1
 62
3
 10
423.6128677946363
 20
192.9278618289182
 30
0
 11
423.6128677946363
 21
182.9278618289182
 31
0
  0
LINE
  8
1
 62
3
 10
450.6128677946358
 20
193.9278618289182
 30
0
 11
424.6128677946363
 21
193.9278618289182
 31
0
  0
LINE
  8
1
 62
3
 10
451.6128677946358
 20
182.9278618289182
 30
0
 11
451.6128677946358
 21
192.9278618289182
 31
0
  0
LINE
  8
1
 62
3
 10
462.9251987843627
 20
202.0675898413378
 30
0
 11
437.925198784361
 21
202.0675898413373
 31
0
  0
LINE
  8
1
 62
3
 10
407.425198784361
 20
196.5675898413374
 30
0
 11
407.425198784361
 21
146.4675898413376
 31
0
  0
LINE
  8
1
 62
3
 10
416.6251987843612
 20
135.9675898413376
 30
0
 11
416.6251987843607
 21
138.4675898413372
 31
0
  0
LINE
  8
1
 62
3
 10
456.525198784361
 20
151.0450779279617
 30
0
 11
456.525198784361
 21
151.4559552443879
 31
0
  0
LINE
  8
1
 62
3
 10
419.325198784361
 20
151.0450779279617
 30
0
 11
419.325198784361
 21
151.4559552443878
 31
0
  0
LINE
  8
1
 62
3
 10
463.425198784361
 20
141.4675898413372
 30
0
 11
463.382966252516
 21
141.4675898413376
 31
0
  0
LINE
  8
1
 62
3
 10
462.2251987843611
 20
141.4675898413375
 30
0
 11
463.425198784361
 21
141.4675898413372
 31
0
  0
LINE
  8
1
 62
3
 10
412.9251987843591
 20
141.467589841337
 30
0
 11
413.6251987843607
 21
141.4675898413372
 31
0
  0
LINE
  8
1
 62
3
 10
416.6251987843612
 20
135.9675898413376
 30
0
 11
416.6251987843612
 21
137.2675898413371
 31
0
  0
LINE
  8
1
 62
3
 10
457.2251987843611
 20
133.9675898413376
 30
0
 11
418.6251987843609
 21
133.9675898413376
 31
0
  0
LINE
  8
1
 62
3
 10
459.2251987843611
 20
135.9675898413376
 30
0
 11
459.2251987843611
 21
136.4175898413372
 31
0
  0
LINE
  8
1
 62
3
 10
468.425198784361
 20
146.4675898413376
 30
0
 11
468.425198784361
 21
196.5675898413374
 31
0
  0
LINE
  8
1
 62
3
 10
437.925198784361
 20
202.0675898413373
 30
0
 11
412.9251987843594
 21
202.067589841338
 31
0
  0
LINE
  8
1
 62
3
 10
419.325198784361
 20
143.7676034067868
 30
0
 11
419.325198784361
 21
150.9856358652399
 31
0
  0
LINE
  8
1
 62
3
 10
456.525198784361
 20
143.7676034067868
 30
0
 11
456.525198784361
 21
150.9856358652399
 31
0
  0
LINE
  8
1
 62
3
 10
459.2251987843611
 20
138.4675898413375
 30
0
 11
459.2251987843611
 21
135.9675898413376
 31
0
  0
LINE
  8
1
 62
3
 10
463.425198784361
 20
141.4675898413372
 30
0
 11
463.4251987843629
 21
141.4675898413372
 31
0
  0
LINE
  8
1
 62
3
 10
463.4251987843629
 20
141.4675898413372
 30
0
 11
463.425198784361
 21
141.4675898413372
 31
0
  0
LINE
  8
1
 62
1
 10
410.925198784361
 20
147.0175898413375
 30
0
 11
417.1025373627779
 21
147.0175898413375
 31
0
  0
LINE
  8
1
 62
1
 10
409.0953005385651
 20
147.0175898413375
 30
0
 11
410.925198784361
 21
147.0175898413375
 31
0
  0
LINE
  8
1
 62
1
 10
413.175198784361
 20
142.9238984212567
 30
0
 11
413.175198784361
 21
151.5525924318267
 31
0
  0
LINE
  8
1
 62
1
 10
409.0953005385651
 20
196.5175898413374
 30
0
 11
410.925198784361
 21
196.5175898413374
 31
0
  0
LINE
  8
1
 62
1
 10
410.925198784361
 20
196.5175898413374
 30
0
 11
417.1025373627779
 21
196.5175898413374
 31
0
  0
LINE
  8
1
 62
1
 10
413.175198784361
 20
192.4238984212566
 30
0
 11
413.175198784361
 21
201.0525924318264
 31
0
  0
LINE
  8
1
 62
1
 10
460.425198784361
 20
147.0175898413375
 30
0
 11
466.6025373627779
 21
147.0175898413375
 31
0
  0
LINE
  8
1
 62
1
 10
458.595300538565
 20
147.0175898413375
 30
0
 11
460.425198784361
 21
147.0175898413375
 31
0
  0
LINE
  8
1
 62
1
 10
462.675198784361
 20
142.9238984212567
 30
0
 11
462.675198784361
 21
151.5525924318267
 31
0
  0
LINE
  8
1
 62
1
 10
462.675198784361
 20
192.4238984212566
 30
0
 11
462.675198784361
 21
201.0525924318264
 31
0
  0
LINE
  8
1
 62
1
 10
460.425198784361
 20
196.5175898413376
 30
0
 11
466.6025373627779
 21
196.5175898413374
 31
0
  0
LINE
  8
1
 62
1
 10
458.595300538565
 20
196.5175898413374
 30
0
 11
460.425198784361
 21
196.5175898413376
 31
0
  0
LINE
  8
1
 62
3
 10
443.6251987843609
 20
198.9186947912287
 30
0
 11
443.6251987843609
 21
199.4313296463602
 31
0
  0
LINE
  8
1
 62
3
 10
432.2251987843613
 20
198.9186947912287
 30
0
 11
432.2251987843613
 21
199.4313296463603
 31
0
  0
LINE
  8
1
 62
1
 10
437.925198784361
 20
200.4494480610029
 30
0
 11
437.9251987843604
 21
194.9558571650635
 31
0
  0
LINE
  8
1
 62
3
 10
433.5251987843609
 20
200.7675898413375
 30
0
 11
442.325198784361
 21
200.7675898413375
 31
0
  0
LINE
  8
1
 62
3
 10
433.0251987843609
 20
200.2675898413375
 30
0
 11
433.0251987843609
 21
198.8092244073172
 31
0
  0
LINE
  8
1
 62
3
 10
442.825198784361
 20
200.2675898413375
 30
0
 11
442.825198784361
 21
198.8092244073172
 31
0
  0
LINE
  8
1
 62
1
 10
471.8664910873138
 20
171.7675898413375
 30
0
 11
403.225891594357
 21
171.7675898413375
 31
0
  0
LINE
  8
1
 62
1
 10
437.925198784361
 20
131.8636317362985
 30
0
 11
437.925198784361
 21
205.8958499470125
 31
0
  0
LINE
  8
1
 62
1
 10
465.8648141294082
 20
171.7675898413375
 30
0
 11
423.2869152118919
 21
171.7675898413375
 31
0
  0
LINE
  8
1
 62
3
 10
419.4230459425937
 20
138.7929977377577
 30
0
 11
419.8629942898235
 21
138.3530493905279
 31
0
  0
LINE
  8
1
 62
3
 10
419.4230459425937
 20
137.7421819449171
 30
0
 11
419.8629942898235
 21
138.1821302921471
 31
0
  0
LINE
  8
1
 62
3
 10
420.8506082284505
 20
139.169744230774
 30
0
 11
420.4106598812206
 21
138.729795883544
 31
0
  0
LINE
  8
1
 62
3
 10
420.2353236189699
 20
138.7342130474144
 30
0
 11
419.79979243561
 21
139.169744230774
 31
0
  0
LINE
  8
1
 62
3
 10
420.2397407828398
 20
138.729795883544
 30
0
 11
420.2353236189699
 21
138.7342130474144
 31
0
  0
LINE
  8
1
 62
3
 10
421.2273547214667
 20
137.7421819449171
 30
0
 11
420.7874063742368
 21
138.1821302921471
 31
0
  0
LINE
  8
1
 62
3
 10
421.2273547214667
 20
138.7929977377577
 30
0
 11
420.7874063742368
 21
138.3530493905279
 31
0
  0
LINE
  8
1
 62
3
 10
419.79979243561
 20
137.365435451901
 30
0
 11
420.2397407828398
 21
137.805383799131
 31
0
  0
LINE
  8
1
 62
3
 10
420.8506082284505
 20
137.365435451901
 30
0
 11
420.4106598812206
 21
137.805383799131
 31
0
  0
LINE
  8
1
 62
3
 10
454.6230428472561
 20
138.7929977377577
 30
0
 11
455.0629911944859
 21
138.3530493905279
 31
0
  0
LINE
  8
1
 62
3
 10
454.6230428472561
 20
137.7421819449171
 30
0
 11
455.0629911944859
 21
138.1821302921471
 31
0
  0
LINE
  8
1
 62
3
 10
456.0506051331126
 20
139.169744230774
 30
0
 11
455.6106567858826
 21
138.729795883544
 31
0
  0
LINE
  8
1
 62
3
 10
455.4353205236321
 20
138.7342130474144
 30
0
 11
454.9997893402723
 21
139.169744230774
 31
0
  0
LINE
  8
1
 62
3
 10
455.4397376875022
 20
138.729795883544
 30
0
 11
455.4353205236321
 21
138.7342130474144
 31
0
  0
LINE
  8
1
 62
3
 10
456.4273516261287
 20
137.7421819449171
 30
0
 11
455.9874032788989
 21
138.1821302921471
 31
0
  0
LINE
  8
1
 62
3
 10
456.4273516261287
 20
138.7929977377577
 30
0
 11
455.9874032788989
 21
138.3530493905279
 31
0
  0
LINE
  8
1
 62
3
 10
454.9997893402723
 20
137.365435451901
 30
0
 11
455.4397376875022
 21
137.805383799131
 31
0
  0
LINE
  8
1
 62
3
 10
456.0506051331126
 20
137.365435451901
 30
0
 11
455.6106567858826
 21
137.805383799131
 31
0
  0
LINE
  8
1
 62
3
 10
423.925198784361
 20
133.9675898413372
 30
0
 11
423.925198784361
 21
143.9675898413372
 31
0
  0
LINE
  8
1
 62
3
 10
451.925198784361
 20
133.9675898413372
 30
0
 11
423.925198784361
 21
133.9675898413372
 31
0
  0
LINE
  8
1
 62
3
 10
451.925198784361
 20
143.9675898413372
 30
0
 11
451.925198784361
 21
133.9675898413372
 31
0
  0
LINE
  8
1
 62
3
 10
423.925198784361
 20
138.6358597904821
 30
0
 11
423.925198784361
 21
135.6675898413373
 31
0
  0
LINE
  8
1
 62
3
 10
451.925198784361
 20
135.6675898413373
 30
0
 11
451.925198784361
 21
138.6358597904821
 31
0
  0
LINE
  8
1
 62
3
 10
449.925198784361
 20
143.9675898413372
 30
0
 11
449.925198784361
 21
141.9675898413372
 31
0
  0
LINE
  8
1
 62
3
 10
449.925198784361
 20
143.9675898413372
 30
0
 11
451.925198784361
 21
143.9675898413372
 31
0
  0
LINE
  8
1
 62
3
 10
449.925198784361
 20
141.9675898413372
 30
0
 11
425.925198784361
 21
141.9675898413372
 31
0
  0
LINE
  8
1
 62
3
 10
423.925198784361
 20
143.9675898413372
 30
0
 11
425.925198784361
 21
143.9675898413372
 31
0
  0
LINE
  8
1
 62
3
 10
425.925198784361
 20
141.9675898413372
 30
0
 11
425.925198784361
 21
143.9675898413372
 31
0
  0
LINE
  8
1
 62
3
 10
451.9243804207172
 20
135.6675898413373
 30
0
 11
451.9243804207172
 21
138.6358597904821
 31
0
  0
LINE
  8
1
 62
3
 10
423.9243804207172
 20
138.6358597904821
 30
0
 11
423.9243804207172
 21
135.6675898413373
 31
0
  0
LINE
  8
1
 62
3
 10
451.9243804207172
 20
143.9675898413372
 30
0
 11
451.9243804207172
 21
133.9675898413372
 31
0
  0
LINE
  8
1
 62
3
 10
451.9243804207172
 20
133.9675898413372
 30
0
 11
423.9243804207172
 21
133.9675898413372
 31
0
  0
LINE
  8
1
 62
3
 10
423.9243804207172
 20
133.9675898413372
 30
0
 11
423.9243804207172
 21
143.9675898413372
 31
0
  0
LINE
  8
1
 62
3
 10
423.925198784361
 20
134.2675898413371
 30
0
 11
419.4251987843619
 21
134.2675898413371
 31
0
  0
LINE
  8
1
 62
3
 10
456.4251987843604
 20
134.2675898413371
 30
0
 11
451.925198784361
 21
134.2675898413371
 31
0
  0
LINE
  8
1
 62
3
 10
457.4251987843604
 20
135.2675898413371
 30
0
 11
457.4251987843604
 21
137.6675898413374
 31
0
  0
LINE
  8
1
 62
3
 10
418.4251987843619
 20
137.6675898413374
 30
0
 11
418.4251987843619
 21
135.2675898413371
 31
0
  0
LINE
  8
1
 62
3
 10
418.4251987843612
 20
141.2675410235739
 30
0
 11
418.4251987843617
 21
138.867603406784
 31
0
  0
LINE
  8
1
 62
3
 10
455.7251987843611
 20
150.8208308872487
 30
0
 11
455.7251987843611
 21
144.5675513561838
 31
0
  0
LINE
  8
1
 62
3
 10
420.1251987843609
 20
150.8054811687826
 30
0
 11
420.1251987843609
 21
144.5675513561838
 31
0
  0
LINE
  8
1
 62
3
 10
455.7251987843611
 20
144.5675513561838
 30
0
 11
457.4251987843607
 21
141.2675410235739
 31
0
  0
LINE
  8
1
 62
3
 10
457.4251987843607
 20
138.8676034067872
 30
0
 11
457.4251987843607
 21
141.2675410235739
 31
0
  0
LINE
  8
1
 62
3
 10
418.4251987843612
 20
141.2675410235739
 30
0
 11
420.1251987843609
 21
144.5675513561838
 31
0
  0
LINE
  8
1
 62
3
 10
303.4839811881497
 20
86.5450217270517
 30
0
 11
303.4839811881497
 21
74.22502172705168
 31
0
  0
LINE
  8
1
 62
3
 10
292.3839811881501
 20
82.15937140367299
 30
0
 11
292.3839811881501
 21
81.52502172705169
 31
0
  0
LINE
  8
1
 62
3
 10
292.3839811881501
 20
38.9250217270517
 30
0
 11
292.3839811881501
 21
38.2906720504304
 31
0
  0
LINE
  8
1
 62
3
 10
292.3839811881501
 20
38.9250217270517
 30
0
 11
298.3839811881501
 21
38.9250217270517
 31
0
  0
LINE
  8
1
 62
3
 10
292.3839811881501
 20
81.52502172705169
 30
0
 11
292.3839811881501
 21
38.9250217270517
 31
0
  0
LINE
  8
1
 62
3
 10
298.3839811881501
 20
81.52502172705169
 30
0
 11
292.3839811881501
 21
81.52502172705169
 31
0
  0
LINE
  8
1
 62
3
 10
298.3839811881501
 20
38.72502172705171
 30
0
 11
299.38398118815
 21
38.72502172705171
 31
0
  0
LINE
  8
1
 62
3
 10
299.38398118815
 20
38.72502172705171
 30
0
 11
299.38398118815
 21
32.22502172705171
 31
0
  0
LINE
  8
1
 62
3
 10
299.38398118815
 20
32.22502172705171
 30
0
 11
298.3839811881501
 21
32.22502172705171
 31
0
  0
LINE
  8
1
 62
3
 10
299.38398118815
 20
81.72502172705171
 30
0
 11
298.3839811881501
 21
81.72502172705171
 31
0
  0
LINE
  8
1
 62
3
 10
299.38398118815
 20
88.22502172705171
 30
0
 11
299.38398118815
 21
81.72502172705171
 31
0
  0
LINE
  8
1
 62
3
 10
298.3839811881501
 20
88.22502172705171
 30
0
 11
299.38398118815
 21
88.22502172705171
 31
0
  0
LINE
  8
1
 62
3
 10
299.9839811881503
 20
40.19835506038498
 30
0
 11
299.98398118815
 21
40.72502172705171
 31
0
  0
LINE
  8
1
 62
3
 10
299.9839811881503
 20
80.25168839371841
 30
0
 11
299.98398118815
 21
79.72502172705171
 31
0
  0
LINE
  8
1
 62
3
 10
302.4839811881499
 20
31.37502172705171
 30
0
 11
298.3839811881501
 21
31.37502172705171
 31
0
  0
LINE
  8
1
 62
3
 10
302.48398118815
 20
89.07502172705171
 30
0
 11
298.3839811881501
 21
89.07502172705171
 31
0
  0
LINE
  8
1
 62
3
 10
299.98398118815
 20
79.72502172705171
 30
0
 11
298.3839811881501
 21
79.72502172705171
 31
0
  0
LINE
  8
1
 62
3
 10
299.98398118815
 20
74.22502172705168
 30
0
 11
299.98398118815
 21
79.72502172705171
 31
0
  0
LINE
  8
1
 62
3
 10
299.98398118815
 20
40.72502172705171
 30
0
 11
298.3839811881501
 21
40.72502172705171
 31
0
  0
LINE
  8
1
 62
3
 10
299.98398118815
 20
46.22502172705171
 30
0
 11
299.98398118815
 21
40.72502172705171
 31
0
  0
LINE
  8
1
 62
3
 10
299.9839811881503
 20
75.398355060385
 30
0
 11
301.2828698943507
 21
75.398355060385
 31
0
  0
LINE
  8
1
 62
3
 10
301.2828698943507
 20
80.25168839371841
 30
0
 11
299.9839811881503
 21
80.25168839371841
 31
0
  0
LINE
  8
1
 62
3
 10
301.9004344938996
 20
77.5108550603851
 30
0
 11
302.0521011605661
 21
77.51085506038521
 31
0
  0
LINE
  8
1
 62
3
 10
301.9004344938995
 20
78.13918839371851
 30
0
 11
301.9004344938996
 21
77.5108550603851
 31
0
  0
LINE
  8
1
 62
3
 10
302.0521011605661
 20
78.13918839371851
 30
0
 11
301.9004344938995
 21
78.13918839371851
 31
0
  0
LINE
  8
1
 62
3
 10
305.2685484428849
 20
52.53365113003994
 30
0
 11
305.48398118815
 21
52.72502172705171
 31
0
  0
LINE
  8
1
 62
3
 10
305.48398118815
 20
49.72502172705171
 30
0
 11
305.2685484428849
 21
49.91639232406371
 31
0
  0
LINE
  8
1
 62
3
 10
305.48398118815
 20
52.72502172705171
 30
0
 11
305.48398118815
 21
49.72502172705171
 31
0
  0
LINE
  8
1
 62
3
 10
305.2685484428849
 20
74.22502172705168
 30
0
 11
304.7685484428849
 21
74.22502172705168
 31
0
  0
LINE
  8
1
 62
3
 10
305.2685484428849
 20
46.22502172705171
 30
0
 11
305.9839811881496
 21
46.22502172705171
 31
0
  0
LINE
  8
1
 62
3
 10
299.98398118815
 20
74.22502172705168
 30
0
 11
299.98398118815
 21
46.22502172705171
 31
0
  0
LINE
  8
1
 62
3
 10
305.9839811881496
 20
74.22502172705168
 30
0
 11
305.2685484428849
 21
74.22502172705168
 31
0
  0
LINE
  8
1
 62
3
 10
305.9839811881496
 20
46.22502172705171
 30
0
 11
305.9839811881496
 21
74.22502172705168
 31
0
  0
LINE
  8
1
 62
3
 10
299.98398118815
 20
46.22502172705171
 30
0
 11
304.7685484428849
 21
46.22502172705171
 31
0
  0
LINE
  8
1
 62
3
 10
305.2685484428849
 20
49.91639232406371
 30
0
 11
304.7685484428849
 21
49.91639232406371
 31
0
  0
LINE
  8
1
 62
3
 10
305.2685484428849
 20
52.53365113003994
 30
0
 11
304.7685484428849
 21
52.53365113003994
 31
0
  0
LINE
  8
1
 62
3
 10
304.7685484428849
 20
49.91639232406371
 30
0
 11
304.7685484428849
 21
46.22502172705171
 31
0
  0
LINE
  8
1
 62
3
 10
304.7685484428849
 20
46.22502172705171
 30
0
 11
305.2685484428849
 21
46.22502172705171
 31
0
  0
LINE
  8
1
 62
3
 10
304.7685484428849
 20
52.53365113003994
 30
0
 11
304.7685484428849
 21
67.91639232406371
 31
0
  0
LINE
  8
1
 62
3
 10
304.7685484428849
 20
74.22502172705168
 30
0
 11
299.98398118815
 21
74.22502172705168
 31
0
  0
LINE
  8
1
 62
3
 10
305.2685484428849
 20
70.5336511300398
 30
0
 11
305.48398118815
 21
70.72502172705168
 31
0
  0
LINE
  8
1
 62
3
 10
305.48398118815
 20
67.72502172705171
 30
0
 11
305.2685484428849
 21
67.91639232406371
 31
0
  0
LINE
  8
1
 62
3
 10
305.48398118815
 20
70.72502172705168
 30
0
 11
305.48398118815
 21
67.72502172705171
 31
0
  0
LINE
  8
1
 62
3
 10
305.2685484428849
 20
67.91639232406371
 30
0
 11
304.7685484428849
 21
67.91639232406371
 31
0
  0
LINE
  8
1
 62
3
 10
305.2685484428849
 20
70.5336511300398
 30
0
 11
304.7685484428849
 21
70.5336511300398
 31
0
  0
LINE
  8
1
 62
3
 10
304.7685484428849
 20
70.5336511300398
 30
0
 11
304.7685484428849
 21
74.22502172705168
 31
0
  0
LINE
  8
1
 62
3
 10
302.48398118815
 20
46.22502172705171
 30
0
 11
302.48398118815
 21
41.35043563887513
 31
0
  0
LINE
  8
1
 62
3
 10
303.4839811881503
 20
45.58249672408331
 30
0
 11
303.4839811881503
 21
46.22502172705171
 31
0
  0
LINE
  8
1
 62
3
 10
302.48398118815
 20
74.22502172705168
 30
0
 11
302.48398118815
 21
87.26665629303179
 31
0
  0
LINE
  8
1
 62
3
 10
305.1839811881504
 20
87.7250217270516
 30
0
 11
321.7839811881498
 21
87.72502172705171
 31
0
  0
LINE
  8
1
 62
3
 10
303.4839811881503
 20
32.47502172705171
 30
0
 11
304.7509684862583
 21
32.47502172705171
 31
0
  0
LINE
  8
1
 62
3
 10
303.4839811881503
 20
32.47502172705171
 30
0
 11
303.4839811881503
 21
32.92502172705173
 31
0
  0
LINE
  8
1
 62
3
 10
303.4839811881497
 20
86.5450217270517
 30
0
 11
303.4839811881504
 21
87.97502172705171
 31
0
  0
LINE
  8
1
 62
3
 10
303.4839811881504
 20
87.97502172705171
 30
0
 11
304.7509684862581
 21
87.97502172705171
 31
0
  0
LINE
  8
1
 62
3
 10
301.2828698943507
 20
45.05168839371839
 30
0
 11
299.9839811881503
 21
45.05168839371839
 31
0
  0
LINE
  8
1
 62
3
 10
299.9839811881503
 20
40.19835506038498
 30
0
 11
301.2828698943507
 21
40.19835506038498
 31
0
  0
LINE
  8
1
 62
3
 10
302.0521011605661
 20
42.93918839371818
 30
0
 11
301.9004344938996
 21
42.9391883937183
 31
0
  0
LINE
  8
1
 62
3
 10
301.9004344938996
 20
42.9391883937183
 30
0
 11
301.9004344938995
 21
42.31085506038488
 31
0
  0
LINE
  8
1
 62
3
 10
301.9004344938995
 20
42.31085506038488
 30
0
 11
302.0521011605661
 21
42.31085506038488
 31
0
  0
LINE
  8
1
 62
3
 10
323.9839811881497
 20
84.32502172705162
 30
0
 11
323.9839811881497
 21
67.72502172705171
 31
0
  0
LINE
  8
1
 62
3
 10
323.9839811881497
 20
85.52502172705161
 30
0
 11
323.9839811881497
 21
84.32502172705162
 31
0
  0
LINE
  8
1
 62
3
 10
321.7839811881498
 20
32.72502172705171
 30
0
 11
305.1839811881503
 21
32.72502172705163
 31
0
  0
LINE
  8
1
 62
3
 10
323.9839811881497
 20
54.22502172705171
 30
0
 11
323.9839811881497
 21
36.22502172705171
 31
0
  0
LINE
  8
1
 62
3
 10
323.9839811881497
 20
36.22502172705171
 30
0
 11
323.9839811881497
 21
34.92502172705159
 31
0
  0
LINE
  8
1
 62
3
 10
324.3839811881498
 20
56.24472473617249
 30
0
 11
324.3839811881498
 21
54.24472473617249
 31
0
  0
LINE
  8
1
 62
3
 10
324.3839811881498
 20
64.24472473617249
 30
0
 11
324.3839811881498
 21
56.24472473617249
 31
0
  0
LINE
  8
1
 62
3
 10
324.3839811881498
 20
66.24472473617249
 30
0
 11
324.3839811881498
 21
64.24472473617249
 31
0
  0
LINE
  8
1
 62
3
 10
323.9839811881497
 20
67.72502172705171
 30
0
 11
323.9839811881497
 21
66.22502172705171
 31
0
  0
LINE
  8
1
 62
3
 10
324.3839811881498
 20
54.24472473617249
 30
0
 11
323.9839811881497
 21
54.24472473617249
 31
0
  0
LINE
  8
1
 62
3
 10
303.4839811881497
 20
32.72502172705171
 30
0
 11
303.4839811881497
 21
33.92502172705159
 31
0
  0
LINE
  8
1
 62
3
 10
303.4839811881503
 20
33.92502172705329
 30
0
 11
303.4839811881503
 21
45.58249672408331
 31
0
  0
LINE
  8
1
 62
3
 10
302.9839811881497
 20
86.5450217270517
 30
0
 11
302.9839811881497
 21
83.695044141051
 31
0
  0
LINE
  8
1
 62
3
 10
302.9839811881497
 20
83.695044141051
 30
0
 11
302.9839811881497
 21
74.22502172705168
 31
0
  0
LINE
  8
1
 62
3
 10
302.9839811881497
 20
33.94502172705168
 30
0
 11
303.4839811881503
 21
33.94502172705327
 31
0
  0
LINE
  8
1
 62
3
 10
302.9839811881497
 20
33.94502172705168
 30
0
 11
302.9839811881497
 21
36.79499931305239
 31
0
  0
LINE
  8
1
 62
3
 10
302.9839811881497
 20
36.79499931305239
 30
0
 11
302.9839811881497
 21
46.22502172705171
 31
0
  0
LINE
  8
1
 62
3
 10
303.4839811881497
 20
86.5450217270517
 30
0
 11
302.9839811881497
 21
86.5450217270517
 31
0
  0
LINE
  8
1
 62
3
 10
323.9839811881497
 20
66.22502172705171
 30
0
 11
323.9839811881497
 21
54.22502172705171
 31
0
  0
LINE
  8
1
 62
3
 10
323.9839811881497
 20
66.24472473617249
 30
0
 11
324.3839811881498
 21
66.24472473617249
 31
0
  0
LINE
  8
1
 62
3
 10
291.3839811881501
 20
29.72502172705171
 30
0
 11
292.3839811881501
 21
29.72502172705188
 31
0
  0
LINE
  8
1
 62
3
 10
291.3839811881501
 20
33.22502172705171
 30
0
 11
291.3839811881501
 21
29.72502172705171
 31
0
  0
LINE
  8
1
 62
3
 10
291.3839811881501
 20
33.22502172705171
 30
0
 11
288.73398118815
 21
33.22502172705171
 31
0
  0
LINE
  8
1
 62
3
 10
288.73398118815
 20
33.22502172705171
 30
0
 11
288.3839811881501
 21
33.57502172705151
 31
0
  0
LINE
  8
1
 62
3
 10
288.3839811881501
 20
36.22502172705171
 30
0
 11
288.3839811881501
 21
33.57502172705151
 31
0
  0
LINE
  8
1
 62
3
 10
288.3839811881501
 20
56.20531871793131
 30
0
 11
288.3839811881501
 21
36.22502172705171
 31
0
  0
LINE
  8
1
 62
3
 10
288.3839811881501
 20
84.2250217270512
 30
0
 11
288.3839811881501
 21
56.20531871793131
 31
0
  0
LINE
  8
1
 62
3
 10
288.3839811881501
 20
86.8750217270514
 30
0
 11
288.3839811881501
 21
84.2250217270512
 31
0
  0
LINE
  8
1
 62
3
 10
288.73398118815
 20
87.2250217270512
 30
0
 11
291.38398118815
 21
87.2250217270512
 31
0
  0
LINE
  8
1
 62
3
 10
291.3839811881501
 20
90.72502172705188
 30
0
 11
291.38398118815
 21
87.2250217270512
 31
0
  0
LINE
  8
1
 62
3
 10
298.3839811881501
 20
90.725021727052
 30
0
 11
291.3839811881501
 21
90.72502172705188
 31
0
  0
LINE
  8
1
 62
3
 10
298.3839811881501
 20
87.26665629303179
 30
0
 11
298.3839811881501
 21
90.52573045075749
 31
0
  0
LINE
  8
1
 62
3
 10
298.3839811881501
 20
90.725021727052
 30
0
 11
298.3839811881501
 21
87.26665629303179
 31
0
  0
LINE
  8
1
 62
3
 10
298.3839811881501
 20
47.22502172705188
 30
0
 11
298.3839811881501
 21
88.40002172705187
 31
0
  0
LINE
  8
1
 62
3
 10
302.48398118815
 20
87.26665629303179
 30
0
 11
302.48398118815
 21
89.07502172705171
 31
0
  0
LINE
  8
1
 62
3
 10
302.48398118815
 20
41.35043563887513
 30
0
 11
302.4839811881499
 21
31.37502172705171
 31
0
  0
LINE
  8
1
 62
3
 10
288.73398118815
 20
87.2250217270512
 30
0
 11
288.3839811881501
 21
86.8750217270514
 31
0
  0
LINE
  8
1
 62
3
 10
291.38398118815
 20
87.2250217270512
 30
0
 11
291.3839811881501
 21
33.22502172705171
 31
0
  0
LINE
  8
1
 62
3
 10
292.3839811881501
 20
29.72502172705188
 30
0
 11
298.3839811881501
 21
29.72502172705188
 31
0
  0
LINE
  8
1
 62
3
 10
298.3839811881501
 20
29.72502172705188
 30
0
 11
298.3839811881501
 21
47.22502172705188
 31
0
  0
LINE
  8
1
 62
1
 10
273.703479004468
 20
60.22502172705171
 30
0
 11
332.3839811881497
 21
60.22502172705171
 31
0
  0
ARC
  8
1
 62
3
 10
171.2103982520665
 20
172.3361741672983
 30
0
 40
4.800000000000167
 50
304.849904579047
 51
235.1500954209527
  0
ARC
  8
1
 62
3
 10
171.2103982520665
 20
171.7675898413379
 30
0
 40
3.399999999999998
 50
252.8953648233562
 51
287.1046351766438
  0
ARC
  8
1
 62
3
 10
171.2103982520665
 20
171.7675898413379
 30
0
 40
3.400000000000091
 50
270
 51
287.1046351766438
  0
ARC
  8
1
 62
3
 10
171.2103982520665
 20
171.7675898413379
 30
0
 40
3.400000000000091
 50
270
 51
287.1046351766438
  0
ARC
  8
1
 62
3
 10
171.2103982520665
 20
171.7675898413379
 30
0
 40
3.399999999999717
 50
91.79565845999294
 51
252.8953648233562
  0
ARC
  8
1
 62
3
 10
171.2103982520665
 20
171.7675898413379
 30
0
 40
3.399999999999717
 50
91.79565845999294
 51
252.8953648233562
  0
ARC
  8
1
 62
3
 10
171.2103982520665
 20
171.7675898413379
 30
0
 40
3.399999999999998
 50
287.1046351766438
 51
319.8586750708071
  0
ARC
  8
1
 62
3
 10
171.2103982520665
 20
171.7675898413379
 30
0
 40
3.399999999999937
 50
319.8586750708071
 51
252.8953648233562
  0
ARC
  8
1
 62
3
 10
171.2103982520665
 20
171.7675898413379
 30
0
 40
3.399999999999998
 50
287.1046351766438
 51
319.8586750708071
  0
ARC
  8
1
 62
3
 10
171.2103982520665
 20
171.7675898413379
 30
0
 40
3.399999999999998
 50
287.1046351766438
 51
319.8586750708071
  0
ARC
  8
1
 62
3
 10
171.2103982520665
 20
171.7675898413379
 30
0
 40
3.399999999999998
 50
252.8953648233562
 51
270
  0
ARC
  8
1
 62
3
 10
171.2103982520665
 20
171.7675898413379
 30
0
 40
3.399999999999937
 50
319.8586750708071
 51
91.79565845999294
  0
ARC
  8
1
 62
3
 10
171.2103982520665
 20
171.7675898413379
 30
0
 40
3.399999999999998
 50
252.8953648233562
 51
270
  0
ARC
  8
1
 62
3
 10
171.2103982520665
 20
171.7675898413379
 30
0
 40
3.399999999999937
 50
319.8586750708071
 51
91.79565845999294
  0
ARC
  8
1
 62
3
 10
297.9039811881501
 20
138.2675674273382
 30
0
 40
4.160000000000217
 50
324.3146652873475
 51
342.4172239915733
  0
ARC
  8
1
 62
3
 10
297.9039811881501
 20
138.2675674273382
 30
0
 40
4.160000000000093
 50
4.331148730784729
 51
17.58277600842105
  0
ARC
  8
1
 62
3
 10
297.9039811881501
 20
138.2675674273382
 30
0
 40
4.160000000000133
 50
17.58277600842105
 51
35.68533471264995
  0
ARC
  8
1
 62
3
 10
297.9039811881501
 20
138.2675674273382
 30
0
 40
4.160000000000144
 50
342.4172239915733
 51
355.6688512692079
  0
ARC
  8
1
 62
3
 10
437.925198784361
 20
171.7675898413375
 30
0
 40
28.85000000000007
 50
102.6323888992591
 51
180
  0
ARC
  8
1
 62
3
 10
437.925198784361
 20
171.7675898413375
 30
0
 40
28.84999999999991
 50
180
 51
227.1840121926644
  0
ARC
  8
1
 62
3
 10
437.925198784361
 20
171.7675898413375
 30
0
 40
28.85000000000003
 50
312.8159878073359
 51
77.36761110073987
  0
ARC
  8
1
 62
3
 10
420.3252003320301
 20
138.2675898413375
 30
0
 40
0.4571999999999119
 50
172.5415509436758
 51
187.4584490563242
  0
ARC
  8
1
 62
3
 10
420.3252003320301
 20
138.2675898413375
 30
0
 40
1.044000000000051
 50
120.2161982852416
 51
149.7838017147477
  0
ARC
  8
1
 62
3
 10
420.3252003320301
 20
138.2675898413375
 30
0
 40
0.4571999999999562
 50
82.54155094363347
 51
97.45844905627472
  0
ARC
  8
1
 62
3
 10
420.3252003320301
 20
138.2675898413375
 30
0
 40
1.044000000000246
 50
30.21619828524444
 51
59.7838017147422
  0
ARC
  8
1
 62
3
 10
420.3252003320301
 20
138.2675898413375
 30
0
 40
0.45720000000025
 50
352.5415509436814
 51
7.458449056318611
  0
ARC
  8
1
 62
3
 10
420.3252003320301
 20
138.2675898413375
 30
0
 40
1.044000000000223
 50
300.2161982852578
 51
329.7838017147461
  0
ARC
  8
1
 62
3
 10
420.3252003320301
 20
138.2675898413375
 30
0
 40
0.4571999999998603
 50
262.5415509437253
 51
277.4584490563665
  0
ARC
  8
1
 62
3
 10
420.3252003320301
 20
138.2675898413375
 30
0
 40
1.0440000000001
 50
210.2161982852617
 51
239.7838017147583
  0
ARC
  8
1
 62
3
 10
455.5251972366923
 20
138.2675898413375
 30
0
 40
0.4571999999999119
 50
172.5415509436758
 51
187.4584490563242
  0
ARC
  8
1
 62
3
 10
455.5251972366923
 20
138.2675898413375
 30
0
 40
1.044000000000023
 50
120.2161982852389
 51
149.783801714743
  0
ARC
  8
1
 62
3
 10
455.5251972366923
 20
138.2675898413375
 30
0
 40
0.4571999999999266
 50
82.54155094366172
 51
97.45844905628884
  0
ARC
  8
1
 62
3
 10
455.5251972366923
 20
138.2675898413375
 30
0
 40
1.044000000000049
 50
30.21619828525072
 51
59.7838017147476
  0
ARC
  8
1
 62
3
 10
455.5251972366923
 20
138.2675898413375
 30
0
 40
0.4572000000001374
 50
352.5415509436796
 51
7.458449056320461
  0
ARC
  8
1
 62
3
 10
455.5251972366923
 20
138.2675898413375
 30
0
 40
1.044000000000166
 50
300.2161982852524
 51
329.7838017147398
  0
ARC
  8
1
 62
3
 10
455.5251972366923
 20
138.2675898413375
 30
0
 40
0.457199999999875
 50
262.5415509437112
 51
277.4584490563382
  0
ARC
  8
1
 62
3
 10
455.5251972366923
 20
138.2675898413375
 30
0
 40
1.043999999999953
 50
210.2161982852664
 51
239.7838017147611
  0
ARC
  8
1
 62
3
 10
437.925198784361
 20
171.7675898413375
 30
0
 40
6.000000000000036
 50
44.36151156291598
 51
135.6384884370833
  0
ARC
  8
1
 62
3
 10
437.925198784361
 20
171.7675898413375
 30
0
 40
5.999999999999972
 50
284.3615115629155
 51
0
  0
ARC
  8
1
 62
3
 10
432.7290463616544
 20
174.7675898413375
 30
0
 40
1.499999999999978
 50
52.81924421854163
 51
180
  0
ARC
  8
1
 62
3
 10
432.7290463616544
 20
174.7675898413375
 30
0
 40
1.5
 50
180
 51
247.1807557814593
  0
ARC
  8
1
 62
3
 10
437.925198784361
 20
165.7675898413375
 30
0
 40
1.500000000000025
 50
299.9999999999994
 51
7.180755781458832
  0
ARC
  8
1
 62
3
 10
443.1213512070676
 20
174.7675898413375
 30
0
 40
1.500000000000049
 50
60.00000000000109
 51
127.1807557814567
  0
ARC
  8
1
 62
3
 10
437.925198784361
 20
165.7675898413375
 30
0
 40
1.499999999999829
 50
172.8192442185409
 51
299.9999999999994
  0
ARC
  8
1
 62
3
 10
443.1213512070676
 20
174.7675898413375
 30
0
 40
1.499999999999938
 50
292.8192442185408
 51
60.00000000000109
  0
ARC
  8
1
 62
3
 10
437.925198784361
 20
171.7675898413375
 30
0
 40
5.999999999999913
 50
164.3615115629158
 51
255.638488437085
  0
ARC
  8
1
 62
3
 10
437.925198784361
 20
171.7675898413375
 30
0
 40
6
 50
0
 51
15.638488437084
  0
ARC
  8
1
 62
3
 10
297.9039811881501
 20
77.82502172705159
 30
0
 40
4.160000000000133
 50
4.331148730792145
 51
17.58277600842675
  0
ARC
  8
1
 62
3
 10
297.9039811881501
 20
77.82502172705159
 30
0
 40
4.160000000000084
 50
324.3146652873501
 51
342.417223991579
  0
ARC
  8
1
 62
3
 10
297.9039811881501
 20
77.82502172705159
 30
0
 40
4.160000000000133
 50
342.417223991579
 51
355.6688512692153
  0
ARC
  8
1
 62
3
 10
297.9039811881501
 20
77.82502172705159
 30
0
 40
4.160000000000144
 50
17.58277600842675
 51
35.68533471265249
  0
ARC
  8
1
 62
3
 10
297.9039811881501
 20
42.6250217270518
 30
0
 40
4.160000000000144
 50
342.4172239915733
 51
355.6688512692079
  0
ARC
  8
1
 62
3
 10
297.9039811881501
 20
42.6250217270518
 30
0
 40
4.160000000000133
 50
17.58277600842105
 51
35.68533471264995
  0
ARC
  8
1
 62
3
 10
297.9039811881501
 20
42.6250217270518
 30
0
 40
4.160000000000093
 50
4.331148730784729
 51
17.58277600842105
  0
ARC
  8
1
 62
3
 10
297.9039811881501
 20
42.6250217270518
 30
0
 40
4.160000000000217
 50
324.3146652873475
 51
342.4172239915733
  0
CIRCLE
  8
1
 62
1
  6
DASHDOT
 10
171.2103982520665
 20
171.7675898413379
 30
0
 40
2.699999999999619
  0
CIRCLE
  8
1
 62
2
 10
169.6103982520666
 20
167.524526591479
 30
0
 40
0.3999999999998067
  0
CIRCLE
  8
1
 62
2
 10
172.8103982520665
 20
167.524526591479
 30
0
 40
0.4000000000000057
  0
CIRCLE
  8
1
 62
3
 10
171.2103982520665
 20
171.7675898413379
 30
0
 40
23.99999999999992
  0
CIRCLE
  8
1
 62
3
 10
146.4603982520667
 20
196.517589841338
 30
0
 40
2.250000000000199
  0
CIRCLE
  8
1
 62
3
 10
195.9603982520665
 20
196.5175898413379
 30
0
 40
2.250000000000114
  0
CIRCLE
  8
1
 62
3
 10
146.4603982520667
 20
147.0175898413379
 30
0
 40
2.250000000000199
  0
CIRCLE
  8
1
 62
3
 10
195.9603982520665
 20
147.0175898413379
 30
0
 40
2.250000000000114
  0
CIRCLE
  8
1
 62
3
 10
171.2103982520665
 20
171.7675898413379
 30
0
 40
27.25
  0
CIRCLE
  8
1
 62
3
 10
171.2103982520665
 20
171.7675898413379
 30
0
 40
9.5
  0
CIRCLE
  8
1
 62
3
 10
153.6103982520665
 20
138.2676034067872
 30
0
 40
1.300000000000011
  0
CIRCLE
  8
1
 62
3
 10
188.8103982520665
 20
138.2676034067872
 30
0
 40
1.299999999999983
  0
CIRCLE
  8
1
 62
3
 10
437.925198784361
 20
171.7675898413375
 30
0
 40
27.5
  0
CIRCLE
  8
1
 62
3
 10
413.175198784361
 20
147.0175898413376
 30
0
 40
2.25
  0
CIRCLE
  8
1
 62
3
 10
462.675198784361
 20
196.5175898413375
 30
0
 40
3.25
  0
CIRCLE
  8
1
 62
3
 10
413.175198784361
 20
196.5175898413375
 30
0
 40
2.25
  0
CIRCLE
  8
1
 62
3
 10
462.675198784361
 20
196.5175898413375
 30
0
 40
2.25
  0
CIRCLE
  8
1
 62
3
 10
462.675198784361
 20
147.0175898413376
 30
0
 40
2.25
  0
CIRCLE
  8
1
 62
3
 10
413.175198784361
 20
147.0175898413376
 30
0
 40
3.25
  0
CIRCLE
  8
1
 62
3
 10
413.175198784361
 20
196.5175898413375
 30
0
 40
3.25
  0
CIRCLE
  8
1
 62
3
 10
462.675198784361
 20
147.0175898413376
 30
0
 40
3.25
  0
CIRCLE
  8
1
 62
3
 10
420.3252003320301
 20
138.2675898413375
 30
0
 40
2.015999999999565
  0
CIRCLE
  8
1
 62
3
 10
455.5251972366923
 20
138.2675898413375
 30
0
 40
2.015999999999565
  0
CIRCLE
  8
1
 62
3
 10
437.925198784361
 20
171.7675898413375
 30
0
 40
4
  0
CIRCLE
  8
1
 62
3
 10
437.925198784361
 20
171.7675898413375
 30
0
 40
6
  0
CIRCLE
  8
1
 62
3
 10
302.9540779550349
 20
70.22502172705168
 30
0
 40
0.3499999999997954
  0
CIRCLE
  8
1
 62
3
 10
302.9540779550349
 20
67.72502172705171
 30
0
 40
0.3499999999996817
  0
CIRCLE
  8
1
 62
3
 10
302.9540779550349
 20
65.22502172705171
 30
0
 40
0.3499999999996817
  0
CIRCLE
  8
1
 62
3
 10
302.9540779550349
 20
62.72502172705171
 30
0
 40
0.3499999999996817
  0
CIRCLE
  8
1
 62
3
 10
302.9540779550349
 20
50.22502172705171
 30
0
 40
0.3499999999996817
  0
CIRCLE
  8
1
 62
3
 10
302.9540779550349
 20
52.72502172705171
 30
0
 40
0.3499999999996817
  0
CIRCLE
  8
1
 62
3
 10
302.9540779550349
 20
55.22502172705171
 30
0
 40
0.3499999999996817
  0
CIRCLE
  8
1
 62
3
 10
302.9540779550349
 20
57.72502172705171
 30
0
 40
0.3499999999996817
  0
CIRCLE
  8
1
 62
3
 10
302.9540779550349
 20
60.22502172705171
 30
0
 40
0.3499999999996817
  0
CIRCLE
  8
1
 62
3
 10
302.9540779550349
 20
47.72502172705171
 30
0
 40
0.3499999999996817
  0
CIRCLE
  8
1
 62
3
 10
302.9540779550349
 20
72.72502172705168
 30
0
 40
0.3499999999997954
  0
POLYLINE
  8
1
 62
3
 66
1
  0
VERTEX
  8
1
 10
324.9225977118926
 20
278.1306092435049
 30
0
 42
-0.00115442049058275
  0
VERTEX
  8
1
 10
325.6541893627484
 20
278.051994218861
 30
0
 42
-0.003468734099759868
  0
VERTEX
  8
1
 10
326.3844464307031
 20
277.9666880718376
 30
0
 42
-0.00579654717656703
  0
VERTEX
  8
1
 10
327.1120343328557
 20
277.8679996800555
 30
0
 42
-0.008136977558841534
  0
VERTEX
  8
1
 10
327.8356184863053
 20
277.7492379211355
 30
0
 42
-0.01756846700865371
  0
VERTEX
  8
1
 10
329.0317716737816
 20
277.489216146442
 30
0
 42
-0.003142605946746038
  0
VERTEX
  8
1
 10
329.5078827265892
 20
277.3656614637188
 30
0
 42
-5.559773162677619e-005
  0
VERTEX
  8
1
 10
329.9833974656086
 20
277.2390109063952
 30
0
 42
0.003030683839690888
  0
VERTEX
  8
1
 10
330.4595158898751
 20
277.1152277563381
 30
0
 42
0.006125008534128654
  0
VERTEX
  8
1
 10
330.9374379984238
 20
277.000275295414
 30
0
 42
0.009595418813622924
  0
VERTEX
  8
1
 10
331.585756115024
 20
276.8657458276288
 30
0
 42
0.003443420274294826
  0
VERTEX
  8
1
 10
332.2376507607166
 20
276.748114226563
 30
0
 42
0.001921277062130519
  0
VERTEX
  8
1
 10
332.8912419918426
 20
276.6374037216613
 30
0
 42
-0.003059807641614571
  0
VERTEX
  8
1
 10
333.544649864743
 20
276.5236375423684
 30
0
 42
-0.00688043413168989
  0
VERTEX
  8
1
 10
334.1959944357588
 20
276.396838918129
 30
0
 42
-0.005683946695158693
  0
VERTEX
  8
1
 10
334.7815182153772
 20
276.2658022697952
 30
0
 42
-0.001199148557900889
  0
VERTEX
  8
1
 10
335.3653855651288
 20
276.1266733328346
 30
0
 42
0.003285732452838536
  0
VERTEX
  8
1
 10
335.9491576680541
 20
275.9901348981742
 30
0
 42
0.00779946278753738
  0
VERTEX
  8
1
 10
336.5343957071933
 20
275.8668697567409
 30
0
 42
0.01237618344521113
  0
VERTEX
  8
1
 10
337.1226608655867
 20
275.7675606994617
 30
0
 42
0.01495152526738535
  0
VERTEX
  8
1
 10
337.7375834159785
 20
275.6980337333417
 30
0
 42
0.00932884967642692
  0
VERTEX
  8
1
 10
338.3564594045899
 20
275.6583528069625
 30
0
 42
0.00878286538308074
  0
VERTEX
  8
1
 10
338.978300471866
 20
275.6410564103891
 30
0
 42
0.003218905574663507
  0
VERTEX
  8
1
 10
339.6021182582519
 20
275.6386830336861
 30
0
 42
0.002755082482956176
  0
VERTEX
  8
1
 10
340.2269244041927
 20
275.6437711669184
 30
0
  0
SEQEND
  8
1
  0
POLYLINE
  8
1
 62
3
 66
1
  0
VERTEX
  8
1
 10
323.9004774606217
 20
279.231427270183
 30
0
 42
-7.052380730833306e-005
  0
VERTEX
  8
1
 10
324.1909778230834
 20
279.2080519919367
 30
0
 42
-0.0002115044987186652
  0
VERTEX
  8
1
 10
324.481510907762
 20
279.1845091219567
 30
0
 42
-0.000352283905294779
  0
VERTEX
  8
1
 10
324.7721094368748
 20
279.1606310685094
 30
0
 42
-0.0004927261341891312
  0
VERTEX
  8
1
 10
325.0628061326385
 20
279.1362502398609
 30
0
 42
-0.0006326927681570954
  0
VERTEX
  8
1
 10
325.3536337172703
 20
279.1111990442778
 30
0
 42
-0.002829224898409031
  0
VERTEX
  8
1
 10
326.0232436267465
 20
279.0493609479609
 30
0
 42
-0.005262177555184565
  0
VERTEX
  8
1
 10
326.6919302157677
 20
278.976681074832
 30
0
 42
-0.007717915863571729
  0
VERTEX
  8
1
 10
327.3579036366845
 20
278.886755696842
 30
0
 42
-0.01019790816425987
  0
VERTEX
  8
1
 10
328.0193740418476
 20
278.7731810859414
 30
0
 42
-0.02165487244672552
  0
VERTEX
  8
1
 10
329.1402537982578
 20
278.5062056577034
 30
0
 42
-0.00317460738771509
  0
VERTEX
  8
1
 10
329.6036107674586
 20
278.3726272258466
 30
0
 42
0.001341736710739231
  0
VERTEX
  8
1
 10
330.0664396345889
 20
278.2373619025638
 30
0
 42
0.005867617843858267
  0
VERTEX
  8
1
 10
330.530557543027
 20
278.1089533719083
 30
0
 42
0.01043616403247502
  0
VERTEX
  8
1
 10
330.9977816361518
 20
277.9959453179331
 30
0
 42
0.01572676402658398
  0
VERTEX
  8
1
 10
331.6389197867712
 20
277.8759687887726
 30
0
 42
0.00493829670929953
  0
VERTEX
  8
1
 10
332.2857287393584
 20
277.7824013002389
 30
0
 42
0.00188402028296498
  0
VERTEX
  8
1
 10
332.934807078483
 20
277.6975299842163
 30
0
 42
-0.006909369922412604
  0
VERTEX
  8
1
 10
333.5827533887145
 20
277.6036419725889
 30
0
 42
-0.0137962970163148
  0
VERTEX
  8
1
 10
334.2261662546228
 20
277.4830243972411
 30
0
 42
-0.01224550147378088
  0
VERTEX
  8
1
 10
334.8261034590376
 20
277.3347252302447
 30
0
 42
-0.004376625229159859
  0
VERTEX
  8
1
 10
335.4218853086313
 20
277.1662786574975
 30
0
 42
0.00344373513131315
  0
VERTEX
  8
1
 10
336.0163995627733
 20
276.996985118836
 30
0
 42
0.01135075693027058
  0
VERTEX
  8
1
 10
336.6125339808331
 20
276.8461450540969
 30
0
 42
0.01951810480751218
  0
VERTEX
  8
1
 10
337.2131763221799
 20
276.7330589031167
 30
0
 42
0.02289053426953447
  0
VERTEX
  8
1
 10
337.8074266461026
 20
276.6726590661339
 30
0
 42
0.01385585263748328
  0
VERTEX
  8
1
 10
338.4073431650119
 20
276.6559713659907
 30
0
 42
0.0133686178233607
  0
VERTEX
  8
1
 10
339.0115093301611
 20
276.6720677684772
 30
0
 42
0.004535915094106705
  0
VERTEX
  8
1
 10
339.6185085928036
 20
276.7100202393837
 30
0
 42
0.004326632835494841
  0
VERTEX
  8
1
 10
340.2269244041927
 20
276.7589007445001
 30
0
  0
SEQEND
  8
1
  0
POLYLINE
  8
1
 62
3
 66
1
  0
VERTEX
  8
1
 10
340.2269244041927
 20
265.731427270183
 30
0
 42
-0.001607743817892962
  0
VERTEX
  8
1
 10
339.3187954852575
 20
265.7350926830309
 30
0
 42
-0.004839459238729736
  0
VERTEX
  8
1
 10
338.4123126729445
 20
265.7504319507823
 30
0
 42
-0.008112118624388485
  0
VERTEX
  8
1
 10
337.5091220738759
 20
265.7891189283412
 30
0
 42
-0.01142630948606115
  0
VERTEX
  8
1
 10
336.610869794674
 20
265.8628274706113
 30
0
 42
-0.01474034783449
  0
VERTEX
  8
1
 10
335.719201941961
 20
265.983231432496
 30
0
 42
-0.0109190797521979
  0
VERTEX
  8
1
 10
335.1050668763571
 20
266.0993853731596
 30
0
 42
-0.0100373377332636
  0
VERTEX
  8
1
 10
334.4952074586767
 20
266.241431865967
 30
0
 42
-0.00916721934823903
  0
VERTEX
  8
1
 10
333.8899349941329
 20
266.4071491471559
 30
0
 42
-0.008316733795436147
  0
VERTEX
  8
1
 10
333.2895607879386
 20
266.5943154529641
 30
0
 42
-0.02049271564582445
  0
VERTEX
  8
1
 10
331.6758115912937
 20
267.2013886652781
 30
0
 42
-0.01613454575085662
  0
VERTEX
  8
1
 10
330.683468360564
 20
267.6614294128779
 30
0
 42
-0.01882779289652845
  0
VERTEX
  8
1
 10
329.7269695430167
 20
268.1889429250271
 30
0
 42
-0.0215418228755168
  0
VERTEX
  8
1
 10
328.8159182285507
 20
268.792040864324
 30
0
 42
-0.0241240371368369
  0
VERTEX
  8
1
 10
327.9599175070647
 20
269.4788348933669
 30
0
 42
-0.01837071847581492
  0
VERTEX
  8
1
 10
327.1423324817507
 20
270.266787551983
 30
0
 42
-0.003824838419061377
  0
VERTEX
  8
1
 10
326.3570444844894
 20
271.0935737548024
 30
0
 42
0.0106838542729462
  0
VERTEX
  8
1
 10
325.5684740072975
 20
271.9016428659954
 30
0
 42
0.02605597401757742
  0
VERTEX
  8
1
 10
324.7410415421914
 20
272.6334442497322
 30
0
 42
0.04330280254884799
  0
VERTEX
  8
1
 10
323.8391675811878
 20
273.231427270183
 30
0
 42
0.03453843384914326
  0
VERTEX
  8
1
 10
323.1764284998457
 20
273.53528523543
 30
0
 42
0.01926728948014176
  0
VERTEX
  8
1
 10
322.4738830491323
 20
273.769904557179
 30
0
 42
0.01966704674600346
  0
VERTEX
  8
1
 10
321.7414828213904
 20
273.9525948963045
 30
0
 42
0.005391877216712992
  0
VERTEX
  8
1
 10
320.989179408963
 20
274.100665913681
 30
0
 42
0.006832092944611326
  0
VERTEX
  8
1
 10
320.2269244041927
 20
274.231427270183
 30
0
  0
SEQEND
  8
1
  0
POLYLINE
  8
1
 62
3
 66
1
  0
VERTEX
  8
1
 10
340.2269244041927
 20
266.731427270183
 30
0
 42
-0.001607743817705222
  0
VERTEX
  8
1
 10
339.3187954852575
 20
266.7350926830308
 30
0
 42
-0.00483945923854166
  0
VERTEX
  8
1
 10
338.4123126729445
 20
266.7504319507823
 30
0
 42
-0.008112118624325643
  0
VERTEX
  8
1
 10
337.5091220738759
 20
266.7891189283412
 30
0
 42
-0.01142630948593523
  0
VERTEX
  8
1
 10
336.610869794674
 20
266.8628274706112
 30
0
 42
-0.01474034783442753
  0
VERTEX
  8
1
 10
335.719201941961
 20
266.983231432496
 30
0
 42
-0.0109190797521979
  0
VERTEX
  8
1
 10
335.1050668763571
 20
267.0993853731596
 30
0
 42
-0.01003733773352814
  0
VERTEX
  8
1
 10
334.4952074586767
 20
267.2414318659671
 30
0
 42
-0.009167219348327134
  0
VERTEX
  8
1
 10
333.8899349941329
 20
267.4071491471559
 30
0
 42
-0.008316733795521751
  0
VERTEX
  8
1
 10
333.2895607879386
 20
267.5943154529641
 30
0
 42
-0.02049271564590875
  0
VERTEX
  8
1
 10
331.6758115912937
 20
268.2013886652781
 30
0
 42
-0.01613454575095096
  0
VERTEX
  8
1
 10
330.683468360564
 20
268.6614294128779
 30
0
 42
-0.01882779289652845
  0
VERTEX
  8
1
 10
329.7269695430167
 20
269.1889429250271
 30
0
 42
-0.0215418228755168
  0
VERTEX
  8
1
 10
328.8159182285507
 20
269.792040864324
 30
0
 42
-0.0241240371368369
  0
VERTEX
  8
1
 10
327.9599175070647
 20
270.4788348933669
 30
0
 42
-0.01837071847581492
  0
VERTEX
  8
1
 10
327.1423324817507
 20
271.266787551983
 30
0
 42
-0.003824838419130017
  0
VERTEX
  8
1
 10
326.3570444844894
 20
272.0935737548024
 30
0
 42
0.0106838542729462
  0
VERTEX
  8
1
 10
325.5684740072975
 20
272.9016428659954
 30
0
 42
0.02605597401757742
  0
VERTEX
  8
1
 10
324.7410415421914
 20
273.6334442497322
 30
0
 42
0.04330280254884799
  0
VERTEX
  8
1
 10
323.8391675811878
 20
274.231427270183
 30
0
 42
0.03453843384914326
  0
VERTEX
  8
1
 10
323.1764284998457
 20
274.53528523543
 30
0
 42
0.01926728948014176
  0
VERTEX
  8
1
 10
322.4738830491323
 20
274.769904557179
 30
0
 42
0.01966704674600346
  0
VERTEX
  8
1
 10
321.7414828213904
 20
274.9525948963045
 30
0
 42
0.005391877216712992
  0
VERTEX
  8
1
 10
320.989179408963
 20
275.100665913681
 30
0
 42
0.006832092944611326
  0
VERTEX
  8
1
 10
320.2269244041927
 20
275.231427270183
 30
0
  0
SEQEND
  8
1
  0
POLYLINE
  8
1
 62
3
 66
1
  0
VERTEX
  8
1
 10
340.2269244041927
 20
268.231427270183
 30
0
 42
-0.001902789264424261
  0
VERTEX
  8
1
 10
339.4848585685151
 20
268.185632909818
 30
0
 42
-0.005745277525898705
  0
VERTEX
  8
1
 10
338.7445689455557
 20
268.1512871395443
 30
0
 42
-0.009686512557380988
  0
VERTEX
  8
1
 10
338.0078317480329
 20
268.139838549453
 30
0
 42
-0.01374928444276679
  0
VERTEX
  8
1
 10
337.2764231886649
 20
268.1627357296355
 30
0
 42
-0.01788295130677345
  0
VERTEX
  8
1
 10
336.5521194801699
 20
268.231427270183
 30
0
 42
-0.01866086244698708
  0
VERTEX
  8
1
 10
335.7921629599017
 20
268.3624340521519
 30
0
 42
-0.01353317069708901
  0
VERTEX
  8
1
 10
335.0386956979951
 20
268.54293290278
 30
0
 42
-0.008418840654038258
  0
VERTEX
  8
1
 10
334.2882019157702
 20
268.7579283624236
 30
0
 42
-0.003422876774977175
  0
VERTEX
  8
1
 10
333.5371658345465
 20
268.9924249714392
 30
0
 42
0.001454396476810649
  0
VERTEX
  8
1
 10
332.7820716756438
 20
269.231427270183
 30
0
 42
0.002341100075070392
  0
VERTEX
  8
1
 10
331.9386935126377
 20
269.4913464987723
 30
0
 42
-0.008094591874768957
  0
VERTEX
  8
1
 10
331.1020357051349
 20
269.7637348670003
 30
0
 42
-0.0167036543267237
  0
VERTEX
  8
1
 10
330.2881433160982
 20
270.0739762083074
 30
0
 42
-0.02578314228297503
  0
VERTEX
  8
1
 10
329.5130614084903
 20
270.4474543561341
 30
0
 42
-0.0727643893375607
  0
VERTEX
  8
1
 10
328.0785309476956
 20
271.5298872948087
 30
0
 42
-0.01438878185783022
  0
VERTEX
  8
1
 10
327.4141217580451
 20
272.226302848936
 30
0
 42
0.002813176268205383
  0
VERTEX
  8
1
 10
326.7649300488664
 20
272.9388933115611
 30
0
 42
0.02037324986595838
  0
VERTEX
  8
1
 10
326.0962783927034
 20
273.607752187942
 30
0
 42
0.04059420823344577
  0
VERTEX
  8
1
 10
325.3734893620998
 20
274.172972983337
 30
0
 42
0.05710425916605961
  0
VERTEX
  8
1
 10
324.4758728519205
 20
274.6271712236625
 30
0
 42
0.03290429397088807
  0
VERTEX
  8
1
 10
323.4904586874731
 20
274.9196978753505
 30
0
 42
0.03065123788446983
  0
VERTEX
  8
1
 10
322.4391962823246
 20
275.0909708355603
 30
0
 42
0.008913767507497745
  0
VERTEX
  8
1
 10
321.3440350500422
 20
275.1814080014514
 30
0
 42
0.009909907619763483
  0
VERTEX
  8
1
 10
320.2269244041927
 20
275.231427270183
 30
0
  0
SEQEND
  8
1
  0
POLYLINE
  8
1
 62
3
 66
1
  0
VERTEX
  8
1
 10
340.2269244041927
 20
269.231427270183
 30
0
 42
-0.001829921716636221
  0
VERTEX
  8
1
 10
339.4857093578655
 20
269.1875005050698
 30
0
 42
-0.005521412245290305
  0
VERTEX
  8
1
 10
338.746057826919
 20
269.1545554312349
 30
0
 42
-0.009297014989029228
  0
VERTEX
  8
1
 10
338.0095333267337
 20
269.1435737399567
 30
0
 42
-0.01317426561356191
  0
VERTEX
  8
1
 10
337.2776993726905
 20
269.1655371225132
 30
0
 42
-0.01710602726115787
  0
VERTEX
  8
1
 10
336.5521194801699
 20
269.231427270183
 30
0
 42
-0.01816776250885746
  0
VERTEX
  8
1
 10
335.7898776815553
 20
269.3574175636561
 30
0
 42
-0.0139503729420977
  0
VERTEX
  8
1
 10
335.034097420943
 20
269.5328390759299
 30
0
 42
-0.00973995831529114
  0
VERTEX
  8
1
 10
334.2824332791855
 20
269.7452654414672
 30
0
 42
-0.005623898474820784
  0
VERTEX
  8
1
 10
333.532539837135
 20
269.9822702947307
 30
0
 42
-0.001607917713971788
  0
VERTEX
  8
1
 10
332.7820716756438
 20
270.231427270183
 30
0
 42
-0.003035046829908876
  0
VERTEX
  8
1
 10
331.9347926003771
 20
270.5180570692983
 30
0
 42
-0.01003263971681107
  0
VERTEX
  8
1
 10
331.098013446923
 20
270.8256675114177
 30
0
 42
-0.01731546574559334
  0
VERTEX
  8
1
 10
330.2859501680652
 20
271.1755882287269
 30
0
 42
-0.02487359489822373
  0
VERTEX
  8
1
 10
329.5128187165876
 20
271.5891488534118
 30
0
 42
-0.0322380831731227
  0
VERTEX
  8
1
 10
328.7928350452739
 20
272.0876790176583
 30
0
 42
-0.02888700042276658
  0
VERTEX
  8
1
 10
328.0868797391127
 20
272.7275514761698
 30
0
 42
-0.01142416437682146
  0
VERTEX
  8
1
 10
327.4252533228624
 20
273.4315873459536
 30
0
 42
0.005159818166358317
  0
VERTEX
  8
1
 10
326.7746699913753
 20
274.1414749698868
 30
0
 42
0.0224131747065911
  0
VERTEX
  8
1
 10
326.1018439395037
 20
274.7989026908458
 30
0
 42
0.04260597243964195
  0
VERTEX
  8
1
 10
325.3734893620998
 20
275.3455588517074
 30
0
 42
0.05849288245847395
  0
VERTEX
  8
1
 10
324.4744821315563
 20
275.7708064344002
 30
0
 42
0.03363910028931532
  0
VERTEX
  8
1
 10
323.4886043936542
 20
276.0306714177613
 30
0
 42
0.03098575730243014
  0
VERTEX
  8
1
 10
322.4375737752331
 20
276.1664994516235
 30
0
 42
0.009028684574942058
  0
VERTEX
  8
1
 10
321.3431079031327
 20
276.2196361858198
 30
0
 42
0.009946353456247267
  0
VERTEX
  8
1
 10
320.2269244041927
 20
276.231427270183
 30
0
  0
SEQEND
  8
1
  0
POLYLINE
  8
1
 62
3
 66
1
  0
VERTEX
  8
1
 10
340.2269244041927
 20
270.731427270183
 30
0
 42
-0.00139931050850116
  0
VERTEX
  8
1
 10
339.5947449144874
 20
270.711278383137
 30
0
 42
-0.004208486187271611
  0
VERTEX
  8
1
 10
338.9631727101086
 20
270.6982329635374
 30
0
 42
-0.007044180568746064
  0
VERTEX
  8
1
 10
338.332815076383
 20
270.6993944788306
 30
0
 42
-0.009906475772620134
  0
VERTEX
  8
1
 10
337.7042792986368
 20
270.7218663964632
 30
0
 42
-0.01276798874518869
  0
VERTEX
  8
1
 10
337.0781726621969
 20
270.7727521838813
 30
0
 42
-0.01604707638836619
  0
VERTEX
  8
1
 10
336.3276864335513
 20
270.8787977820108
 30
0
 42
-0.0139786090110379
  0
VERTEX
  8
1
 10
335.5829085509834
 20
271.0300884653354
 30
0
 42
-0.01197752447280495
  0
VERTEX
  8
1
 10
334.8451365553193
 20
271.2202757597393
 30
0
 42
-0.01006527445208956
  0
VERTEX
  8
1
 10
334.1156679873856
 20
271.4430111911061
 30
0
 42
-0.008241774927421766
  0
VERTEX
  8
1
 10
333.3958003880088
 20
271.6919462853199
 30
0
 42
-0.003838553974259394
  0
VERTEX
  8
1
 10
332.9296549442532
 20
271.8658971423192
 30
0
 42
-0.001856704054854856
  0
VERTEX
  8
1
 10
332.4662143458096
 20
272.0448820569233
 30
0
 42
0.0001371936478830064
  0
VERTEX
  8
1
 10
332.0035063138486
 20
272.2254158965633
 30
0
 42
0.002130188905979547
  0
VERTEX
  8
1
 10
331.5395585695408
 20
272.4040135286697
 30
0
 42
0.004105463467916109
  0
VERTEX
  8
1
 10
331.0723988340567
 20
272.5771898206734
 30
0
 42
0.004136423690126328
  0
VERTEX
  8
1
 10
330.4936339213742
 20
272.7809519513814
 30
0
 42
-0.004610467601167837
  0
VERTEX
  8
1
 10
329.9153732935059
 20
272.9871454042812
 30
0
 42
-0.01190343574370333
  0
VERTEX
  8
1
 10
329.3459334248979
 20
273.2116226878426
 30
0
 42
-0.01931776423056749
  0
VERTEX
  8
1
 10
328.7936307899962
 20
273.4702363105358
 30
0
 42
-0.02658956512609353
  0
VERTEX
  8
1
 10
328.2667818632469
 20
273.7788387808305
 30
0
 42
-0.02465029267646468
  0
VERTEX
  8
1
 10
327.708460682825
 20
274.1951797728258
 30
0
 42
-0.007303506873370987
  0
VERTEX
  8
1
 10
327.1722869321726
 20
274.6507099386118
 30
0
 42
0.009583372171450392
  0
VERTEX
  8
1
 10
326.6375126455473
 20
275.1009857679841
 30
0
 42
0.02737041927783617
  0
VERTEX
  8
1
 10
326.0833898572067
 20
275.5015637507381
 30
0
 42
0.04757618206183016
  0
VERTEX
  8
1
 10
325.4891706014088
 20
275.8080003766693
 30
0
 42
0.03703160076199494
  0
VERTEX
  8
1
 10
325.0750642936687
 20
275.9392886215181
 30
0
 42
0.01980714861970291
  0
VERTEX
  8
1
 10
324.6414092644156
 20
276.024208723577
 30
0
 42
0.02086257844040286
  0
VERTEX
  8
1
 10
324.1941818719337
 20
276.0745308051947
 30
0
 42
0.004976522058689891
  0
VERTEX
  8
1
 10
323.7393584745074
 20
276.1020249887204
 30
0
 42
0.00721492084078466
  0
VERTEX
  8
1
 10
323.282915430421
 20
276.1184613965027
 30
0
 42
-0.0005860077343920877
  0
VERTEX
  8
1
 10
322.6618678195108
 20
276.1394441385784
 30
0
 42
-0.000465506874652563
  0
VERTEX
  8
1
 10
322.0473864790436
 20
276.1615005024277
 30
0
 42
-0.000337858555805935
  0
VERTEX
  8
1
 10
321.4378298414087
 20
276.1843620826071
 30
0
 42
-0.0002048992798118701
  0
VERTEX
  8
1
 10
320.8315563389953
 20
276.2077604736734
 30
0
 42
-6.866814283980644e-005
  0
VERTEX
  8
1
 10
320.2269244041927
 20
276.231427270183
 30
0
  0
SEQEND
  8
1
  0
POLYLINE
  8
1
 62
3
 66
1
  0
VERTEX
  8
1
 10
340.2269244041927
 20
271.731427270183
 30
0
 42
-0.001437466414842011
  0
VERTEX
  8
1
 10
339.5943398744659
 20
271.7104681992703
 30
0
 42
-0.004324802430527479
  0
VERTEX
  8
1
 10
338.9624638900709
 20
271.6968151417707
 30
0
 42
-0.007243808653219224
  0
VERTEX
  8
1
 10
338.3320049963398
 20
271.6977741110973
 30
0
 42
-0.01019656978470315
  0
VERTEX
  8
1
 10
337.7036717386045
 20
271.7206511206631
 30
0
 42
-0.01315520811103594
  0
VERTEX
  8
1
 10
337.0781726621969
 20
271.7727521838813
 30
0
 42
-0.01633930251825213
  0
VERTEX
  8
1
 10
336.3289569701332
 20
271.8813391808502
 30
0
 42
-0.01378166540676114
  0
VERTEX
  8
1
 10
335.5854997233749
 20
272.035271474312
 30
0
 42
-0.01127931597960788
  0
VERTEX
  8
1
 10
334.8484130952298
 20
272.2268296794333
 30
0
 42
-0.008860671032290421
  0
VERTEX
  8
1
 10
334.1183092590052
 20
272.4482944113804
 30
0
 42
-0.006521860467557139
  0
VERTEX
  8
1
 10
333.3958003880088
 20
272.6919462853199
 30
0
 42
-0.003263998879489748
  0
VERTEX
  8
1
 10
332.9267574063749
 20
272.8601013238389
 30
0
 42
-0.002743206220284322
  0
VERTEX
  8
1
 10
332.4605661500621
 20
273.0335842176306
 30
0
 42
-0.002214346597085112
  0
VERTEX
  8
1
 10
331.996556229171
 20
273.2115139456981
 30
0
 42
-0.001680038634042736
  0
VERTEX
  8
1
 10
331.5340572538023
 20
273.3930094870447
 30
0
 42
-0.0011426482902316
  0
VERTEX
  8
1
 10
331.0723988340567
 20
273.5771898206734
 30
0
 42
-0.003025283605865508
  0
VERTEX
  8
1
 10
330.4929889068421
 20
273.812975910293
 30
0
 42
-0.006884513991943226
  0
VERTEX
  8
1
 10
329.9182851531037
 20
274.0602303570152
 30
0
 42
-0.01075366762058843
  0
VERTEX
  8
1
 10
329.3527246658917
 20
274.3275692423172
 30
0
 42
-0.01459082984920689
  0
VERTEX
  8
1
 10
328.800744538256
 20
274.6236086476758
 30
0
 42
-0.01827915716360925
  0
VERTEX
  8
1
 10
328.2667818632469
 20
274.9569646545682
 30
0
 42
-0.0145772129547254
  0
VERTEX
  8
1
 10
327.7182930075082
 20
275.3564338861013
 30
0
 42
-0.001460479569454722
  0
VERTEX
  8
1
 10
327.1808422006253
 20
275.7747637163652
 30
0
 42
0.01170481162215737
  0
VERTEX
  8
1
 10
326.6398746954278
 20
276.1784625030726
 30
0
 42
0.02559818686933707
  0
VERTEX
  8
1
 10
326.0808357447457
 20
276.5340386039364
 30
0
 42
0.04086222631786408
  0
VERTEX
  8
1
 10
325.4891706014088
 20
276.8080003766693
 30
0
 42
0.03180568557300003
  0
VERTEX
  8
1
 10
325.0704186774332
 20
276.9322192294334
 30
0
 42
0.01804985857837294
  0
VERTEX
  8
1
 10
324.6355315141012
 20
277.0152643511964
 30
0
 42
0.01830108516226487
  0
VERTEX
  8
1
 10
324.1893947956584
 20
277.0672461485608
 30
0
 42
0.00546478330409848
  0
VERTEX
  8
1
 10
323.7368942063499
 20
277.0982750281287
 30
0
 42
0.006549699692873894
  0
VERTEX
  8
1
 10
323.282915430421
 20
277.1184613965027
 30
0
 42
0.0004093587783756691
  0
VERTEX
  8
1
 10
322.664013748493
 20
277.1427096716298
 30
0
 42
0.0003245172126111876
  0
VERTEX
  8
1
 10
322.0502477176866
 20
277.1658545464961
 30
0
 42
0.0002340549036779541
  0
VERTEX
  8
1
 10
321.4403334252213
 20
277.188171871167
 30
0
 42
0.0001422883529168764
  0
VERTEX
  8
1
 10
320.8329869583168
 20
277.2099374957076
 30
0
 42
4.70868752015463e-005
  0
VERTEX
  8
1
 10
320.2269244041927
 20
277.231427270183
 30
0
  0
SEQEND
  8
1
  0
POLYLINE
  8
1
 62
3
 66
1
  0
VERTEX
  8
1
 10
340.2269244041927
 20
273.231427270183
 30
0
 42
-0.001358152088147521
  0
VERTEX
  8
1
 10
339.5950081605253
 20
273.2062115165555
 30
0
 42
-0.004084509566323858
  0
VERTEX
  8
1
 10
338.9636333906749
 20
273.1878942090307
 30
0
 42
-0.006836327826035709
  0
VERTEX
  8
1
 10
338.3333415684587
 20
273.1833737937116
 30
0
 42
-0.009614512800394199
  0
VERTEX
  8
1
 10
337.7046741676936
 20
273.199548716701
 30
0
 42
-0.01239487570150824
  0
VERTEX
  8
1
 10
337.0781726621969
 20
273.2433174241016
 30
0
 42
-0.0172046020121539
  0
VERTEX
  8
1
 10
336.250716287706
 20
273.351996578146
 30
0
 42
-0.01506268212946242
  0
VERTEX
  8
1
 10
335.4296401240521
 20
273.5142641858785
 30
0
 42
-0.01298929339493925
  0
VERTEX
  8
1
 10
334.6165520740153
 20
273.722908882275
 30
0
 42
-0.01101450300653538
  0
VERTEX
  8
1
 10
333.8130600403758
 20
273.9707193023107
 30
0
 42
-0.009143100764603439
  0
VERTEX
  8
1
 10
333.0207719259138
 20
274.2504840809614
 30
0
 42
-0.003751510980095555
  0
VERTEX
  8
1
 10
332.5851017034385
 20
274.4170578842321
 30
0
 42
-0.002072865824773373
  0
VERTEX
  8
1
 10
332.1521056904645
 20
274.5884185569235
 30
0
 42
-0.000384695645363618
  0
VERTEX
  8
1
 10
331.7204913613794
 20
274.7616921609751
 30
0
 42
0.001309348898479633
  0
VERTEX
  8
1
 10
331.2889661905706
 20
274.9340047583266
 30
0
 42
0.003005986051769728
  0
VERTEX
  8
1
 10
330.8562376524256
 20
275.1024824109176
 30
0
 42
0.003951844711789274
  0
VERTEX
  8
1
 10
330.3922266032702
 20
275.2757433566628
 30
0
 42
0.001611805710111821
  0
VERTEX
  8
1
 10
329.926069957486
 20
275.4439194223236
 30
0
 42
0.001288536037034255
  0
VERTEX
  8
1
 10
329.4584622370809
 20
275.6095598786062
 30
0
 42
-0.0005425218246231479
  0
VERTEX
  8
1
 10
328.9900979640623
 20
275.7752139962166
 30
0
 42
-0.0018625840571855
  0
VERTEX
  8
1
 10
328.5216716604378
 20
275.943431045861
 30
0
 42
-0.001452496948164025
  0
VERTEX
  8
1
 10
327.8687634477101
 20
276.1841385720025
 30
0
 42
0.00265623682446455
  0
VERTEX
  8
1
 10
327.2151466564799
 20
276.4233222214882
 30
0
 42
0.006791582524790934
  0
VERTEX
  8
1
 10
326.5588817683508
 20
276.6495088688946
 30
0
 42
0.01103558094089907
  0
VERTEX
  8
1
 10
325.8980292649263
 20
276.8512253887982
 30
0
 42
0.0153598082048981
  0
VERTEX
  8
1
 10
325.2306496278099
 20
277.0169986557753
 30
0
 42
0.02443126800984818
  0
VERTEX
  8
1
 10
324.2511711604315
 20
277.1789850653376
 30
0
 42
0.01606205456732168
  0
VERTEX
  8
1
 10
323.257514974823
 20
277.2615710171127
 30
0
 42
0.01393493870848164
  0
VERTEX
  8
1
 10
322.2532255005421
 20
277.2846066255474
 30
0
 42
0.005770450064645596
  0
VERTEX
  8
1
 10
321.2418471671462
 20
277.2679420050886
 30
0
 42
0.003972978688480429
  0
VERTEX
  8
1
 10
320.2269244041927
 20
277.231427270183
 30
0
  0
SEQEND
  8
1
  0
POLYLINE
  8
1
 62
3
 66
1
  0
VERTEX
  8
1
 10
340.2269244041927
 20
274.231427270183
 30
0
 42
-0.001362471609848782
  0
VERTEX
  8
1
 10
339.5949804026841
 20
274.2061210898901
 30
0
 42
-0.004097610774240308
  0
VERTEX
  8
1
 10
338.9635848144528
 20
274.1877359623663
 30
0
 42
-0.006858595752647951
  0
VERTEX
  8
1
 10
338.3332860527763
 20
274.1831929403808
 30
0
 42
-0.009646437364408969
  0
VERTEX
  8
1
 10
337.7046325309319
 20
274.1994130767029
 30
0
 42
-0.01243679960363508
  0
VERTEX
  8
1
 10
337.0781726621969
 20
274.2433174241016
 30
0
 42
-0.01723934499789831
  0
VERTEX
  8
1
 10
336.2508144587929
 20
274.3523163899055
 30
0
 42
-0.01504120646977816
  0
VERTEX
  8
1
 10
335.4298425041038
 20
274.5149234789811
 30
0
 42
-0.01291158192509075
  0
VERTEX
  8
1
 10
334.6168095774884
 20
274.7237477508407
 30
0
 42
-0.01088102849100949
  0
VERTEX
  8
1
 10
333.8132684583055
 20
274.9713982649968
 30
0
 42
-0.008953596705537196
  0
VERTEX
  8
1
 10
333.0207719259138
 20
275.2504840809614
 30
0
 42
-0.003703781418570031
  0
VERTEX
  8
1
 10
332.5849114418465
 20
275.4164380694126
 30
0
 42
-0.002172491294157124
  0
VERTEX
  8
1
 10
332.1517395332873
 20
275.5872257273962
 30
0
 42
-0.0006319289788979135
  0
VERTEX
  8
1
 10
331.7200444394129
 20
275.7602362241499
 30
0
 42
0.0009139763724582956
  0
VERTEX
  8
1
 10
331.2886143994
 20
275.9328587289112
 30
0
 42
0.002461932441322449
  0
VERTEX
  8
1
 10
330.8562376524256
 20
276.1024824109176
 30
0
 42
0.003473150353739969
  0
VERTEX
  8
1
 10
330.3928994316974
 20
276.277935228528
 30
0
 42
0.002008603979708217
  0
VERTEX
  8
1
 10
329.9274393881232
 20
276.4483806138596
 30
0
 42
0.002047564780895964
  0
VERTEX
  8
1
 10
329.4601918557143
 20
276.6151944538805
 30
0
 42
0.0005824769221229125
  0
VERTEX
  8
1
 10
328.9914911684821
 20
276.7797526355583
 30
0
 42
0.0006242501456333238
  0
VERTEX
  8
1
 10
328.5216716604378
 20
276.943431045861
 30
0
 42
0.0003363676654278247
  0
VERTEX
  8
1
 10
327.8703814955253
 20
277.1689290264098
 30
0
 42
0.005230759131916268
  0
VERTEX
  8
1
 10
327.2166125375826
 20
277.3871644439685
 30
0
 42
0.006236406618185151
  0
VERTEX
  8
1
 10
326.5593864588333
 20
277.5899258295763
 30
0
 42
0.01123059924291536
  0
VERTEX
  8
1
 10
325.8977249315011
 20
277.7690017142726
 30
0
 42
0.0123502440358447
  0
VERTEX
  8
1
 10
325.2306496278099
 20
277.9161806290971
 30
0
 42
0.02178204566582711
  0
VERTEX
  8
1
 10
324.2462447875871
 20
278.0638491520479
 30
0
 42
0.01290993169239015
  0
VERTEX
  8
1
 10
323.2509464776972
 20
278.143164586163
 30
0
 42
0.01287933557247917
  0
VERTEX
  8
1
 10
322.247478065557
 20
278.1712152036513
 30
0
 42
0.004130453162593306
  0
VERTEX
  8
1
 10
321.2385629185832
 20
278.1650892767219
 30
0
 42
0.004305287326293592
  0
VERTEX
  8
1
 10
320.2269244041927
 20
278.1418750775835
 30
0
  0
SEQEND
  8
1
  0
POLYLINE
  8
1
 62
3
 66
1
  0
VERTEX
  8
1
 10
340.2269244041927
 20
278.231427270183
 30
0
 42
-0.001888937841192617
  0
VERTEX
  8
1
 10
339.5931584116817
 20
278.192730641069
 30
0
 42
-0.005694027757289404
  0
VERTEX
  8
1
 10
338.9603963301987
 20
278.1637081692334
 30
0
 42
-0.009568406319995922
  0
VERTEX
  8
1
 10
338.3296420707716
 20
278.1540340119549
 30
0
 42
-0.01351495323541647
  0
VERTEX
  8
1
 10
337.7018995444283
 20
278.1733823265119
 30
0
 42
-0.04014634871256267
  0
VERTEX
  8
1
 10
336.2643402444862
 20
278.3734400977868
 30
0
 42
-0.009124304351102199
  0
VERTEX
  8
1
 10
335.4554404373037
 20
278.563654829845
 30
0
 42
0.001534250010632899
  0
VERTEX
  8
1
 10
334.6477167653482
 20
278.7665412664934
 30
0
 42
0.01220105072954381
  0
VERTEX
  8
1
 10
333.8374127533186
 20
278.9465692078678
 30
0
 42
0.02318308017400213
  0
VERTEX
  8
1
 10
333.0207719259138
 20
279.0682084541041
 30
0
 42
0.01529747283841791
  0
VERTEX
  8
1
 10
332.5904174328994
 20
279.0987775226712
 30
0
 42
0.005656696757159987
  0
VERTEX
  8
1
 10
332.1580464739972
 20
279.1113229813757
 30
0
 42
0.006368138959995752
  0
VERTEX
  8
1
 10
331.7243993342534
 20
279.1134730131957
 30
0
 42
-0.0006029030480836608
  0
VERTEX
  8
1
 10
331.2902162987142
 20
279.1128558011094
 30
0
 42
-0.005000141994655817
  0
VERTEX
  8
1
 10
330.8562376524256
 20
279.1170995280947
 30
0
 42
-0.006579526751892683
  0
VERTEX
  8
1
 10
330.388357927891
 20
279.1335821001586
 30
0
 42
-0.004151305535363385
  0
VERTEX
  8
1
 10
329.9212709081392
 20
279.1600849062156
 30
0
 42
-0.001715361460799271
  0
VERTEX
  8
1
 10
329.4546671514559
 20
279.1920571877328
 30
0
 42
0.0007228359941977318
  0
VERTEX
  8
1
 10
328.9882372161268
 20
279.224948186177
 30
0
 42
0.003162479871033627
  0
VERTEX
  8
1
 10
328.5216716604378
 20
279.2542071430152
 30
0
 42
0.006187227354190659
  0
VERTEX
  8
1
 10
327.864385167761
 20
279.2831003943109
 30
0
 42
0.003818458239205215
  0
VERTEX
  8
1
 10
327.206428418179
 20
279.2988410145873
 30
0
 42
0.003855524038801267
  0
VERTEX
  8
1
 10
326.5480127116726
 20
279.3044844575538
 30
0
 42
0.001491465786165542
  0
VERTEX
  8
1
 10
325.8893493482227
 20
279.3030861769199
 30
0
 42
0.001534251241436147
  0
VERTEX
  8
1
 10
325.2306496278099
 20
279.2977016263948
 30
0
 42
0.0004844600512767111
  0
VERTEX
  8
1
 10
324.2294192906546
 20
279.2870288418989
 30
0
 42
0.0003770640251692879
  0
VERTEX
  8
1
 10
323.2285124817873
 20
279.2746346662386
 30
0
 42
0.000269420736339475
  0
VERTEX
  8
1
 10
322.2278483191358
 20
279.2609494472052
 30
0
 42
0.0001617307303351235
  0
VERTEX
  8
1
 10
321.2273459206282
 20
279.2464035325896
 30
0
 42
5.389327197158036e-005
  0
VERTEX
  8
1
 10
320.2269244041927
 20
279.231427270183
 30
0
  0
SEQEND
  8
1
  0
POLYLINE
  8
1
 62
3
 66
1
  0
VERTEX
  8
1
 10
340.2269244041927
 20
279.231427270183
 30
0
 42
-0.001888937841192617
  0
VERTEX
  8
1
 10
339.5931584116817
 20
279.192730641069
 30
0
 42
-0.005694027757110153
  0
VERTEX
  8
1
 10
338.9603963301987
 20
279.1637081692334
 30
0
 42
-0.009568406319995922
  0
VERTEX
  8
1
 10
338.3296420707716
 20
279.1540340119549
 30
0
 42
-0.01351495323541647
  0
VERTEX
  8
1
 10
337.7018995444283
 20
279.1733823265119
 30
0
 42
-0.04014634871253704
  0
VERTEX
  8
1
 10
336.2643402444862
 20
279.3734400977868
 30
0
 42
-0.009124304351035079
  0
VERTEX
  8
1
 10
335.4554404373037
 20
279.563654829845
 30
0
 42
0.001534250010500338
  0
VERTEX
  8
1
 10
334.6477167653482
 20
279.7665412664934
 30
0
 42
0.01220105072967617
  0
VERTEX
  8
1
 10
333.8374127533186
 20
279.9465692078678
 30
0
 42
0.02318308017387039
  0
VERTEX
  8
1
 10
333.0207719259138
 20
280.0682084541041
 30
0
 42
0.01529747283861425
  0
VERTEX
  8
1
 10
332.5904174328994
 20
280.0987775226711
 30
0
 42
0.005656696756894857
  0
VERTEX
  8
1
 10
332.1580464739972
 20
280.1113229813756
 30
0
 42
0.006368138960261772
  0
VERTEX
  8
1
 10
331.7243993342534
 20
280.1134730131957
 30
0
 42
-0.0006029030480836608
  0
VERTEX
  8
1
 10
331.2902162987142
 20
280.1128558011093
 30
0
 42
-0.005000141994655817
  0
VERTEX
  8
1
 10
330.8562376524256
 20
280.1170995280946
 30
0
 42
-0.006579526751892683
  0
VERTEX
  8
1
 10
330.388357927891
 20
280.1335821001585
 30
0
 42
-0.004151305535363385
  0
VERTEX
  8
1
 10
329.9212709081392
 20
280.1600849062155
 30
0
 42
-0.001715361460556853
  0
VERTEX
  8
1
 10
329.4546671514559
 20
280.1920571877327
 30
0
 42
0.0007228359943191903
  0
VERTEX
  8
1
 10
328.9882372161268
 20
280.224948186177
 30
0
 42
0.003162479870972786
  0
VERTEX
  8
1
 10
328.5216716604378
 20
280.2542071430152
 30
0
 42
0.006187227354207535
  0
VERTEX
  8
1
 10
327.864385167761
 20
280.2831003943109
 30
0
 42
0.003818458239275382
  0
VERTEX
  8
1
 10
327.206428418179
 20
280.2988410145873
 30
0
 42
0.003855524038687578
  0
VERTEX
  8
1
 10
326.5480127116726
 20
280.3044844575538
 30
0
 42
0.001491465786279229
  0
VERTEX
  8
1
 10
325.8893493482227
 20
280.3030861769199
 30
0
 42
0.00153425124132246
  0
VERTEX
  8
1
 10
325.2306496278099
 20
280.2977016263948
 30
0
 42
0.0004844600512767111
  0
VERTEX
  8
1
 10
324.2294192906546
 20
280.2870288418989
 30
0
 42
0.0003770640251692879
  0
VERTEX
  8
1
 10
323.2285124817873
 20
280.2746346662386
 30
0
 42
0.0002694207363678967
  0
VERTEX
  8
1
 10
322.2278483191358
 20
280.2609494472052
 30
0
 42
0.0001617307302498584
  0
VERTEX
  8
1
 10
321.2273459206282
 20
280.2464035325896
 30
0
 42
5.38932720852672e-005
  0
VERTEX
  8
1
 10
320.2269244041927
 20
280.231427270183
 30
0
  0
SEQEND
  8
1
  0
POLYLINE
  8
1
 62
3
 66
1
  0
VERTEX
  8
1
 10
340.2269244041927
 20
280.731427270183
 30
0
 42
-0.001012204111021952
  0
VERTEX
  8
1
 10
339.595684563291
 20
280.7121082639101
 30
0
 42
-0.003041506933841212
  0
VERTEX
  8
1
 10
338.964817095515
 20
280.6979169902739
 30
0
 42
-0.005083541123885941
  0
VERTEX
  8
1
 10
338.3346943739902
 20
280.693981181911
 30
0
 42
-0.007140173251373474
  0
VERTEX
  8
1
 10
337.7056887718422
 20
280.7054285714582
 30
0
 42
-0.02015103824163176
  0
VERTEX
  8
1
 10
336.3411020834122
 20
280.8048466101998
 30
0
 42
-0.005713191267260719
  0
VERTEX
  8
1
 10
335.605472311259
 20
280.8954713200611
 30
0
 42
-0.001504699509104996
  0
VERTEX
  8
1
 10
334.8701406010791
 20
280.9968494378006
 30
0
 42
0.002686391856158567
  0
VERTEX
  8
1
 10
334.1339642082151
 20
281.0965693800827
 30
0
 42
0.006874857216691806
  0
VERTEX
  8
1
 10
333.3958003880088
 20
281.1822195635718
 30
0
 42
0.006540794941024571
  0
VERTEX
  8
1
 10
332.9317657051625
 20
281.2234802168579
 30
0
 42
0.006046787787678491
  0
VERTEX
  8
1
 10
332.4669548523664
 20
281.2530396952813
 30
0
 42
0.007915314743236708
  0
VERTEX
  8
1
 10
332.0018211855982
 20
281.269598647504
 30
0
 42
0.007448605158145349
  0
VERTEX
  8
1
 10
331.5368180608356
 20
281.2718577221883
 30
0
 42
0.01990100912998205
  0
VERTEX
  8
1
 10
330.5089746930717
 20
281.2205921394511
 30
0
 42
0.006705255688193081
  0
VERTEX
  8
1
 10
329.9468925117553
 20
281.1624678555699
 30
0
 42
0.006951790059250837
  0
VERTEX
  8
1
 10
329.3859607038506
 20
281.0889298570371
 30
0
 42
0.002464144041638117
  0
VERTEX
  8
1
 10
328.8259876831002
 20
281.004763284537
 30
0
 42
0.002737693092231195
  0
VERTEX
  8
1
 10
328.2667818632469
 20
280.9147532787542
 30
0
 42
-0.0001339878579161982
  0
VERTEX
  8
1
 10
327.7118970408999
 20
280.8239828518495
 30
0
 42
-0.001401259120416702
  0
VERTEX
  8
1
 10
327.1571367769108
 20
280.7349803713224
 30
0
 42
-0.002671166500922661
  0
VERTEX
  8
1
 10
326.6020577979111
 20
280.6505577669224
 30
0
 42
-0.003942555142808664
  0
VERTEX
  8
1
 10
326.0462168305331
 20
280.5735269683988
 30
0
 42
-0.005212195614868099
  0
VERTEX
  8
1
 10
325.4891706014088
 20
280.506699905501
 30
0
 42
-0.004276427742080419
  0
VERTEX
  8
1
 10
325.0491554502066
 20
280.4626500239053
 30
0
 42
-0.003618960281300227
  0
VERTEX
  8
1
 10
324.6083195195994
 20
280.4255381531904
 30
0
 42
-0.002963333241675989
  0
VERTEX
  8
1
 10
324.1668656474944
 20
280.3942205471095
 30
0
 42
-0.002309907758960903
  0
VERTEX
  8
1
 10
323.7249966717992
 20
280.3675534594159
 30
0
 42
-0.001658437888658834
  0
VERTEX
  8
1
 10
323.282915430421
 20
280.3443931438633
 30
0
 42
-0.00165918181435953
  0
VERTEX
  8
1
 10
322.6717388440007
 20
280.3163813161211
 30
0
 42
-0.001291066999860027
  0
VERTEX
  8
1
 10
322.0605478450303
 20
280.2919819237163
 30
0
 42
-0.0009224660058991213
  0
VERTEX
  8
1
 10
321.4493460366471
 20
280.2702918578146
 30
0
 42
-0.0005535777014064377
  0
VERTEX
  8
1
 10
320.8381370219886
 20
280.2504080095816
 30
0
 42
-0.0001845410469969375
  0
VERTEX
  8
1
 10
320.2269244041927
 20
280.231427270183
 30
0
  0
SEQEND
  8
1
  0
POLYLINE
  8
1
 62
3
 66
1
  0
VERTEX
  8
1
 10
340.2269244041927
 20
281.731427270183
 30
0
 42
-0.001012204110932023
  0
VERTEX
  8
1
 10
339.595684563291
 20
281.7121082639101
 30
0
 42
-0.003041506933751228
  0
VERTEX
  8
1
 10
338.964817095515
 20
281.6979169902739
 30
0
 42
-0.005083541123885941
  0
VERTEX
  8
1
 10
338.3346943739902
 20
281.693981181911
 30
0
 42
-0.007140173251373474
  0
VERTEX
  8
1
 10
337.7056887718422
 20
281.7054285714582
 30
0
 42
-0.0201510382416051
  0
VERTEX
  8
1
 10
336.3411020834122
 20
281.8048466101998
 30
0
 42
-0.005713191267184389
  0
VERTEX
  8
1
 10
335.605472311259
 20
281.8954713200611
 30
0
 42
-0.001504699509104996
  0
VERTEX
  8
1
 10
334.8701406010791
 20
281.9968494378006
 30
0
 42
0.002686391856158567
  0
VERTEX
  8
1
 10
334.1339642082151
 20
282.0965693800827
 30
0
 42
0.006874857216691806
  0
VERTEX
  8
1
 10
333.3958003880088
 20
282.1822195635718
 30
0
 42
0.006540794941024571
  0
VERTEX
  8
1
 10
332.9317657051625
 20
282.2234802168579
 30
0
 42
0.006046787787678491
  0
VERTEX
  8
1
 10
332.4669548523664
 20
282.2530396952813
 30
0
 42
0.007915314743236708
  0
VERTEX
  8
1
 10
332.0018211855982
 20
282.269598647504
 30
0
 42
0.007448605158145349
  0
VERTEX
  8
1
 10
331.5368180608356
 20
282.2718577221883
 30
0
 42
0.01990100912998205
  0
VERTEX
  8
1
 10
330.5089746930717
 20
282.2205921394511
 30
0
 42
0.006705255688143118
  0
VERTEX
  8
1
 10
329.9468925117553
 20
282.16246785557
 30
0
 42
0.006951790059400946
  0
VERTEX
  8
1
 10
329.3859607038506
 20
282.0889298570371
 30
0
 42
0.002464144041437387
  0
VERTEX
  8
1
 10
328.8259876831002
 20
282.004763284537
 30
0
 42
0.002737693092432369
  0
VERTEX
  8
1
 10
328.2667818632469
 20
281.9147532787542
 30
0
 42
-0.0001339878579161982
  0
VERTEX
  8
1
 10
327.7118970408999
 20
281.8239828518495
 30
0
 42
-0.001401259120716407
  0
VERTEX
  8
1
 10
327.1571367769108
 20
281.7349803713224
 30
0
 42
-0.002671166501123003
  0
VERTEX
  8
1
 10
326.6020577979111
 20
281.6505577669224
 30
0
 42
-0.003942555142909084
  0
VERTEX
  8
1
 10
326.0462168305331
 20
281.5735269683988
 30
0
 42
-0.005212195614868099
  0
VERTEX
  8
1
 10
325.4891706014088
 20
281.506699905501
 30
0
 42
-0.004276427742080419
  0
VERTEX
  8
1
 10
325.0491554502066
 20
281.4626500239053
 30
0
 42
-0.003618960281172216
  0
VERTEX
  8
1
 10
324.6083195195994
 20
281.4255381531903
 30
0
 42
-0.002963333241547924
  0
VERTEX
  8
1
 10
324.1668656474944
 20
281.3942205471095
 30
0
 42
-0.002309907758960903
  0
VERTEX
  8
1
 10
323.7249966717992
 20
281.3675534594159
 30
0
 42
-0.001658437888658834
  0
VERTEX
  8
1
 10
323.282915430421
 20
281.3443931438633
 30
0
 42
-0.001659181814452345
  0
VERTEX
  8
1
 10
322.6717388440007
 20
281.3163813161211
 30
0
 42
-0.001291066999952953
  0
VERTEX
  8
1
 10
322.0605478450303
 20
281.2919819237163
 30
0
 42
-0.0009224660058991213
  0
VERTEX
  8
1
 10
321.4493460366471
 20
281.2702918578146
 30
0
 42
-0.0005535777015922335
  0
VERTEX
  8
1
 10
320.8381370219886
 20
281.2504080095816
 30
0
 42
-0.0001845410469969375
  0
VERTEX
  8
1
 10
320.2269244041927
 20
281.231427270183
 30
0
  0
SEQEND
  8
1
  0
POLYLINE
  8
1
 62
3
 66
1
  0
VERTEX
  8
1
 10
340.2269244041927
 20
285.731427270183
 30
0
 42
0.00240151554616682
  0
VERTEX
  8
1
 10
339.4824473422139
 20
285.7897354507355
 30
0
 42
0.007248840753390763
  0
VERTEX
  8
1
 10
338.7403492995285
 20
285.8334665861499
 30
0
 42
0.01229879808570712
  0
VERTEX
  8
1
 10
338.0030092954305
 20
285.848043631288
 30
0
 42
0.01753962731836488
  0
VERTEX
  8
1
 10
337.2728063492131
 20
285.8188895410118
 30
0
 42
0.0228982692994914
  0
VERTEX
  8
1
 10
336.5521194801699
 20
285.731427270183
 30
0
 42
0.02623792913376879
  0
VERTEX
  8
1
 10
335.7824463408429
 20
285.5601041271664
 30
0
 42
0.01533451021651799
  0
VERTEX
  8
1
 10
335.0236950617056
 20
285.3236047417801
 30
0
 42
0.01262719634032145
  0
VERTEX
  8
1
 10
334.2727755717791
 20
285.0426086499856
 30
0
 42
0.002243745492249074
  0
VERTEX
  8
1
 10
333.5265978000847
 20
284.7377953877446
 30
0
 42
-0.002052424584200722
  0
VERTEX
  8
1
 10
332.7820716756438
 20
284.4298444910186
 30
0
 42
-0.004718784384087846
  0
VERTEX
  8
1
 10
331.9855298826418
 20
284.1154115685053
 30
0
 42
-0.002952234778081985
  0
VERTEX
  8
1
 10
331.1878404666601
 20
283.814602079969
 30
0
 42
-0.00114807035433897
  0
VERTEX
  8
1
 10
330.3894982841423
 20
283.5210090526893
 30
0
 42
0.0006697605109574097
  0
VERTEX
  8
1
 10
329.5909981915323
 20
283.228225513946
 30
0
 42
0.00248204459652739
  0
VERTEX
  8
1
 10
328.7928350452739
 20
282.9298444910186
 30
0
 42
0.001978882975279951
  0
VERTEX
  8
1
 10
328.1154904718917
 20
282.6697186955604
 30
0
 42
-0.002424872975809975
  0
VERTEX
  8
1
 10
327.4368145089276
 20
282.4111510915784
 30
0
 42
-0.005965402688325373
  0
VERTEX
  8
1
 10
326.7548762643372
 20
282.1643518028532
 30
0
 42
-0.009563208241402964
  0
VERTEX
  8
1
 10
326.067744846076
 20
281.9395309531649
 30
0
 42
-0.01321986738207778
  0
VERTEX
  8
1
 10
325.3734893620998
 20
281.7468986662939
 30
0
 42
-0.01938778054353507
  0
VERTEX
  8
1
 10
324.366381601322
 20
281.5398312215776
 30
0
 42
-0.01499239441269748
  0
VERTEX
  8
1
 10
323.3444703533418
 20
281.4020792205241
 30
0
 42
-0.01059728124997902
  0
VERTEX
  8
1
 10
322.3114564899597
 20
281.3163138022176
 30
0
 42
-0.006296230251567082
  0
VERTEX
  8
1
 10
321.2710408829765
 20
281.2652061057425
 30
0
 42
-0.002086734309589449
  0
VERTEX
  8
1
 10
320.2269244041927
 20
281.231427270183
 30
0
  0
SEQEND
  8
1
  0
POLYLINE
  8
1
 62
3
 66
1
  0
VERTEX
  8
1
 10
340.2269244041927
 20
286.731427270183
 30
0
 42
0.002401515546318478
  0
VERTEX
  8
1
 10
339.4824473422139
 20
286.7897354507355
 30
0
 42
0.007248840753239098
  0
VERTEX
  8
1
 10
338.7403492995285
 20
286.8334665861499
 30
0
 42
0.01229879808589721
  0
VERTEX
  8
1
 10
338.0030092954305
 20
286.848043631288
 30
0
 42
0.01753962731813588
  0
VERTEX
  8
1
 10
337.2728063492131
 20
286.8188895410117
 30
0
 42
0.0228982692996829
  0
VERTEX
  8
1
 10
336.5521194801699
 20
286.731427270183
 30
0
 42
0.02623792913365058
  0
VERTEX
  8
1
 10
335.7824463408429
 20
286.5601041271664
 30
0
 42
0.01533451021656663
  0
VERTEX
  8
1
 10
335.0236950617056
 20
286.3236047417801
 30
0
 42
0.01262719634030568
  0
VERTEX
  8
1
 10
334.2727755717791
 20
286.0426086499856
 30
0
 42
0.002243745492264617
  0
VERTEX
  8
1
 10
333.5265978000847
 20
285.7377953877446
 30
0
 42
-0.002052424584200722
  0
VERTEX
  8
1
 10
332.7820716756438
 20
285.4298444910186
 30
0
 42
-0.004718784384087846
  0
VERTEX
  8
1
 10
331.9855298826418
 20
285.1154115685053
 30
0
 42
-0.002952234778081985
  0
VERTEX
  8
1
 10
331.1878404666601
 20
284.814602079969
 30
0
 42
-0.00114807035433897
  0
VERTEX
  8
1
 10
330.3894982841423
 20
284.5210090526893
 30
0
 42
0.0006697605109574097
  0
VERTEX
  8
1
 10
329.5909981915323
 20
284.228225513946
 30
0
 42
0.00248204459652739
  0
VERTEX
  8
1
 10
328.7928350452739
 20
283.9298444910186
 30
0
 42
0.001978882975279951
  0
VERTEX
  8
1
 10
328.1154904718917
 20
283.6697186955604
 30
0
 42
-0.002424872975809975
  0
VERTEX
  8
1
 10
327.4368145089276
 20
283.4111510915784
 30
0
 42
-0.005965402688325373
  0
VERTEX
  8
1
 10
326.7548762643372
 20
283.1643518028532
 30
0
 42
-0.009563208241552414
  0
VERTEX
  8
1
 10
326.067744846076
 20
282.9395309531649
 30
0
 42
-0.01321986738207778
  0
VERTEX
  8
1
 10
325.3734893620998
 20
282.7468986662939
 30
0
 42
-0.01938778054353507
  0
VERTEX
  8
1
 10
324.366381601322
 20
282.5398312215776
 30
0
 42
-0.01499239441264251
  0
VERTEX
  8
1
 10
323.3444703533418
 20
282.4020792205241
 30
0
 42
-0.01059728124992445
  0
VERTEX
  8
1
 10
322.3114564899597
 20
282.3163138022176
 30
0
 42
-0.006296230251512569
  0
VERTEX
  8
1
 10
321.2710408829765
 20
282.2652061057424
 30
0
 42
-0.002086734309535048
  0
VERTEX
  8
1
 10
320.2269244041927
 20
282.231427270183
 30
0
  0
SEQEND
  8
1
  0
POLYLINE
  8
1
 62
3
 66
1
  0
VERTEX
  8
1
 10
340.2269244041927
 20
290.731427270183
 30
0
 42
0.004358729398469334
  0
VERTEX
  8
1
 10
339.2578103535195
 20
290.7269000849969
 30
0
 42
0.01337584483503479
  0
VERTEX
  8
1
 10
338.305588692403
 20
290.6886583848358
 30
0
 42
0.02383563990216947
  0
VERTEX
  8
1
 10
337.3871518104
 20
290.5829876547248
 30
0
 42
0.03589190169524679
  0
VERTEX
  8
1
 10
336.519392097067
 20
290.3761733796887
 30
0
 42
0.04895632414663818
  0
VERTEX
  8
1
 10
335.7192019419609
 20
290.0345010447526
 30
0
 42
0.04576326853638495
  0
VERTEX
  8
1
 10
335.0614184945977
 20
289.5913568324908
 30
0
 42
0.02110922930117065
  0
VERTEX
  8
1
 10
334.4514625048848
 20
289.0493004740072
 30
0
 42
0.01598160533305307
  0
VERTEX
  8
1
 10
333.8679176591882
 20
288.4476193451822
 30
0
 42
-0.001092134691208281
  0
VERTEX
  8
1
 10
333.2893676438736
 20
287.8256008218958
 30
0
 42
-0.01369804711996566
  0
VERTEX
  8
1
 10
332.6943961453068
 20
287.2225322800285
 30
0
 42
-0.02555441647288264
  0
VERTEX
  8
1
 10
331.8384723901352
 20
286.4895606792439
 30
0
 42
-0.02143501595996743
  0
VERTEX
  8
1
 10
330.9253676533213
 20
285.8459284450689
 30
0
 42
-0.01692967819403592
  0
VERTEX
  8
1
 10
329.966776930269
 20
285.274965736002
 30
0
 42
-0.01233822321844085
  0
VERTEX
  8
1
 10
328.9743952163822
 20
284.7600027105419
 30
0
 42
-0.007800748263473849
  0
VERTEX
  8
1
 10
327.9599175070647
 20
284.2843695271874
 30
0
 42
-0.005362192224417361
  0
VERTEX
  8
1
 10
327.1530452633684
 20
283.9295937740669
 30
0
 42
-0.007366627213549639
  0
VERTEX
  8
1
 10
326.3386369525251
 20
283.5959645808456
 30
0
 42
-0.009412356290870564
  0
VERTEX
  8
1
 10
325.5155897709421
 20
283.2906127632001
 30
0
 42
-0.01149368119272662
  0
VERTEX
  8
1
 10
324.6828009150273
 20
283.0206691368067
 30
0
 42
-0.02517093435367115
  0
VERTEX
  8
1
 10
323.1266958191401
 20
282.6394190522789
 30
0
 42
-0.008504618118928321
  0
VERTEX
  8
1
 10
322.4075728081915
 20
282.5132255976367
 30
0
 42
-0.006047552492775466
  0
VERTEX
  8
1
 10
321.6834613605672
 20
282.4077711508101
 30
0
 42
-0.003614339530341988
  0
VERTEX
  8
1
 10
320.9560242884926
 20
282.316142709194
 30
0
 42
-0.001202089796682949
  0
VERTEX
  8
1
 10
320.2269244041927
 20
282.231427270183
 30
0
  0
SEQEND
  8
1
  0
POLYLINE
  8
1
 62
3
 66
1
  0
VERTEX
  8
1
 10
340.2269244041927
 20
291.731427270183
 30
0
 42
0.004358729398586799
  0
VERTEX
  8
1
 10
339.2578103535195
 20
291.7269000849969
 30
0
 42
0.0133758448349173
  0
VERTEX
  8
1
 10
338.305588692403
 20
291.6886583848358
 30
0
 42
0.02383563990228567
  0
VERTEX
  8
1
 10
337.3871518104
 20
291.5829876547248
 30
0
 42
0.03589190169513006
  0
VERTEX
  8
1
 10
336.519392097067
 20
291.3761733796887
 30
0
 42
0.04895632414675681
  0
VERTEX
  8
1
 10
335.7192019419609
 20
291.0345010447526
 30
0
 42
0.04576326853626234
  0
VERTEX
  8
1
 10
335.0614184945977
 20
290.5913568324908
 30
0
 42
0.02110922930132193
  0
VERTEX
  8
1
 10
334.4514625048848
 20
290.0493004740072
 30
0
 42
0.01598160533285162
  0
VERTEX
  8
1
 10
333.8679176591882
 20
289.4476193451822
 30
0
 42
-0.001092134691254023
  0
VERTEX
  8
1
 10
333.2893676438736
 20
288.8256008218959
 30
0
 42
-0.01369804712001341
  0
VERTEX
  8
1
 10
332.6943961453068
 20
288.2225322800285
 30
0
 42
-0.02555441647280587
  0
VERTEX
  8
1
 10
331.8384723901352
 20
287.4895606792439
 30
0
 42
-0.02143501596005063
  0
VERTEX
  8
1
 10
330.9253676533213
 20
286.8459284450689
 30
0
 42
-0.01692967819399072
  0
VERTEX
  8
1
 10
329.966776930269
 20
286.2749657360019
 30
0
 42
-0.01233822321839654
  0
VERTEX
  8
1
 10
328.9743952163822
 20
285.7600027105419
 30
0
 42
-0.007800748263473849
  0
VERTEX
  8
1
 10
327.9599175070647
 20
285.2843695271874
 30
0
 42
-0.005362192224417361
  0
VERTEX
  8
1
 10
327.1530452633684
 20
284.9295937740669
 30
0
 42
-0.007366627213549639
  0
VERTEX
  8
1
 10
326.3386369525251
 20
284.5959645808456
 30
0
 42
-0.009412356290870564
  0
VERTEX
  8
1
 10
325.5155897709421
 20
284.2906127632001
 30
0
 42
-0.01149368119272662
  0
VERTEX
  8
1
 10
324.6828009150273
 20
284.0206691368067
 30
0
 42
-0.02517093435356033
  0
VERTEX
  8
1
 10
323.1266958191401
 20
283.6394190522789
 30
0
 42
-0.008504618118851432
  0
VERTEX
  8
1
 10
322.4075728081915
 20
283.5132255976367
 30
0
 42
-0.006047552492852185
  0
VERTEX
  8
1
 10
321.6834613605672
 20
283.4077711508101
 30
0
 42
-0.003614339530418816
  0
VERTEX
  8
1
 10
320.9560242884926
 20
283.316142709194
 30
0
 42
-0.001202089796682949
  0
VERTEX
  8
1
 10
320.2269244041927
 20
283.231427270183
 30
0
  0
SEQEND
  8
1
  0
POLYLINE
  8
1
 62
3
 66
1
  0
VERTEX
  8
1
 10
278.116971959803
 20
278.1306092435049
 30
0
 42
-0.0002943625236567349
  0
VERTEX
  8
1
 10
277.3939903390843
 20
278.0187626827744
 30
0
 42
-0.0008817296301139704
  0
VERTEX
  8
1
 10
276.6701907937324
 20
277.9085328836861
 30
0
 42
-0.001464990072465938
  0
VERTEX
  8
1
 10
275.944755399114
 20
277.8015366078825
 30
0
 42
-0.002041299421435522
  0
VERTEX
  8
1
 10
275.2168662305959
 20
277.6993906170057
 30
0
 42
-0.002607663120018818
  0
VERTEX
  8
1
 10
274.4857053635448
 20
277.6037116726981
 30
0
 42
-0.003565789051925296
  0
VERTEX
  8
1
 10
274.0082425027291
 20
277.5467619451771
 30
0
 42
-0.006974058786620087
  0
VERTEX
  8
1
 10
273.5301017307335
 20
277.4999196537995
 30
0
 42
-0.01046734541293011
  0
VERTEX
  8
1
 10
273.0523350201185
 20
277.4698728369265
 30
0
 42
-0.01406324816676903
  0
VERTEX
  8
1
 10
272.5759943434445
 20
277.4633095329194
 30
0
 42
-0.04238687832016977
  0
VERTEX
  8
1
 10
271.4472249122129
 20
277.5755230686007
 30
0
 42
-0.01275655711049601
  0
VERTEX
  8
1
 10
270.7965420772486
 20
277.7106572496148
 30
0
 42
-0.003311590302272042
  0
VERTEX
  8
1
 10
270.1474569790803
 20
277.8673211874913
 30
0
 42
0.006018803926347172
  0
VERTEX
  8
1
 10
269.4973434284092
 20
278.0205157465401
 30
0
 42
0.01543555656008463
  0
VERTEX
  8
1
 10
268.8435752359368
 20
278.145241791071
 30
0
 42
0.01835179206109166
  0
VERTEX
  8
1
 10
268.2631070141373
 20
278.2157918798945
 30
0
 42
0.01056861445996536
  0
VERTEX
  8
1
 10
267.6789860339621
 20
278.2527052720953
 30
0
 42
0.01150728188671419
  0
VERTEX
  8
1
 10
267.0924325217039
 20
278.2638281632916
 30
0
 42
0.003776246101199227
  0
VERTEX
  8
1
 10
266.5046667036553
 20
278.257006749102
 30
0
 42
0.004810538921408705
  0
VERTEX
  8
1
 10
265.9169088061089
 20
278.2400872251446
 30
0
 42
0.0009324995728340179
  0
VERTEX
  8
1
 10
265.2943971364043
 20
278.218371169968
 30
0
 42
0.0007280294780162348
  0
VERTEX
  8
1
 10
264.6729914413552
 20
278.1946272139034
 30
0
 42
0.0005209755890960186
  0
VERTEX
  8
1
 10
264.0524152272979
 20
278.1693623321727
 30
0
 42
0.0003134104111531927
  0
VERTEX
  8
1
 10
263.4323920005684
 20
278.143083499998
 30
0
 42
0.0001042969050946473
  0
VERTEX
  8
1
 10
262.8126452675028
 20
278.1162976926013
 30
0
  0
SEQEND
  8
1
  0
POLYLINE
  8
1
 62
3
 66
1
  0
VERTEX
  8
1
 10
279.1390922110739
 20
279.231427270183
 30
0
 42
0.0003148701001727902
  0
VERTEX
  8
1
 10
278.847904995264
 20
279.2102906844992
 30
0
 42
0.0009449789260183229
  0
VERTEX
  8
1
 10
278.5568567705741
 20
279.1884268339412
 30
0
 42
0.001576883993689683
  0
VERTEX
  8
1
 10
278.2660865281243
 20
279.1651084536344
 30
0
 42
0.002211090619669806
  0
VERTEX
  8
1
 10
277.9757332590348
 20
279.1396082787048
 30
0
 42
0.002848557154763259
  0
VERTEX
  8
1
 10
277.6859359544255
 20
279.1111990442778
 30
0
 42
0.006756412268675165
  0
VERTEX
  8
1
 10
277.0213063175594
 20
279.0331285174441
 30
0
 42
0.00394960781064771
  0
VERTEX
  8
1
 10
276.3586285301072
 20
278.9408638822767
 30
0
 42
0.002819681199740573
  0
VERTEX
  8
1
 10
275.6961737744544
 20
278.8394699575065
 30
0
 42
0.0004244089954460334
  0
VERTEX
  8
1
 10
275.0322132329861
 20
278.7340115618644
 30
0
 42
-0.001526779813761789
  0
VERTEX
  8
1
 10
274.3650180880878
 20
278.6295535140811
 30
0
 42
-0.003828713700413022
  0
VERTEX
  8
1
 10
273.8996864631776
 20
278.5614371993918
 30
0
 42
-0.008077299980118788
  0
VERTEX
  8
1
 10
273.4333319425225
 20
278.504461079378
 30
0
 42
-0.01246650744820742
  0
VERTEX
  8
1
 10
272.9673202290682
 20
278.4668465455665
 30
0
 42
-0.01702945909614795
  0
VERTEX
  8
1
 10
272.5030170257601
 20
278.4568149894843
 30
0
 42
-0.05240043144357097
  0
VERTEX
  8
1
 10
271.3919165764756
 20
278.5877076350665
 30
0
 42
-0.01461122410693895
  0
VERTEX
  8
1
 10
270.7475931642459
 20
278.7486052093786
 30
0
 42
-0.002053019632359966
  0
VERTEX
  8
1
 10
270.1053670197031
 20
278.9318268142389
 30
0
 42
0.01039734553728153
  0
VERTEX
  8
1
 10
269.4617873636959
 20
279.1039187382921
 30
0
 42
0.02316068791098281
  0
VERTEX
  8
1
 10
268.8134034170727
 20
279.231427270183
 30
0
 42
0.02682260581794665
  0
VERTEX
  8
1
 10
268.2227139849024
 20
279.2872548013572
 30
0
 42
0.01284867864460918
  0
VERTEX
  8
1
 10
267.6269931519518
 20
279.2961342503725
 30
0
 42
0.01264018664592032
  0
VERTEX
  8
1
 10
267.0279160283305
 20
279.2745157496624
 30
0
 42
0.002393804698241488
  0
VERTEX
  8
1
 10
266.4271577241486
 20
279.2388494316603
 30
0
 42
-0.00438982640713701
  0
VERTEX
  8
1
 10
265.8263933495159
 20
279.2055854287996
 30
0
 42
-0.007114942061621923
  0
VERTEX
  8
1
 10
265.2216048710295
 20
279.1877240623807
 30
0
 42
-0.005563552050858435
  0
VERTEX
  8
1
 10
264.6181756339323
 20
279.1852158524255
 30
0
 42
-0.003986604090543054
  0
VERTEX
  8
1
 10
264.015765827877
 20
279.1942225098181
 30
0
 42
-0.002396062566146219
  0
VERTEX
  8
1
 10
263.4140356425162
 20
279.2109057454426
 30
0
 42
-0.000799274305780588
  0
VERTEX
  8
1
 10
262.8126452675028
 20
279.231427270183
 30
0
  0
SEQEND
  8
1
  0
POLYLINE
  8
1
 62
3
 66
1
  0
VERTEX
  8
1
 10
262.8126452675028
 20
268.231427270183
 30
0
 42
0.0001520563532006561
  0
VERTEX
  8
1
 10
263.7130759795389
 20
268.277338603742
 30
0
 42
0.0004559430651646471
  0
VERTEX
  8
1
 10
264.6137851366775
 20
268.3243623120268
 30
0
 42
0.0007586958597703143
  0
VERTEX
  8
1
 10
265.5150511840213
 20
268.3736107697634
 30
0
 42
0.001059843563089497
  0
VERTEX
  8
1
 10
266.4171525666729
 20
268.4261963516779
 30
0
 42
0.00135844064606744
  0
VERTEX
  8
1
 10
267.3203677297348
 20
268.483231432496
 30
0
 42
0.001876121247721854
  0
VERTEX
  8
1
 10
267.9301596767314
 20
268.5257000174869
 30
0
 42
0.005028464223652138
  0
VERTEX
  8
1
 10
268.539060698707
 20
268.5765643736987
 30
0
 42
0.00678654822403812
  0
VERTEX
  8
1
 10
269.1455463268497
 20
268.6416892955306
 30
0
 42
0.01000373869107626
  0
VERTEX
  8
1
 10
269.7480920923476
 20
268.7269395773822
 30
0
 42
0.01181943118254292
  0
VERTEX
  8
1
 10
270.3451735263889
 20
268.8381800136527
 30
0
 42
0.02260296103182406
  0
VERTEX
  8
1
 10
271.3356033225331
 20
269.0942786612936
 30
0
 42
0.01776829577898231
  0
VERTEX
  8
1
 10
272.3052304460182
 20
269.4304813265375
 30
0
 42
0.01769407885026098
  0
VERTEX
  8
1
 10
273.2530905352553
 20
269.8364690130921
 30
0
 42
0.01304024145634419
  0
VERTEX
  8
1
 10
274.1782192286557
 20
270.3019227246653
 30
0
 42
0.0132520998137927
  0
VERTEX
  8
1
 10
275.0796521646308
 20
270.8165234649647
 30
0
 42
0.006507225468155495
  0
VERTEX
  8
1
 10
275.8987079795156
 20
271.328026022481
 30
0
 42
0.0003492312931560675
  0
VERTEX
  8
1
 10
276.7083542074706
 20
271.8492190107208
 30
0
 42
-0.006990503468311197
  0
VERTEX
  8
1
 10
277.520547520571
 20
272.3561511007245
 30
0
 42
-0.01414273780463304
  0
VERTEX
  8
1
 10
278.3472445908917
 20
272.8248709635319
 30
0
 42
-0.02139598757927912
  0
VERTEX
  8
1
 10
279.2004020905079
 20
273.231427270183
 30
0
 42
-0.01756986365204317
  0
VERTEX
  8
1
 10
279.8944610918732
 20
273.4950648166423
 30
0
 42
-0.01351685745494146
  0
VERTEX
  8
1
 10
280.6074465159275
 20
273.7162773321287
 30
0
 42
-0.009528745766046913
  0
VERTEX
  8
1
 10
281.3346267569988
 20
273.9056710743855
 30
0
 42
-0.005654478827517146
  0
VERTEX
  8
1
 10
282.0712702094147
 20
274.0738523011559
 30
0
 42
-0.001873214916165012
  0
VERTEX
  8
1
 10
282.8126452675028
 20
274.231427270183
 30
0
  0
SEQEND
  8
1
  0
POLYLINE
  8
1
 62
3
 66
1
  0
VERTEX
  8
1
 10
262.8126452675028
 20
269.231427270183
 30
0
 42
0.0001520563531377065
  0
VERTEX
  8
1
 10
263.7130759795389
 20
269.2773386037419
 30
0
 42
0.0004559430652906019
  0
VERTEX
  8
1
 10
264.6137851366775
 20
269.3243623120268
 30
0
 42
0.0007586958596129401
  0
VERTEX
  8
1
 10
265.5150511840213
 20
269.3736107697634
 30
0
 42
0.001059843563246871
  0
VERTEX
  8
1
 10
266.4171525666729
 20
269.4261963516779
 30
0
 42
0.001358440645910121
  0
VERTEX
  8
1
 10
267.3203677297348
 20
269.483231432496
 30
0
 42
0.001876121247879229
  0
VERTEX
  8
1
 10
267.9301596767314
 20
269.5257000174869
 30
0
 42
0.00502846422349476
  0
VERTEX
  8
1
 10
268.539060698707
 20
269.5765643736987
 30
0
 42
0.006786548224195557
  0
VERTEX
  8
1
 10
269.1455463268497
 20
269.6416892955306
 30
0
 42
0.01000373869091865
  0
VERTEX
  8
1
 10
269.7480920923476
 20
269.7269395773822
 30
0
 42
0.01181943118270125
  0
VERTEX
  8
1
 10
270.3451735263889
 20
269.8381800136527
 30
0
 42
0.02260296103166638
  0
VERTEX
  8
1
 10
271.3356033225331
 20
270.0942786612936
 30
0
 42
0.01776829577914185
  0
VERTEX
  8
1
 10
272.3052304460182
 20
270.4304813265375
 30
0
 42
0.01769407885010045
  0
VERTEX
  8
1
 10
273.2530905352553
 20
270.8364690130921
 30
0
 42
0.01304024145647878
  0
VERTEX
  8
1
 10
274.1782192286557
 20
271.3019227246652
 30
0
 42
0.01325209981370575
  0
VERTEX
  8
1
 10
275.0796521646308
 20
271.8165234649647
 30
0
 42
0.006507225468217448
  0
VERTEX
  8
1
 10
275.8987079795156
 20
272.328026022481
 30
0
 42
0.000349231293093895
  0
VERTEX
  8
1
 10
276.7083542074706
 20
272.8492190107208
 30
0
 42
-0.006990503468311197
  0
VERTEX
  8
1
 10
277.520547520571
 20
273.3561511007245
 30
0
 42
-0.01414273780452865
  0
VERTEX
  8
1
 10
278.3472445908917
 20
273.8248709635319
 30
0
 42
-0.02139598757927912
  0
VERTEX
  8
1
 10
279.2004020905079
 20
274.231427270183
 30
0
 42
-0.01756986365218643
  0
VERTEX
  8
1
 10
279.8944610918732
 20
274.4950648166423
 30
0
 42
-0.01351685745494146
  0
VERTEX
  8
1
 10
280.6074465159275
 20
274.7162773321287
 30
0
 42
-0.009528745766046913
  0
VERTEX
  8
1
 10
281.3346267569988
 20
274.9056710743855
 30
0
 42
-0.005654478827517146
  0
VERTEX
  8
1
 10
282.0712702094147
 20
275.0738523011559
 30
0
 42
-0.001873214916165012
  0
VERTEX
  8
1
 10
282.8126452675028
 20
275.231427270183
 30
0
  0
SEQEND
  8
1
  0
POLYLINE
  8
1
 62
3
 66
1
  0
VERTEX
  8
1
 10
262.8126452675028
 20
270.731427270183
 30
0
 42
0.001250144812505883
  0
VERTEX
  8
1
 10
263.5507280327342
 20
270.7017271106238
 30
0
 42
0.003757595866845429
  0
VERTEX
  8
1
 10
264.2880303528589
 20
270.6794519909544
 30
0
 42
0.006297950553811842
  0
VERTEX
  8
1
 10
265.0237717827703
 20
270.6720269510646
 30
0
 42
0.008870900991085751
  0
VERTEX
  8
1
 10
265.7571718773615
 20
270.6868770308442
 30
0
 42
0.01147156471219843
  0
VERTEX
  8
1
 10
266.4874501915259
 20
270.731427270183
 30
0
 42
0.01254792155270035
  0
VERTEX
  8
1
 10
267.2426011104088
 20
270.8140399755774
 30
0
 42
0.007042539110313814
  0
VERTEX
  8
1
 10
267.9953599383868
 20
270.926380464673
 30
0
 42
0.005557307952415075
  0
VERTEX
  8
1
 10
268.7475480873759
 20
271.0580898754184
 30
0
 42
9.171228520455562e-005
  0
VERTEX
  8
1
 10
269.5009869692922
 20
271.1988093457621
 30
0
 42
-0.002321053770344762
  0
VERTEX
  8
1
 10
270.2574979960519
 20
271.3381800136527
 30
0
 42
-0.00120131052582582
  0
VERTEX
  8
1
 10
271.0745338190833
 20
271.4800573501589
 30
0
 42
0.005027277254723564
  0
VERTEX
  8
1
 10
271.8895995642032
 20
271.6280127510322
 30
0
 42
0.01135044803564381
  0
VERTEX
  8
1
 10
272.6950710608444
 20
271.8016515008494
 30
0
 42
0.01794427143886267
  0
VERTEX
  8
1
 10
273.4833241384396
 20
272.0205788841869
 30
0
 42
0.04827825323417126
  0
VERTEX
  8
1
 10
274.9444879430675
 20
272.6439987482754
 30
0
 42
0.00849022313283615
  0
VERTEX
  8
1
 10
275.6241402678333
 20
273.0302027563205
 30
0
 42
0.003152034215321853
  0
VERTEX
  8
1
 10
276.2968505025936
 20
273.4334647628103
 30
0
 42
-0.009118567119184023
  0
VERTEX
  8
1
 10
276.9737775492229
 20
273.824237320798
 30
0
 42
-0.01940348389060309
  0
VERTEX
  8
1
 10
277.6660803095959
 20
274.172972983337
 30
0
 42
-0.03006721513015593
  0
VERTEX
  8
1
 10
278.6374972616665
 20
274.5408541535913
 30
0
 42
-0.02315593798536405
  0
VERTEX
  8
1
 10
279.6475115734108
 20
274.8046084485889
 30
0
 42
-0.01618042258611688
  0
VERTEX
  8
1
 10
280.6864739049107
 20
274.9902675871439
 30
0
 42
-0.009504695469785522
  0
VERTEX
  8
1
 10
281.7447349162475
 20
275.1238632880705
 30
0
 42
-0.003129060246778163
  0
VERTEX
  8
1
 10
282.8126452675028
 20
275.231427270183
 30
0
  0
SEQEND
  8
1
  0
POLYLINE
  8
1
 62
3
 66
1
  0
VERTEX
  8
1
 10
262.8126452675028
 20
271.731427270183
 30
0
 42
0.001152801735502336
  0
VERTEX
  8
1
 10
263.5500918140969
 20
271.7040936197219
 30
0
 42
0.00346375652333106
  0
VERTEX
  8
1
 10
264.2869169702437
 20
271.6835933818761
 30
0
 42
0.00579916416492281
  0
VERTEX
  8
1
 10
265.0224993454957
 20
271.6767599692607
 30
0
 42
0.008158172994338809
  0
VERTEX
  8
1
 10
265.7562175494055
 20
271.6904267944913
 30
0
 42
0.01053592694605887
  0
VERTEX
  8
1
 10
266.4874501915259
 20
271.731427270183
 30
0
 42
0.01177436222910422
  0
VERTEX
  8
1
 10
267.2442668093261
 20
271.8078441626739
 30
0
 42
0.007768041546421143
  0
VERTEX
  8
1
 10
267.9987042672852
 20
271.9139407398658
 30
0
 42
0.006923755484452137
  0
VERTEX
  8
1
 10
268.7517381967969
 20
272.0425041451591
 30
0
 42
0.002936010792896949
  0
VERTEX
  8
1
 10
269.5043442292546
 20
272.1863215219546
 30
0
 42
0.00213716040363214
  0
VERTEX
  8
1
 10
270.2574979960519
 20
272.3381800136527
 30
0
 42
0.0005152325849745703
  0
VERTEX
  8
1
 10
271.0765644404344
 20
272.5078549812403
 30
0
 42
0.008980172020087676
  0
VERTEX
  8
1
 10
271.8912258037907
 20
272.6928176778901
 30
0
 42
0.009777534549071945
  0
VERTEX
  8
1
 10
272.6952776079929
 20
272.9073774953166
 30
0
 42
0.01845505424865551
  0
VERTEX
  8
1
 10
273.4825153749126
 20
273.1658438252348
 30
0
 42
0.03922143116279699
  0
VERTEX
  8
1
 10
274.9399327366759
 20
273.8387333053782
 30
0
 42
0.00676227980742036
  0
VERTEX
  8
1
 10
275.6179353082986
 20
274.2309643605901
 30
0
 42
-0.001664850240895616
  0
VERTEX
  8
1
 10
276.2912733931115
 20
274.6313950720271
 30
0
 42
-0.0111397204238839
  0
VERTEX
  8
1
 10
276.9704780429368
 20
275.0122012867221
 30
0
 42
-0.02096863254688902
  0
VERTEX
  8
1
 10
277.6660803095959
 20
275.3455588517074
 30
0
 42
-0.03144394759785802
  0
VERTEX
  8
1
 10
278.6372725047152
 20
275.6851956448652
 30
0
 42
-0.02411662718847272
  0
VERTEX
  8
1
 10
279.6472118974758
 20
275.9165236983811
 30
0
 42
-0.01677980776423567
  0
VERTEX
  8
1
 10
280.6862116884676
 20
276.0666201971658
 30
0
 42
-0.00982437780777078
  0
VERTEX
  8
1
 10
281.74458507828
 20
276.1625623261297
 30
0
 42
-0.003228644692574004
  0
VERTEX
  8
1
 10
282.8126452675028
 20
276.231427270183
 30
0
  0
SEQEND
  8
1
  0
POLYLINE
  8
1
 62
3
 66
1
  0
VERTEX
  8
1
 10
262.8126452675028
 20
273.231427270183
 30
0
 42
-0.00061975444483896
  0
VERTEX
  8
1
 10
263.441522485639
 20
273.2521490065562
 30
0
 42
-0.00185853465916576
  0
VERTEX
  8
1
 10
264.0706179863409
 20
273.2697565545209
 30
0
 42
-0.003094675195971977
  0
VERTEX
  8
1
 10
264.7001500521744
 20
273.281135725669
 30
0
 42
-0.004324913475719399
  0
VERTEX
  8
1
 10
265.3303369657051
 20
273.2831723315919
 30
0
 42
-0.005543773682185752
  0
VERTEX
  8
1
 10
265.9613970094989
 20
273.2727521838813
 30
0
 42
-0.004520796364472641
  0
VERTEX
  8
1
 10
266.7004942966929
 20
273.2440475445083
 30
0
 42
0.0007805678302092721
  0
VERTEX
  8
1
 10
267.4396821827623
 20
273.2098054252141
 30
0
 42
0.006092705141370566
  0
VERTEX
  8
1
 10
268.1775586526536
 20
273.1857831342368
 30
0
 42
0.01150964957846217
  0
VERTEX
  8
1
 10
268.912721691313
 20
273.1877379798139
 30
0
 42
0.01700876146744544
  0
VERTEX
  8
1
 10
269.6437692836867
 20
273.231427270183
 30
0
 42
0.0124069707792597
  0
VERTEX
  8
1
 10
270.1087963523717
 20
273.2868010936314
 30
0
 42
0.006037178883364118
  0
VERTEX
  8
1
 10
270.5726080752341
 20
273.3594658435692
 30
0
 42
0.005589350942093615
  0
VERTEX
  8
1
 10
271.0362464191492
 20
273.4431913275935
 30
0
 42
0.0007533041595481634
  0
VERTEX
  8
1
 10
271.5007533509922
 20
273.5317473533013
 30
0
 42
-0.002573584257758261
  0
VERTEX
  8
1
 10
271.9671708376388
 20
273.6189037282901
 30
0
 42
-0.001804763929084178
  0
VERTEX
  8
1
 10
272.5419405326714
 20
273.719122326567
 30
0
 42
0.004933510209199733
  0
VERTEX
  8
1
 10
273.1155180796164
 20
273.8228269370761
 30
0
 42
0.0117687041104816
  0
VERTEX
  8
1
 10
273.6822724761261
 20
273.9449743639118
 30
0
 42
0.01888827476057231
  0
VERTEX
  8
1
 10
274.2365727198528
 20
274.1005214111685
 30
0
 42
0.05449544957759044
  0
VERTEX
  8
1
 10
275.3351437660238
 20
274.5914262468996
 30
0
 42
0.005924946793998546
  0
VERTEX
  8
1
 10
275.8816097199295
 20
274.9197155270924
 30
0
 42
5.930991534646136e-005
  0
VERTEX
  8
1
 10
276.4246588212317
 20
275.2548616746787
 30
0
 42
-0.01842206213847525
  0
VERTEX
  8
1
 10
276.9767642209956
 20
275.5624336408179
 30
0
 42
-0.03355665101497764
  0
VERTEX
  8
1
 10
277.5503990702868
 20
275.8080003766693
 30
0
 42
-0.02601541318566533
  0
VERTEX
  8
1
 10
277.9733811762475
 20
275.928817806189
 30
0
 42
-0.01999312491765283
  0
VERTEX
  8
1
 10
278.4093902900632
 20
276.0109607850967
 30
0
 42
-0.01415542656701375
  0
VERTEX
  8
1
 10
278.8545338679973
 20
276.0637411512279
 30
0
 42
-0.008632739803966616
  0
VERTEX
  8
1
 10
279.3049193663132
 20
276.096470742418
 30
0
 42
-0.003342474864621465
  0
VERTEX
  8
1
 10
279.7566542412745
 20
276.1184613965027
 30
0
 42
-0.0009058135989763384
  0
VERTEX
  8
1
 10
280.3736018939281
 20
276.1442808760406
 30
0
 42
-0.0007135431988569675
  0
VERTEX
  8
1
 10
280.9867165816431
 20
276.1679494857107
 30
0
 42
-0.0005145810281723963
  0
VERTEX
  8
1
 10
281.5969565456541
 20
276.1900049429797
 30
0
 42
-0.0003107331200460995
  0
VERTEX
  8
1
 10
282.2052800271957
 20
276.2109849653149
 30
0
 42
-0.0001039106373768687
  0
VERTEX
  8
1
 10
282.8126452675028
 20
276.231427270183
 30
0
  0
SEQEND
  8
1
  0
POLYLINE
  8
1
 62
3
 66
1
  0
VERTEX
  8
1
 10
262.8126452675028
 20
274.231427270183
 30
0
 42
-0.0005686270057002614
  0
VERTEX
  8
1
 10
263.4418436623952
 20
274.2511351312186
 30
0
 42
-0.001705583657885758
  0
VERTEX
  8
1
 10
264.0711800456643
 20
274.2679822726802
 30
0
 42
-0.002841296066189664
  0
VERTEX
  8
1
 10
264.7007924056868
 20
274.2791079749939
 30
0
 42
-0.003973764666427656
  0
VERTEX
  8
1
 10
265.3308187308394
 20
274.2816515185855
 30
0
 42
-0.005099253580779809
  0
VERTEX
  8
1
 10
265.9613970094989
 20
274.2727521838813
 30
0
 42
-0.004222463661788729
  0
VERTEX
  8
1
 10
266.6995234802646
 20
274.247112171119
 30
0
 42
0.0005439850098404136
  0
VERTEX
  8
1
 10
267.4377087285952
 20
274.2160351304182
 30
0
 42
0.005315690746810126
  0
VERTEX
  8
1
 10
268.1750679689619
 20
274.1936456047288
 30
0
 42
0.01014946503136728
  0
VERTEX
  8
1
 10
268.9107164158354
 20
274.1940681370006
 30
0
 42
0.01502468512806092
  0
VERTEX
  8
1
 10
269.6437692836867
 20
274.231427270183
 30
0
 42
0.01137546385987623
  0
VERTEX
  8
1
 10
270.110933539296
 20
274.2800545247339
 30
0
 42
0.007443944908685355
  0
VERTEX
  8
1
 10
270.5767648625163
 20
274.3463438973917
 30
0
 42
0.007896505749847857
  0
VERTEX
  8
1
 10
271.0413542133272
 20
274.4270672885848
 30
0
 42
0.003997182846911447
  0
VERTEX
  8
1
 10
271.5047925517081
 20
274.5189965987415
 30
0
 42
0.00449247094269878
  0
VERTEX
  8
1
 10
271.9671708376388
 20
274.6189037282901
 30
0
 42
0.002764412573487718
  0
VERTEX
  8
1
 10
272.541606544332
 20
274.7517778520635
 30
0
 42
0.009311519233056488
  0
VERTEX
  8
1
 10
273.111961601679
 20
274.8983043012973
 30
0
 42
0.008520636601136795
  0
VERTEX
  8
1
 10
273.6756605027604
 20
275.0647583914833
 30
0
 42
0.01512273039602132
  0
VERTEX
  8
1
 10
274.2301277406567
 20
275.257415438113
 30
0
 42
0.01430393938642229
  0
VERTEX
  8
1
 10
274.7727878084488
 20
275.4825507566781
 30
0
 42
0.01731454526701775
  0
VERTEX
  8
1
 10
275.3280533911573
 20
275.7552358718007
 30
0
 42
0.003504480622695939
  0
VERTEX
  8
1
 10
275.8754786515962
 20
276.0473205421221
 30
0
 42
-0.006277921057990891
  0
VERTEX
  8
1
 10
276.4230322468646
 20
276.3356076168813
 30
0
 42
-0.01631292714569944
  0
VERTEX
  8
1
 10
276.9786828340618
 20
276.5968999453174
 30
0
 42
-0.02662680848167925
  0
VERTEX
  8
1
 10
277.5503990702868
 20
276.8080003766693
 30
0
 42
-0.02074436175711823
  0
VERTEX
  8
1
 10
277.977840899554
 20
276.9189932619444
 30
0
 42
-0.01631089988909486
  0
VERTEX
  8
1
 10
278.4150328439758
 20
276.9985305250206
 30
0
 42
-0.0119906379750296
  0
VERTEX
  8
1
 10
278.8591293908628
 20
277.0536174474426
 30
0
 42
-0.007845844435913168
  0
VERTEX
  8
1
 10
279.3072850275256
 20
277.091259310755
 30
0
 42
-0.003838265879291341
  0
VERTEX
  8
1
 10
279.7566542412745
 20
277.1184613965027
 30
0
 42
-0.002306500365092204
  0
VERTEX
  8
1
 10
280.3715418336453
 20
277.1488190843563
 30
0
 42
-0.001809730331389271
  0
VERTEX
  8
1
 10
280.9839698345994
 20
277.1740004301315
 30
0
 42
-0.001301101935154936
  0
VERTEX
  8
1
 10
281.5945531419908
 20
277.195299519348
 30
0
 42
-0.0007840297047584662
  0
VERTEX
  8
1
 10
282.2039066536739
 20
277.2140104375253
 30
0
 42
-0.0002619039525093544
  0
VERTEX
  8
1
 10
282.8126452675028
 20
277.231427270183
 30
0
  0
SEQEND
  8
1
  0
POLYLINE
  8
1
 62
3
 66
1
  0
VERTEX
  8
1
 10
262.8126452675028
 20
275.731427270183
 30
0
 42
-0.0002378208918299822
  0
VERTEX
  8
1
 10
263.4421597944336
 20
275.738594011767
 30
0
 42
-0.0007133573776445562
  0
VERTEX
  8
1
 10
264.0717332767315
 20
275.7445635756508
 30
0
 42
-0.001188552287347093
  0
VERTEX
  8
1
 10
264.7014246697636
 20
275.7481387841345
 30
0
 42
-0.001663092466878024
  0
VERTEX
  8
1
 10
265.3312929288971
 20
275.7481224595182
 30
0
 42
-0.002136537293117992
  0
VERTEX
  8
1
 10
265.9613970094989
 20
275.7433174241016
 30
0
 42
-0.001865631803426871
  0
VERTEX
  8
1
 10
266.7736784736097
 20
275.7298471860969
 30
0
 42
0.0005141892358395161
  0
VERTEX
  8
1
 10
267.5860043343647
 20
275.7141804720338
 30
0
 42
0.002895590790837389
  0
VERTEX
  8
1
 10
268.3979295366926
 20
275.7040598615814
 30
0
 42
0.005289608783413769
  0
VERTEX
  8
1
 10
269.2090090255221
 20
275.7072279344081
 30
0
 42
0.007694918188572332
  0
VERTEX
  8
1
 10
270.0187977457818
 20
275.731427270183
 30
0
 42
0.004343499979184467
  0
VERTEX
  8
1
 10
270.4508139835159
 20
275.75475766413
 30
0
 42
0.0002859975231393229
  0
VERTEX
  8
1
 10
270.8828051763963
 20
275.7821002726726
 30
0
 42
-0.001341803219896803
  0
VERTEX
  8
1
 10
271.3152416777586
 20
275.8092553531632
 30
0
 42
-0.003766903632871041
  0
VERTEX
  8
1
 10
271.748593840938
 20
275.8320231629539
 30
0
 42
-0.006169435875878525
  0
VERTEX
  8
1
 10
272.18333201927
 20
275.8462039593971
 30
0
 42
-0.004876619092774401
  0
VERTEX
  8
1
 10
272.6536418119804
 20
275.8498215523587
 30
0
 42
0.001180039295826729
  0
VERTEX
  8
1
 10
273.1241810321299
 20
275.849966817592
 30
0
 42
0.007259670784940451
  0
VERTEX
  8
1
 10
273.5930219551228
 20
275.8580259949908
 30
0
 42
0.01351855179292787
  0
VERTEX
  8
1
 10
274.058236856364
 20
275.8853853244493
 30
0
 42
0.01992093400984334
  0
VERTEX
  8
1
 10
274.5178980112578
 20
275.943431045861
 30
0
 42
0.03139252909779728
  0
VERTEX
  8
1
 10
275.1865510833354
 20
276.098733641738
 30
0
 42
0.01336612539546419
  0
VERTEX
  8
1
 10
275.8443814594239
 20
276.315061518873
 30
0
 42
0.00804157592534408
  0
VERTEX
  8
1
 10
276.4969875027365
 20
276.561094859061
 30
0
 42
-0.006199739085114044
  0
VERTEX
  8
1
 10
277.1499675764862
 20
276.8055138440968
 30
0
 42
-0.01768287072612801
  0
VERTEX
  8
1
 10
277.8089200438858
 20
277.0169986557753
 30
0
 42
-0.03095415732678944
  0
VERTEX
  8
1
 10
278.7806016059951
 20
277.2212778630048
 30
0
 42
-0.02393841117507779
  0
VERTEX
  8
1
 10
279.7716588231805
 20
277.3179614140022
 30
0
 42
-0.01676213531412098
  0
VERTEX
  8
1
 10
280.7772477816729
 20
277.3339482228258
 30
0
 42
-0.009855059173618539
  0
VERTEX
  8
1
 10
281.7925245677033
 20
277.2961372035334
 30
0
 42
-0.003245338130063208
  0
VERTEX
  8
1
 10
282.8126452675028
 20
277.231427270183
 30
0
  0
SEQEND
  8
1
  0
POLYLINE
  8
1
 62
3
 66
1
  0
VERTEX
  8
1
 10
262.8126452675028
 20
276.731427270183
 30
0
 42
-0.0002335519103148092
  0
VERTEX
  8
1
 10
263.4421865185474
 20
276.7385085222518
 30
0
 42
-0.0007005663859829918
  0
VERTEX
  8
1
 10
264.0717800439306
 20
276.7444139689992
 30
0
 42
-0.001167288473480021
  0
VERTEX
  8
1
 10
264.7014781179911
 20
276.7479678051042
 30
0
 42
-0.001633442215278757
  0
VERTEX
  8
1
 10
265.3313330150677
 20
276.7479942252454
 30
0
 42
-0.002098630677808616
  0
VERTEX
  8
1
 10
265.9613970094989
 20
276.7433174241016
 30
0
 42
-0.001836296501953769
  0
VERTEX
  8
1
 10
266.7735874152375
 20
276.7301384786783
 30
0
 42
0.0004944346747811512
  0
VERTEX
  8
1
 10
267.585817249023
 20
276.7147789515675
 30
0
 42
0.002826535781202746
  0
VERTEX
  8
1
 10
268.3976919535676
 20
276.7048198817765
 30
0
 42
0.005169687816531069
  0
VERTEX
  8
1
 10
269.2088169715831
 20
276.7078423083125
 30
0
 42
0.007522252505601439
  0
VERTEX
  8
1
 10
270.0187977457818
 20
276.731427270183
 30
0
 42
0.004271185293885811
  0
VERTEX
  8
1
 10
270.4509811771696
 20
276.7542228174173
 30
0
 42
0.0004085886509828421
  0
VERTEX
  8
1
 10
270.8831258800727
 20
276.7810743527097
 30
0
 42
-0.001118848494137709
  0
VERTEX
  8
1
 10
271.3156322946308
 20
276.8080057833064
 30
0
 42
-0.00341513368120371
  0
VERTEX
  8
1
 10
271.7489008609833
 20
276.8310410164535
 30
0
 42
-0.005694717497790892
  0
VERTEX
  8
1
 10
272.18333201927
 20
276.8462039593971
 30
0
 42
-0.00457498568090238
  0
VERTEX
  8
1
 10
272.6530480227029
 20
276.8517210637092
 30
0
 42
0.0009489473348905339
  0
VERTEX
  8
1
 10
273.1229714683408
 20
276.8538361702956
 30
0
 42
0.006488725919357175
  0
VERTEX
  8
1
 10
273.591493511461
 20
276.8629154333725
 30
0
 42
0.01215971397427211
  0
VERTEX
  8
1
 10
274.0570053073409
 20
276.8893250071556
 30
0
 42
0.01793657943363169
  0
VERTEX
  8
1
 10
274.5178980112578
 20
276.943431045861
 30
0
 42
0.02806143278833792
  0
VERTEX
  8
1
 10
275.184681068791
 20
277.0847400323566
 30
0
 42
0.01206734520080694
  0
VERTEX
  8
1
 10
275.8426022919061
 20
277.2804118759941
 30
0
 42
0.007302900515402601
  0
VERTEX
  8
1
 10
276.4962341895173
 20
277.5027041847073
 30
0
 42
-0.005441792991677331
  0
VERTEX
  8
1
 10
277.1501492705392
 20
277.7238745664304
 30
0
 42
-0.0156735263938187
  0
VERTEX
  8
1
 10
277.8089200438858
 20
277.9161806290971
 30
0
 42
-0.0276361422070626
  0
VERTEX
  8
1
 10
278.7855636764517
 20
278.106023862818
 30
0
 42
-0.02140139376491683
  0
VERTEX
  8
1
 10
279.7782749171226
 20
278.1993975338564
 30
0
 42
-0.01504769255784301
  0
VERTEX
  8
1
 10
280.7830368638723
 20
278.2204190328831
 30
0
 42
-0.00888340833075256
  0
VERTEX
  8
1
 10
281.7958326146744
 20
278.1932057505686
 30
0
 42
-0.002932426850896682
  0
VERTEX
  8
1
 10
282.8126452675028
 20
278.1418750775835
 30
0
  0
SEQEND
  8
1
  0
POLYLINE
  8
1
 62
3
 66
1
  0
VERTEX
  8
1
 10
262.8126452675028
 20
280.7002651235241
 30
0
 42
-0.001460442418219108
  0
VERTEX
  8
1
 10
263.4456737836334
 20
280.7363647582541
 30
0
 42
-0.004397959821636421
  0
VERTEX
  8
1
 10
264.0778827578312
 20
280.7649975916344
 30
0
 42
-0.00737972278240015
  0
VERTEX
  8
1
 10
264.7084526481633
 20
280.7786968223157
 30
0
 42
-0.01041556889178834
  0
VERTEX
  8
1
 10
265.3365639126968
 20
280.7699956489485
 30
0
 42
-0.01348354551976135
  0
VERTEX
  8
1
 10
265.9613970094989
 20
280.731427270183
 30
0
 42
-0.01852174853764874
  0
VERTEX
  8
1
 10
266.7845622217743
 20
280.6257958581857
 30
0
 42
-0.0156258327998971
  0
VERTEX
  8
1
 10
267.6011979042571
 20
280.4636976091023
 30
0
 42
-0.01270868136951347
  0
VERTEX
  8
1
 10
268.4119910542304
 20
280.2544150660174
 30
0
 42
-0.009851910915131283
  0
VERTEX
  8
1
 10
269.2176286689776
 20
280.0072307720161
 30
0
 42
-0.007085593377772511
  0
VERTEX
  8
1
 10
270.0187977457818
 20
279.731427270183
 30
0
 42
-0.0001477941853299087
  0
VERTEX
  8
1
 10
270.4487619312136
 20
279.575910664188
 30
0
 42
0.005767172919324701
  0
VERTEX
  8
1
 10
270.8789136249311
 20
279.4257538466683
 30
0
 42
0.01182779522921688
  0
VERTEX
  8
1
 10
271.3105366532815
 20
279.2919225579373
 30
0
 42
0.01824629362289162
  0
VERTEX
  8
1
 10
271.7449148426121
 20
279.1853825383083
 30
0
 42
0.02476807313171246
  0
VERTEX
  8
1
 10
272.18333201927
 20
279.1170995280947
 30
0
 42
0.02753061669709774
  0
VERTEX
  8
1
 10
272.6441976771314
 20
279.0940674074587
 30
0
 42
0.01481336585944422
  0
VERTEX
  8
1
 10
273.1094502655527
 20
279.1102356966533
 30
0
 42
0.01190430324321746
  0
VERTEX
  8
1
 10
273.5777266242419
 20
279.151630807658
 30
0
 42
0.002183927244504104
  0
VERTEX
  8
1
 10
274.0476635929075
 20
279.2042791524522
 30
0
 42
-0.005081831715103711
  0
VERTEX
  8
1
 10
274.5178980112578
 20
279.2542071430152
 30
0
 42
-0.01107023940299257
  0
VERTEX
  8
1
 10
275.1783005447014
 20
279.3006550311683
 30
0
 42
-0.00848473542829363
  0
VERTEX
  8
1
 10
275.8370980930547
 20
279.3211324049743
 30
0
 42
-0.005824984950496886
  0
VERTEX
  8
1
 10
276.4947965779491
 20
279.3227352830417
 30
0
 42
-0.003132588015503141
  0
VERTEX
  8
1
 10
277.1519019210157
 20
279.312559683979
 30
0
 42
-0.0004300197766665358
  0
VERTEX
  8
1
 10
277.8089200438858
 20
279.2977016263948
 30
0
 42
0.001259723772546745
  0
VERTEX
  8
1
 10
278.8085036096334
 20
279.2777515325787
 30
0
 42
0.000978237538579365
  0
VERTEX
  8
1
 10
279.8088614946981
 20
279.2622649204784
 30
0
 42
0.0006981689223474669
  0
VERTEX
  8
1
 10
280.8098001192509
 20
279.250125919665
 30
0
 42
0.0004184329134111099
  0
VERTEX
  8
1
 10
281.8111259034621
 20
279.2402186597095
 30
0
 42
0.0001395634117635491
  0
VERTEX
  8
1
 10
282.8126452675028
 20
279.231427270183
 30
0
  0
SEQEND
  8
1
  0
POLYLINE
  8
1
 62
3
 66
1
  0
VERTEX
  8
1
 10
262.8126452675028
 20
281.731427270183
 30
0
 42
-0.001393915121754635
  0
VERTEX
  8
1
 10
263.4456805836109
 20
281.7598685750097
 30
0
 42
-0.004196304011975353
  0
VERTEX
  8
1
 10
264.0778946577917
 20
281.7811995536297
 30
0
 42
-0.007037433262322802
  0
VERTEX
  8
1
 10
264.7084662481182
 20
281.7883098798363
 30
0
 42
-0.009926024469293941
  0
VERTEX
  8
1
 10
265.336574112663
 20
281.7740892274231
 30
0
 42
-0.01284330496700485
  0
VERTEX
  8
1
 10
265.9613970094989
 20
281.731427270183
 30
0
 42
-0.01770265890833197
  0
VERTEX
  8
1
 10
266.7845767646073
 20
281.6228898015701
 30
0
 42
-0.01507171499069166
  0
VERTEX
  8
1
 10
267.6012155153712
 20
281.4601784258041
 30
0
 42
-0.01241504341035093
  0
VERTEX
  8
1
 10
268.4120044622093
 20
281.2517357843447
 30
0
 42
-0.009804710123037389
  0
VERTEX
  8
1
 10
269.2176348055399
 20
281.0060045186511
 30
0
 42
-0.007270830576936247
  0
VERTEX
  8
1
 10
270.0187977457818
 20
280.731427270183
 30
0
 42
-0.0002864829083588082
  0
VERTEX
  8
1
 10
270.4487603957559
 20
280.5762174907373
 30
0
 42
0.005668233751227733
  0
VERTEX
  8
1
 10
270.8789117116564
 20
280.4261361713904
 30
0
 42
0.01176641970698497
  0
VERTEX
  8
1
 10
271.3105351299188
 20
280.2922269675575
 30
0
 42
0.01822351206871275
  0
VERTEX
  8
1
 10
271.7449140869783
 20
280.1855335346538
 30
0
 42
0.02478922320269799
  0
VERTEX
  8
1
 10
272.18333201927
 20
280.1170995280946
 30
0
 42
0.02758139801195633
  0
VERTEX
  8
1
 10
272.6441981216651
 20
280.0939785774547
 30
0
 42
0.0148337937873327
  0
VERTEX
  8
1
 10
273.1094508263479
 20
280.1101236344004
 30
0
 42
0.0119312775031714
  0
VERTEX
  8
1
 10
273.5777270790319
 20
280.1515399281582
 30
0
 42
0.00219047892570675
  0
VERTEX
  8
1
 10
274.0476638254306
 20
280.2042326879544
 30
0
 42
-0.005086201687026234
  0
VERTEX
  8
1
 10
274.5178980112578
 20
280.2542071430152
 30
0
 42
-0.01108267781621162
  0
VERTEX
  8
1
 10
275.1783003472146
 20
280.300694494425
 30
0
 42
-0.008493923054607949
  0
VERTEX
  8
1
 10
275.8370978422803
 20
280.3211825165698
 30
0
 42
-0.005830763332871464
  0
VERTEX
  8
1
 10
276.4947963726303
 20
280.3227763113476
 30
0
 42
-0.003134911106098705
  0
VERTEX
  8
1
 10
277.1519018144402
 20
280.3125809806567
 30
0
 42
-0.0004288851269822299
  0
VERTEX
  8
1
 10
277.8089200438858
 20
280.2977016263948
 30
0
 42
0.001263637240786632
  0
VERTEX
  8
1
 10
278.8085037140015
 20
280.2777306769585
 30
0
 42
0.0009812774420745385
  0
VERTEX
  8
1
 10
279.8088616338557
 20
280.2622371129847
 30
0
 42
0.0007003385918072279
  0
VERTEX
  8
1
 10
280.8098002410137
 20
280.2501015881081
 30
0
 42
0.0004197335023351632
  0
VERTEX
  8
1
 10
281.8111259730409
 20
280.2402047559627
 30
0
 42
0.0001399970766066759
  0
VERTEX
  8
1
 10
282.8126452675028
 20
280.231427270183
 30
0
  0
SEQEND
  8
1
  0
POLYLINE
  8
1
 62
3
 66
1
  0
VERTEX
  8
1
 10
262.8126452675028
 20
283.2254676488138
 30
0
 42
-0.001487848289255158
  0
VERTEX
  8
1
 10
263.4447386619019
 20
283.2569455794331
 30
0
 42
-0.004476505034158182
  0
VERTEX
  8
1
 10
264.076246294801
 20
283.2808520084661
 30
0
 42
-0.007497884543685053
  0
VERTEX
  8
1
 10
264.7065824047002
 20
283.2896154343263
 30
0
 42
-0.01055265308887197
  0
VERTEX
  8
1
 10
265.3351612300995
 20
283.2756643554274
 30
0
 42
-0.01360823765821365
  0
VERTEX
  8
1
 10
265.9613970094989
 20
283.231427270183
 30
0
 42
-0.01778042054235655
  0
VERTEX
  8
1
 10
266.7160774806407
 20
283.1291735316379
 30
0
 42
-0.01672861272981428
  0
VERTEX
  8
1
 10
267.4640559459576
 20
282.9746860314235
 30
0
 42
-0.01573533131206039
  0
VERTEX
  8
1
 10
268.2029314031224
 20
282.7713254004817
 30
0
 42
-0.01482389590190732
  0
VERTEX
  8
1
 10
268.9303028498078
 20
282.5224522697543
 30
0
 42
-0.01400939333515716
  0
VERTEX
  8
1
 10
269.6437692836867
 20
282.231427270183
 30
0
 42
-0.005755986491683813
  0
VERTEX
  8
1
 10
270.106741445087
 20
282.0198066136518
 30
0
 42
0.0007264045254569687
  0
VERTEX
  8
1
 10
270.5665878102742
 20
281.8039936133324
 30
0
 42
0.007266235803613909
  0
VERTEX
  8
1
 10
271.0272882501564
 20
281.5966999710599
 30
0
 42
0.0140291160777063
  0
VERTEX
  8
1
 10
271.4928226356419
 20
281.4106373886695
 30
0
 42
0.02092265011915852
  0
VERTEX
  8
1
 10
271.9671708376388
 20
281.2585175679963
 30
0
 42
0.0258520555319914
  0
VERTEX
  8
1
 10
272.5132419652107
 20
281.138239518058
 30
0
 42
0.01307870543551894
  0
VERTEX
  8
1
 10
273.0711314216381
 20
281.0602177168314
 30
0
 42
0.01031549261538079
  0
VERTEX
  8
1
 10
273.6365470113605
 20
281.0079585116496
 30
0
 42
0.0004827589534740896
  0
VERTEX
  8
1
 10
274.2051965388175
 20
280.9649682498461
 30
0
 42
-0.006885535425785828
  0
VERTEX
  8
1
 10
274.7727878084488
 20
280.9147532787542
 30
0
 42
-0.008649353238231336
  0
VERTEX
  8
1
 10
275.3322201070445
 20
280.8455639214246
 30
0
 42
-0.004805729940523834
  0
VERTEX
  8
1
 10
275.8880358392631
 20
280.7615704023622
 30
0
 42
-0.0009220831189019066
  0
VERTEX
  8
1
 10
276.4418965483676
 20
280.6713662246394
 30
0
 42
0.002980105104944675
  0
VERTEX
  8
1
 10
276.9954637776211
 20
280.5835448913282
 30
0
 42
0.006887240875715061
  0
VERTEX
  8
1
 10
277.5503990702868
 20
280.506699905501
 30
0
 42
0.007194387540845087
  0
VERTEX
  8
1
 10
277.9895291526771
 20
280.4584497311357
 30
0
 42
0.004252160957338012
  0
VERTEX
  8
1
 10
278.4301300528757
 20
280.4202224708455
 30
0
 42
0.004734714785250518
  0
VERTEX
  8
1
 10
278.8717914289779
 20
280.3898896215742
 30
0
 42
0.001808389312444081
  0
VERTEX
  8
1
 10
279.314102939079
 20
280.3653226802655
 30
0
 42
0.002305350999857293
  0
VERTEX
  8
1
 10
279.7566542412745
 20
280.3443931438633
 30
0
 42
3.675170231088202e-005
  0
VERTEX
  8
1
 10
280.3682435341697
 20
280.3183399073621
 30
0
 42
0.001837690897963128
  0
VERTEX
  8
1
 10
280.9795721019651
 20
280.2945933787043
 30
0
 42
0.0005865993103031409
  0
VERTEX
  8
1
 10
281.5907051259359
 20
280.2725768809291
 30
0
 42
0.000352222308124432
  0
VERTEX
  8
1
 10
282.2017077873567
 20
280.2517137370757
 30
0
 42
0.0001173843011536249
  0
VERTEX
  8
1
 10
282.8126452675028
 20
280.231427270183
 30
0
  0
SEQEND
  8
1
  0
POLYLINE
  8
1
 62
3
 66
1
  0
VERTEX
  8
1
 10
262.8126452675028
 20
284.2254676488138
 30
0
 42
-0.001487848289255158
  0
VERTEX
  8
1
 10
263.4447386619019
 20
284.2569455794331
 30
0
 42
-0.004476505034158182
  0
VERTEX
  8
1
 10
264.076246294801
 20
284.2808520084661
 30
0
 42
-0.007497884543685053
  0
VERTEX
  8
1
 10
264.7065824047002
 20
284.2896154343263
 30
0
 42
-0.01055265308905296
  0
VERTEX
  8
1
 10
265.3351612300995
 20
284.2756643554274
 30
0
 42
-0.01360823765821365
  0
VERTEX
  8
1
 10
265.9613970094989
 20
284.231427270183
 30
0
 42
-0.01778042054235655
  0
VERTEX
  8
1
 10
266.7160774806407
 20
284.1291735316379
 30
0
 42
-0.01672861272995998
  0
VERTEX
  8
1
 10
267.4640559459576
 20
283.9746860314235
 30
0
 42
-0.01573533131206039
  0
VERTEX
  8
1
 10
268.2029314031224
 20
283.7713254004817
 30
0
 42
-0.0148238959019775
  0
VERTEX
  8
1
 10
268.9303028498078
 20
283.5224522697542
 30
0
 42
-0.01400939333536171
  0
VERTEX
  8
1
 10
269.6437692836867
 20
283.231427270183
 30
0
 42
-0.005755986491784403
  0
VERTEX
  8
1
 10
270.106741445087
 20
283.0198066136518
 30
0
 42
0.0007264045253556607
  0
VERTEX
  8
1
 10
270.5665878102742
 20
282.8039936133324
 30
0
 42
0.007266235803716055
  0
VERTEX
  8
1
 10
271.0272882501564
 20
282.5966999710599
 30
0
 42
0.01402911607749865
  0
VERTEX
  8
1
 10
271.4928226356419
 20
282.4106373886695
 30
0
 42
0.02092265011941798
  0
VERTEX
  8
1
 10
271.9671708376388
 20
282.2585175679963
 30
0
 42
0.02585205553173049
  0
VERTEX
  8
1
 10
272.5132419652107
 20
282.138239518058
 30
0
 42
0.01307870543573175
  0
VERTEX
  8
1
 10
273.0711314216381
 20
282.0602177168313
 30
0
 42
0.01031549261526765
  0
VERTEX
  8
1
 10
273.6365470113605
 20
282.0079585116496
 30
0
 42
0.000482758953573399
  0
VERTEX
  8
1
 10
274.2051965388175
 20
281.9649682498462
 30
0
 42
-0.006885535425686126
  0
VERTEX
  8
1
 10
274.7727878084488
 20
281.9147532787542
 30
0
 42
-0.008649353238231336
  0
VERTEX
  8
1
 10
275.3322201070445
 20
281.8455639214246
 30
0
 42
-0.0048057299406242
  0
VERTEX
  8
1
 10
275.8880358392631
 20
281.7615704023623
 30
0
 42
-0.0009220831188017644
  0
VERTEX
  8
1
 10
276.4418965483676
 20
281.6713662246394
 30
0
 42
0.002980105105044763
  0
VERTEX
  8
1
 10
276.9954637776211
 20
281.5835448913282
 30
0
 42
0.006887240875514878
  0
VERTEX
  8
1
 10
277.5503990702868
 20
281.506699905501
 30
0
 42
0.007194387541094733
  0
VERTEX
  8
1
 10
277.9895291526771
 20
281.4584497311357
 30
0
 42
0.004252160957087819
  0
VERTEX
  8
1
 10
278.4301300528757
 20
281.4202224708455
 30
0
 42
0.004734714785500379
  0
VERTEX
  8
1
 10
278.8717914289779
 20
281.3898896215742
 30
0
 42
0.001808389312195057
  0
VERTEX
  8
1
 10
279.314102939079
 20
281.3653226802655
 30
0
 42
0.002305351000106317
  0
VERTEX
  8
1
 10
279.7566542412745
 20
281.3443931438633
 30
0
 42
3.675170206197002e-005
  0
VERTEX
  8
1
 10
280.3682435341697
 20
281.3183399073621
 30
0
 42
0.001837690898212041
  0
VERTEX
  8
1
 10
280.9795721019651
 20
281.2945933787043
 30
0
 42
0.0005865993103031409
  0
VERTEX
  8
1
 10
281.5907051259359
 20
281.2725768809291
 30
0
 42
0.000352222308124432
  0
VERTEX
  8
1
 10
282.2017077873567
 20
281.2517137370757
 30
0
 42
0.0001173843011536249
  0
VERTEX
  8
1
 10
282.8126452675028
 20
281.231427270183
 30
0
  0
SEQEND
  8
1
  0
POLYLINE
  8
1
 62
3
 66
1
  0
VERTEX
  8
1
 10
262.8126452675028
 20
285.731427270183
 30
0
 42
-0.002401515546160825
  0
VERTEX
  8
1
 10
263.5571223294817
 20
285.7897354507355
 30
0
 42
-0.007270061773929954
  0
VERTEX
  8
1
 10
264.299220372167
 20
285.8334665861499
 30
0
 42
-0.01231149283703083
  0
VERTEX
  8
1
 10
265.0365603762652
 20
285.848043631288
 30
0
 42
-0.01755354876922055
  0
VERTEX
  8
1
 10
265.7667633224827
 20
285.8188895410118
 30
0
 42
-0.02286882021844656
  0
VERTEX
  8
1
 10
266.4874501915259
 20
285.731427270183
 30
0
 42
-0.02422950548637301
  0
VERTEX
  8
1
 10
267.257123330853
 20
285.5601041271664
 30
0
 42
-0.01734588071472902
  0
VERTEX
  8
1
 10
268.0158746099902
 20
285.3236047417801
 30
0
 42
-0.01066198829474464
  0
VERTEX
  8
1
 10
268.7667940999166
 20
285.0426086499856
 30
0
 42
-0.00424467579659746
  0
VERTEX
  8
1
 10
269.5129718716109
 20
284.7377953877446
 30
0
 42
0.002052424584146765
  0
VERTEX
  8
1
 10
270.2574979960519
 20
284.4298444910186
 30
0
 42
0.006058712418382474
  0
VERTEX
  8
1
 10
271.054039789054
 20
284.1154115685052
 30
0
 42
0.001620781604111035
  0
VERTEX
  8
1
 10
271.8517292050357
 20
283.814602079969
 30
0
 42
0.002483729581177804
  0
VERTEX
  8
1
 10
272.6500713875534
 20
283.5210090526892
 30
0
 42
-0.0006697605109973777
  0
VERTEX
  8
1
 10
273.4485714801633
 20
283.228225513946
 30
0
 42
-0.002478661273226851
  0
VERTEX
  8
1
 10
274.2467346264218
 20
282.9298444910186
 30
0
 42
-0.001095647322213468
  0
VERTEX
  8
1
 10
274.9240791998041
 20
282.6697186955604
 30
0
 42
0.002424872975838397
  0
VERTEX
  8
1
 10
275.6027551627681
 20
282.4111510915784
 30
0
 42
0.00595829452085258
  0
VERTEX
  8
1
 10
276.2846934073585
 20
282.1643518028532
 30
0
 42
0.009559540633315735
  0
VERTEX
  8
1
 10
276.9718248256197
 20
281.9395309531649
 30
0
 42
0.01321742970684814
  0
VERTEX
  8
1
 10
277.6660803095959
 20
281.7468986662939
 30
0
 42
0.02072492854059951
  0
VERTEX
  8
1
 10
278.6731880703737
 20
281.5398312215776
 30
0
 42
0.01367359041651769
  0
VERTEX
  8
1
 10
279.6950993183538
 20
281.4020792205241
 30
0
 42
0.01190594914387781
  0
VERTEX
  8
1
 10
280.7281131817358
 20
281.3163138022176
 30
0
 42
0.004970428984608946
  0
VERTEX
  8
1
 10
281.768528788719
 20
281.2652061057425
 30
0
 42
0.003400932165979028
  0
VERTEX
  8
1
 10
282.8126452675028
 20
281.231427270183
 30
0
  0
SEQEND
  8
1
  0
POLYLINE
  8
1
 62
3
 66
1
  0
VERTEX
  8
1
 10
262.8126452675028
 20
286.731427270183
 30
0
 42
-0.002401515546312483
  0
VERTEX
  8
1
 10
263.5571223294817
 20
286.7897354507355
 30
0
 42
-0.007270061773929954
  0
VERTEX
  8
1
 10
264.299220372167
 20
286.8334665861499
 30
0
 42
-0.01231149283695376
  0
VERTEX
  8
1
 10
265.0365603762652
 20
286.8480436312881
 30
0
 42
-0.01755354876929873
  0
VERTEX
  8
1
 10
265.7667633224827
 20
286.8188895410118
 30
0
 42
-0.02286882021829127
  0
VERTEX
  8
1
 10
266.4874501915259
 20
286.731427270183
 30
0
 42
-0.02422950548644233
  0
VERTEX
  8
1
 10
267.257123330853
 20
286.5601041271664
 30
0
 42
-0.01734588071493514
  0
VERTEX
  8
1
 10
268.0158746099902
 20
286.3236047417801
 30
0
 42
-0.01066198829474464
  0
VERTEX
  8
1
 10
268.7667940999166
 20
286.0426086499856
 30
0
 42
-0.00424467579659746
  0
VERTEX
  8
1
 10
269.5129718716109
 20
285.7377953877446
 30
0
 42
0.002052424584146765
  0
VERTEX
  8
1
 10
270.2574979960519
 20
285.4298444910186
 30
0
 42
0.006058712418382474
  0
VERTEX
  8
1
 10
271.054039789054
 20
285.1154115685052
 30
0
 42
0.001620781604111035
  0
VERTEX
  8
1
 10
271.8517292050357
 20
284.814602079969
 30
0
 42
0.002483729581177804
  0
VERTEX
  8
1
 10
272.6500713875534
 20
284.5210090526892
 30
0
 42
-0.0006697605109973777
  0
VERTEX
  8
1
 10
273.4485714801633
 20
284.228225513946
 30
0
 42
-0.002478661273226851
  0
VERTEX
  8
1
 10
274.2467346264218
 20
283.9298444910186
 30
0
 42
-0.001095647322213468
  0
VERTEX
  8
1
 10
274.9240791998041
 20
283.6697186955604
 30
0
 42
0.002424872975838397
  0
VERTEX
  8
1
 10
275.6027551627681
 20
283.4111510915784
 30
0
 42
0.00595829452085258
  0
VERTEX
  8
1
 10
276.2846934073585
 20
283.1643518028532
 30
0
 42
0.009559540633315735
  0
VERTEX
  8
1
 10
276.9718248256197
 20
282.9395309531649
 30
0
 42
0.01321742970684814
  0
VERTEX
  8
1
 10
277.6660803095959
 20
282.7468986662939
 30
0
 42
0.02072492854062661
  0
VERTEX
  8
1
 10
278.6731880703737
 20
282.5398312215777
 30
0
 42
0.01367359041643513
  0
VERTEX
  8
1
 10
279.6950993183538
 20
282.4020792205241
 30
0
 42
0.01190594914398796
  0
VERTEX
  8
1
 10
280.7281131817358
 20
282.3163138022176
 30
0
 42
0.004970428984499087
  0
VERTEX
  8
1
 10
281.768528788719
 20
282.2652061057425
 30
0
 42
0.003400932166089052
  0
VERTEX
  8
1
 10
282.8126452675028
 20
282.231427270183
 30
0
  0
SEQEND
  8
1
  0
POLYLINE
  8
1
 62
3
 66
1
  0
VERTEX
  8
1
 10
262.8126452675028
 20
288.231427270183
 30
0
 42
-0.001282843573286498
  0
VERTEX
  8
1
 10
263.7219508047968
 20
288.1277009299761
 30
0
 42
-0.003855547891045182
  0
VERTEX
  8
1
 10
264.6293160808789
 20
288.0147425136795
 30
0
 42
-0.006445299873612289
  0
VERTEX
  8
1
 10
265.5328008345372
 20
287.8833199452036
 30
0
 42
-0.009049879607911955
  0
VERTEX
  8
1
 10
266.4304648045599
 20
287.7242011484589
 30
0
 42
-0.01164617623656662
  0
VERTEX
  8
1
 10
267.3203677297348
 20
287.5281540473557
 30
0
 42
-0.008743508454687934
  0
VERTEX
  8
1
 10
267.9367201261973
 20
287.3650707692917
 30
0
 42
-0.008173065875596708
  0
VERTEX
  8
1
 10
268.5478552615462
 20
287.1810393268916
 30
0
 42
-0.007621914706692505
  0
VERTEX
  8
1
 10
269.1532947783292
 20
286.977660024508
 30
0
 42
-0.007091699757979201
  0
VERTEX
  8
1
 10
269.7525603190941
 20
286.7565331664936
 30
0
 42
-0.006583037128397369
  0
VERTEX
  8
1
 10
270.3451735263889
 20
286.5192590572012
 30
0
 42
-0.008713060780576144
  0
VERTEX
  8
1
 10
271.3039670927177
 20
286.0998067427908
 30
0
 42
-0.005295441891870836
  0
VERTEX
  8
1
 10
272.250174404419
 20
285.6538645139126
 30
0
 42
-0.001863754328460712
  0
VERTEX
  8
1
 10
273.1904327967801
 20
285.1941594892382
 30
0
 42
0.001562292244619387
  0
VERTEX
  8
1
 10
274.1313796050882
 20
284.7334187874393
 30
0
 42
0.004976995968743611
  0
VERTEX
  8
1
 10
275.0796521646308
 20
284.2843695271874
 30
0
 42
0.006696095144212892
  0
VERTEX
  8
1
 10
275.8832354252206
 20
283.9265573210737
 30
0
 42
0.007803666421338425
  0
VERTEX
  8
1
 10
276.6968517672531
 20
283.592196966886
 30
0
 42
0.01011296588916843
  0
VERTEX
  8
1
 10
277.5207514715784
 20
283.2876322147708
 30
0
 42
0.01131361176720574
  0
VERTEX
  8
1
 10
278.3551848190466
 20
283.019206814874
 30
0
 42
0.02500283413444419
  0
VERTEX
  8
1
 10
279.9136363398478
 20
282.6401229953355
 30
0
 42
0.007638934575494354
  0
VERTEX
  8
1
 10
280.6330135132271
 20
282.5141641883787
 30
0
 42
0.006629896808840207
  0
VERTEX
  8
1
 10
281.356997879636
 20
282.4085924177094
 30
0
 42
0.002849043767053475
  0
VERTEX
  8
1
 10
282.0840537080644
 20
282.3166120045649
 30
0
 42
0.001877809743016909
  0
VERTEX
  8
1
 10
282.8126452675028
 20
282.231427270183
 30
0
  0
SEQEND
  8
1
  0
POLYLINE
  8
1
 62
3
 66
1
  0
VERTEX
  8
1
 10
262.8126452675028
 20
289.231427270183
 30
0
 42
-0.001282843573409955
  0
VERTEX
  8
1
 10
263.7219508047968
 20
289.1277009299761
 30
0
 42
-0.003855547891168418
  0
VERTEX
  8
1
 10
264.6293160808789
 20
289.0147425136795
 30
0
 42
-0.006445299873550337
  0
VERTEX
  8
1
 10
265.5328008345372
 20
288.8833199452037
 30
0
 42
-0.009049879607973023
  0
VERTEX
  8
1
 10
266.4304648045599
 20
288.7242011484589
 30
0
 42
-0.0116461762364447
  0
VERTEX
  8
1
 10
267.3203677297348
 20
288.5281540473557
 30
0
 42
-0.008743508454687934
  0
VERTEX
  8
1
 10
267.9367201261973
 20
288.3650707692917
 30
0
 42
-0.008173065875682423
  0
VERTEX
  8
1
 10
268.5478552615462
 20
288.1810393268916
 30
0
 42
-0.007621914706777553
  0
VERTEX
  8
1
 10
269.1532947783292
 20
287.977660024508
 30
0
 42
-0.007091699757896596
  0
VERTEX
  8
1
 10
269.7525603190941
 20
287.7565331664937
 30
0
 42
-0.006583037128314987
  0
VERTEX
  8
1
 10
270.3451735263889
 20
287.5192590572012
 30
0
 42
-0.008713060780576144
  0
VERTEX
  8
1
 10
271.3039670927177
 20
287.0998067427908
 30
0
 42
-0.005295441891870836
  0
VERTEX
  8
1
 10
272.250174404419
 20
286.6538645139126
 30
0
 42
-0.001863754328509562
  0
VERTEX
  8
1
 10
273.1904327967801
 20
286.1941594892381
 30
0
 42
0.001562292244570759
  0
VERTEX
  8
1
 10
274.1313796050882
 20
285.7334187874393
 30
0
 42
0.004976995968767759
  0
VERTEX
  8
1
 10
275.0796521646308
 20
285.2843695271874
 30
0
 42
0.006696095144188576
  0
VERTEX
  8
1
 10
275.8832354252206
 20
284.9265573210737
 30
0
 42
0.007803666421362684
  0
VERTEX
  8
1
 10
276.6968517672531
 20
284.592196966886
 30
0
 42
0.01011296588911419
  0
VERTEX
  8
1
 10
277.5207514715784
 20
284.2876322147707
 30
0
 42
0.01131361176732155
  0
VERTEX
  8
1
 10
278.3551848190466
 20
284.019206814874
 30
0
 42
0.02500283413429693
  0
VERTEX
  8
1
 10
279.9136363398478
 20
283.6401229953355
 30
0
 42
0.007638934575641411
  0
VERTEX
  8
1
 10
280.6330135132271
 20
283.5141641883787
 30
0
 42
0.006629896808693374
  0
VERTEX
  8
1
 10
281.356997879636
 20
283.4085924177094
 30
0
 42
0.002849043767200193
  0
VERTEX
  8
1
 10
282.0840537080644
 20
283.3166120045649
 30
0
 42
0.001877809742870137
  0
VERTEX
  8
1
 10
282.8126452675028
 20
283.231427270183
 30
0
  0
SEQEND
  8
1
  0
POLYLINE
  8
1
 62
3
 66
1
  0
VERTEX
  8
1
 10
300.481590285512
 20
283.231427270183
 30
0
 42
0.006401683005912781
  0
VERTEX
  8
1
 10
299.9860088973057
 20
282.4072971011668
 30
0
 42
0.02019686451654503
  0
VERTEX
  8
1
 10
299.5515226079584
 20
281.5891994744046
 30
0
 42
0.0391119796076314
  0
VERTEX
  8
1
 10
299.239226516329
 20
280.7831669321505
 30
0
 42
0.06467125169443594
  0
VERTEX
  8
1
 10
299.1102157212765
 20
279.9952320166586
 30
0
 42
0.09177780810720387
  0
VERTEX
  8
1
 10
299.22558532166
 20
279.231427270183
 30
0
 42
0.06213484501131242
  0
VERTEX
  8
1
 10
299.5225253291729
 20
278.6276445563469
 30
0
 42
0.01032167272023343
  0
VERTEX
  8
1
 10
299.9296503868502
 20
278.0348674275468
 30
0
 42
-0.008968366807514146
  0
VERTEX
  8
1
 10
300.3533803788774
 20
277.4439816556649
 30
0
 42
-0.0408691022653179
  0
VERTEX
  8
1
 10
300.7001351894398
 20
276.8458730125829
 30
0
 42
-0.08398492570938838
  0
VERTEX
  8
1
 10
300.876334702723
 20
276.231427270183
 30
0
 42
-0.05745879019256364
  0
VERTEX
  8
1
 10
300.8665575022902
 20
275.8429334550668
 30
0
 42
-0.04092577827186886
  0
VERTEX
  8
1
 10
300.7771723808152
 20
275.4467688500281
 30
0
 42
-0.02623680826012191
  0
VERTEX
  8
1
 10
300.6280813185584
 20
275.0448511525475
 30
0
 42
-0.01444012508566173
  0
VERTEX
  8
1
 10
300.4391862957805
 20
274.6390980601055
 30
0
 42
-0.004595698192971159
  0
VERTEX
  8
1
 10
300.230389292742
 20
274.231427270183
 30
0
  0
SEQEND
  8
1
  0
POLYLINE
  8
1
 62
3
 66
1
  0
VERTEX
  8
1
 10
301.342850832153
 20
283.231427270183
 30
0
 42
0.005610045220613852
  0
VERTEX
  8
1
 10
300.8636863585015
 20
282.629898533306
 30
0
 42
0.017662056518891
  0
VERTEX
  8
1
 10
300.4289527054318
 20
282.0287519806482
 30
0
 42
0.03408297587030171
  0
VERTEX
  8
1
 10
300.0830806935257
 20
281.4283697964289
 30
0
 42
0.05686596115254653
  0
VERTEX
  8
1
 10
299.8705011433648
 20
280.8291341648675
 30
0
 42
0.08472232245197035
  0
VERTEX
  8
1
 10
299.8356448755311
 20
280.231427270183
 30
0
 42
0.1038365951310763
  0
VERTEX
  8
1
 10
300.0960532675617
 20
279.4395826933776
 30
0
 42
0.01466668619471603
  0
VERTEX
  8
1
 10
300.586107321192
 20
278.6473857403315
 30
0
 42
0.01363408149596363
  0
VERTEX
  8
1
 10
301.1433293874124
 20
277.8511110756882
 30
0
 42
-0.04258924877929788
  0
VERTEX
  8
1
 10
301.605241817213
 20
277.047033364091
 30
0
 42
-0.098801284856183
  0
VERTEX
  8
1
 10
301.809366961584
 20
276.231427270183
 30
0
 42
-0.0542564205421008
  0
VERTEX
  8
1
 10
301.7744350367285
 20
275.8356298756084
 30
0
 42
-0.03886192777714352
  0
VERTEX
  8
1
 10
301.6623106646686
 20
275.4370307440835
 30
0
 42
-0.02511887737137394
  0
VERTEX
  8
1
 10
301.4922919572053
 20
275.0363303098459
 30
0
 42
-0.01391435860719839
  0
VERTEX
  8
1
 10
301.2836770261397
 20
274.6342290071332
 30
0
 42
-0.004443253589643651
  0
VERTEX
  8
1
 10
301.055763983273
 20
274.231427270183
 30
0
  0
SEQEND
  8
1
  0
ARC
  8
1
 62
3
 10
305.1839811881503
 20
143.7675898413375
 30
0
 40
0.4999999999999147
 50
90
 51
149.999999999993
  0
ARC
  8
1
 62
3
 10
305.1839811881504
 20
199.7675898413374
 30
0
 40
0.5000000000000476
 50
209.9999999999856
 51
270
  0
ARC
  8
1
 62
3
 10
321.7839811881497
 20
146.4675898413374
 30
0
 40
2.199999999999903
 50
270
 51
0
  0
ARC
  8
1
 62
3
 10
321.7839811881497
 20
197.0675898413374
 30
0
 40
2.199999999999989
 50
0
 51
90
  0
ARC
  8
1
 62
3
 10
168.0103982520664
 20
167.7405240500678
 30
0
 40
0.8000000000000966
 50
0
 51
55.15009542095636
  0
ARC
  8
1
 62
3
 10
174.4103982520666
 20
167.7405240500678
 30
0
 40
0.7999999999999707
 50
124.8499045790453
 51
180
  0
ARC
  8
1
 62
3
 10
169.6103982520666
 20
167.4475898413379
 30
0
 40
0.8000000000000966
 50
180
 51
270
  0
ARC
  8
1
 62
3
 10
172.8103982520665
 20
167.4475898413379
 30
0
 40
0.8000000000000114
 50
270
 51
0
  0
ARC
  8
1
 62
3
 10
146.7103982520665
 20
138.2675898413376
 30
0
 40
3
 50
0
 51
90
  0
ARC
  8
1
 62
3
 10
151.7103982520665
 20
135.7675898413378
 30
0
 40
2
 50
180
 51
270
  0
ARC
  8
1
 62
3
 10
190.7103982520663
 20
135.7675898413381
 30
0
 40
2.000000000000085
 50
270
 51
0
  0
ARC
  8
1
 62
3
 10
195.7103982520667
 20
138.2675898413376
 30
0
 40
2.999999999999886
 50
90
 51
180
  0
ARC
  8
1
 62
3
 10
303.0039811881501
 20
135.4189698216425
 30
0
 40
0.2999999999998977
 50
270
 51
0
  0
ARC
  8
1
 62
3
 10
302.9639811881501
 20
135.4189698216426
 30
0
 40
0.3000000000002387
 50
180
 51
270
  0
ARC
  8
1
 62
3
 10
146.2103982520664
 20
196.7675898413377
 30
0
 40
5.500000000000512
 50
90
 51
180
  0
ARC
  8
1
 62
3
 10
196.2103982520665
 20
196.7675898413378
 30
0
 40
5.500000000000199
 50
0
 51
90
  0
ARC
  8
1
 62
3
 10
196.2103982520667
 20
146.7675898413378
 30
0
 40
5.500000000000114
 50
270.0000000000145
 51
0
  0
ARC
  8
1
 62
3
 10
146.2103982520665
 20
146.7675898413378
 30
0
 40
5.5
 50
180
 51
270
  0
ARC
  8
1
 62
3
 10
302.9639811881504
 20
135.4189474076432
 30
0
 40
0.3000000000001819
 50
180
 51
270
  0
ARC
  8
1
 62
3
 10
450.6128677946358
 20
182.9278618289182
 30
0
 40
1
 50
270
 51
0
  0
ARC
  8
1
 62
3
 10
450.6128677946358
 20
192.9278618289182
 30
0
 40
1
 50
0
 51
90
  0
ARC
  8
1
 62
3
 10
424.6128677946363
 20
192.9278618289182
 30
0
 40
1
 50
90
 51
180
  0
ARC
  8
1
 62
3
 10
424.6128677946363
 20
182.9278618289182
 30
0
 40
1
 50
180
 51
270
  0
ARC
  8
1
 62
3
 10
413.6251987843607
 20
138.4675898413372
 30
0
 40
3
 50
0
 51
90
  0
ARC
  8
1
 62
3
 10
462.2251987843611
 20
138.4675898413375
 30
0
 40
3
 50
90
 51
180
  0
ARC
  8
1
 62
3
 10
462.925198784361
 20
196.5675898413378
 30
0
 40
5.5
 50
0
 51
90
  0
ARC
  8
1
 62
3
 10
412.925198784361
 20
196.567589841338
 30
0
 40
5.5
 50
90
 51
180
  0
ARC
  8
1
 62
3
 10
412.925198784361
 20
146.9675898413372
 30
0
 40
5.5
 50
180
 51
270
  0
ARC
  8
1
 62
3
 10
463.175198784361
 20
146.7175898413371
 30
0
 40
5.255949010407138
 50
272.7263109939274
 51
2.726310993913074
  0
ARC
  8
1
 62
3
 10
433.1251987843614
 20
196.6666926753684
 30
0
 40
2.000000000000101
 50
92.86598398261567
 51
95.73917047727791
  0
ARC
  8
1
 62
3
 10
454.5312954387712
 20
143.7676034067863
 30
0
 40
1.999999999999966
 50
345.7373070060911
 51
0
  0
ARC
  8
1
 62
3
 10
457.2251987843613
 20
135.9675898413376
 30
0
 40
2
 50
270
 51
0
  0
ARC
  8
1
 62
3
 10
418.6251987843609
 20
135.9675898413376
 30
0
 40
1.999999999999716
 50
180
 51
270
  0
ARC
  8
1
 62
3
 10
431.7251987843613
 20
199.4313296463603
 30
0
 40
0.5
 50
0
 51
102.6323888992687
  0
ARC
  8
1
 62
3
 10
431.7251987843613
 20
198.9186947912287
 30
0
 40
0.5000000000000655
 50
282.8630345998931
 51
0
  0
ARC
  8
1
 62
3
 10
444.1251987843609
 20
199.4313296463602
 30
0
 40
0.5000000000002262
 50
77.36761110070168
 51
180
  0
ARC
  8
1
 62
3
 10
418.7251987843613
 20
151.0450779279617
 30
0
 40
0.6000000000000411
 50
227.1840121926499
 51
0
  0
ARC
  8
1
 62
3
 10
457.1251987843609
 20
151.0450779279617
 30
0
 40
0.5999999999999091
 50
180
 51
312.8159878073502
  0
ARC
  8
1
 62
3
 10
421.3201483860628
 20
143.7676034067869
 30
0
 40
2
 50
180
 51
194.2224792792637
  0
ARC
  8
1
 62
3
 10
433.5251987843609
 20
200.2675898413375
 30
0
 40
0.5
 50
90
 51
180
  0
ARC
  8
1
 62
3
 10
442.325198784361
 20
200.2675898413375
 30
0
 40
0.5
 50
0
 51
90
  0
ARC
  8
1
 62
3
 10
419.8409325582509
 20
138.3309876589548
 30
0
 40
0.03119999999973212
 50
352.5415509438412
 51
45.00000000066432
  0
ARC
  8
1
 62
3
 10
419.8409325582509
 20
138.2041920237202
 30
0
 40
0.03119999999975568
 50
314.9999999993357
 51
7.458449056158737
  0
ARC
  8
1
 62
3
 10
420.3885981496476
 20
138.7518576151171
 30
0
 40
0.03120000000016457
 50
262.5415509442084
 51
314.9999999999262
  0
ARC
  8
1
 62
3
 10
420.2618025144132
 20
138.7518576151171
 30
0
 40
0.0312000000003184
 50
224.9999999996309
 51
277.4584490559986
  0
ARC
  8
1
 62
3
 10
420.8094681058099
 20
138.2041920237202
 30
0
 40
0.0312000000000703
 50
172.5415509439225
 51
225
  0
ARC
  8
1
 62
3
 10
420.8094681058099
 20
138.3309876589548
 30
0
 40
0.03120000000011743
 50
135
 51
187.4584490560775
  0
ARC
  8
1
 62
3
 10
420.2618025144132
 20
137.7833220675579
 30
0
 40
0.03120000000017933
 50
82.54155094400143
 51
135.0000000003691
  0
ARC
  8
1
 62
3
 10
420.3885981496476
 20
137.7833220675579
 30
0
 40
0.03120000000007723
 50
45.00000000007382
 51
97.45844905579156
  0
ARC
  8
1
 62
3
 10
455.0409294629133
 20
138.3309876589548
 30
0
 40
0.03119999999956303
 50
352.5415509438006
 51
45.00000000066432
  0
ARC
  8
1
 62
3
 10
455.0409294629133
 20
138.2041920237202
 30
0
 40
0.03119999999975568
 50
314.9999999993357
 51
7.458449056199388
  0
ARC
  8
1
 62
3
 10
455.5885950543097
 20
138.7518576151171
 30
0
 40
0.03120000000017933
 50
262.5415509440014
 51
314.9999999997786
  0
ARC
  8
1
 62
3
 10
455.4617994190752
 20
138.7518576151171
 30
0
 40
0.03120000000003704
 50
225.0000000001477
 51
277.4584490562056
  0
ARC
  8
1
 62
3
 10
456.009465010472
 20
138.2041920237202
 30
0
 40
0.0312000000000703
 50
172.5415509439225
 51
225
  0
ARC
  8
1
 62
3
 10
456.009465010472
 20
138.3309876589548
 30
0
 40
0.03120000000011743
 50
135
 51
187.4584490560775
  0
ARC
  8
1
 62
3
 10
455.4617994190752
 20
137.7833220675579
 30
0
 40
0.03120000000019408
 50
82.54155094379442
 51
134.9999999998524
  0
ARC
  8
1
 62
3
 10
455.5885950543097
 20
137.7833220675579
 30
0
 40
0.03119999999999684
 50
45.00000000022143
 51
97.45844905599859
  0
ARC
  8
1
 62
3
 10
419.4251987843619
 20
135.2675898413371
 30
0
 40
1
 50
180
 51
270
  0
ARC
  8
1
 62
3
 10
456.4251987843604
 20
135.2675898413371
 30
0
 40
1
 50
270
 51
0
  0
ARC
  8
1
 62
3
 10
305.1839811881503
 20
32.22502172705171
 30
0
 40
0.4999999999999218
 50
90
 51
149.9999999999897
  0
ARC
  8
1
 62
3
 10
305.1839811881504
 20
88.2250217270516
 30
0
 40
0.5000000000000334
 50
209.9999999999828
 51
270
  0
ARC
  8
1
 62
3
 10
321.7839811881498
 20
85.52502172705161
 30
0
 40
2.199999999999875
 50
0
 51
90
  0
ARC
  8
1
 62
3
 10
321.7839811881498
 20
34.92502172705159
 30
0
 40
2.199999999999882
 50
270
 51
0
  0
TEXT
  8
1
 62
2
 10
353.910295539168
 20
293.5931453718558
 30
0
 40
3.200000000000001
  1
1
 50
90
 41
0.9
  0
TEXT
  8
1
 62
2
 10
353.9653898931718
 20
261.6862277879668
 30
0
 40
3.199999999999999
  1
11
 50
90
 41
0.9
  0
TEXT
  8
1
 62
2
 10
251.934914611252
 20
263.9202120794002
 30
0
 40
3.200000000000001
  1
9
 50
90
 41
0.9
  0
TEXT
  8
1
 62
2
 10
251.3763555573608
 20
292.3070821533295
 30
0
 40
3.200000000000001
  1
1
 50
90
 41
0.9
  0
TEXT
  8
1
 62
2
 10
306.6727489021128
 20
75.11588101468587
 30
0
 40
3
  1
1
 50
270
 41
0.9
 72
1
 73
2
 11
308.1727489021128
 21
73.76588101468587
 31
0
  0
TEXT
  8
1
 62
2
 10
306.7591815801205
 20
50.70210135491276
 30
0
 40
3
  1
11
 50
270
 41
0.9
 72
1
 73
2
 11
308.2591815801205
 21
48.00210135491275
 31
0
  0
TEXT
  8
1
 62
2
 10
289.2882775571173
 20
252.4868732319475
 30
0
 40
4
  1
付属ケーブル
 41
0.9
  0
TEXT
  8
1
 62
2
 10
274.3630564805091
 20
-9.256074993666941
 30
0
 40
5
  1
FY6PF6N-D3
 41
0.9
  0
INSERT
  8
0
  2
____6S5_5____11___I
 10
86.15346403836928
 20
-22.07945328168586
 30
0
  0
ENDSEC
  0
EOF
