  0
SECTION
  2
HEADER
  9
$ACADVER
  1
AC1009
  9
$INSBASE
 10
0
 20
0
  9
$EXTMIN
 10
13.6225466758756
 20
63.5144842713892
  9
$EXTMAX
 10
172.026075773104
 20
244.436866708239
  9
$LIMMIN
 10
13.6225466758756
 20
63.5144842713892
  9
$LIMMAX
 10
172.026075773104
 20
244.436866708239
  9
$VIEWCTR
 10
10
 20
10
  9
$VIEWSIZE
 40
10
  9
$SNAPMODE
 70
0
  9
$SNAPUNIT
 10
1
 20
1
  9
$SNAPBASE
 10
0
 20
0
  9
$SNAPANG
 50
0
  9
$SNAPSTYLE
 70
0
  9
$SNAPISOPAIR
 70
0
  9
$GRIDMODE
 70
0
  9
$GRIDUNIT
 10
0
 20
0
  9
$ORTHOMODE
 70
0
  9
$REGENMODE
 70
1
  9
$FILLMODE
 70
1
  9
$QTEXTMODE
 70
0
  9
$DRAGMODE
 70
2
  9
$LTSCALE
 40
1
  9
$OSMODE
 70
0
  9
$ATTMODE
 70
1
  9
$TEXTSIZE
 40
3.5
  9
$TRACEWID
 40
0.5
  9
$TEXTSTYLE
  7
STANDARD
  9
$CLAYER
  8
0
  9
$CELTYPE
  6
BYLAYER
  9
$CECOLOR
 62
256
  9
$DIMSCALE
 40
1
  9
$DIMASZ
 40
0.18
  9
$DIMEXO
 40
0.0625
  9
$DIMDLI
 40
0.38
  9
$DIMRND
 40
0
  9
$DIMDLE
 40
0
  9
$DIMEXE
 40
0.18
  9
$DIMTP
 40
0
  9
$DIMTM
 40
0
  9
$DIMTXT
 40
0.18
  9
$DIMCEN
 40
0.09
  9
$DIMTSZ
 40
0
  9
$DIMTOL
 70
0
  9
$DIMLIM
 70
0
  9
$DIMTIH
 70
1
  9
$DIMTOH
 70
1
  9
$DIMSE1
 70
0
  9
$DIMSE2
 70
0
  9
$DIMTAD
 70
0
  9
$DIMZIN
 70
0
  9
$DIMBLK
  1

  9
$DIMASO
 70
1
  9
$DIMSHO
 70
1
  9
$DIMPOST
  1

  9
$DIMAPOST
  1

  9
$DIMALT
 70
0
  9
$DIMALTD
 70
2
  9
$DIMALTF
 40
25.4
  9
$DIMLFAC
 40
1
  9
$DIMTOFL
 70
0
  9
$DIMTVP
 40
0
  9
$DIMTIX
 70
0
  9
$DIMSOXD
 70
0
  9
$DIMSAH
 70
0
  9
$DIMBLK1
  1

  9
$DIMBLK2
  1

  9
$DIMSTYLE
  2
*UNNAMED
  9
$DIMCLRD
 70
0
  9
$DIMCLRE
 70
0
  9
$DIMCLRT
 70
0
  9
$DIMTFAC
 40
1
  9
$DIMGAP
 40
0.09
  9
$LUNITS
 70
2
  9
$LUPREC
 70
4
  9
$AXISMODE
 70
0
  9
$AXISUNIT
 10
0
 20
0
  9
$SKETCHINC
 40
0.1
  9
$FILLETRAD
 40
2
  9
$AUNITS
 70
0
  9
$AUPREC
 70
0
  9
$MENU
  1
ACAD
  9
$ELEVATION
 40
0
  9
$THICKNESS
 40
0
  9
$VIEWDIR
 10
0
 20
0
 30
1
  9
$LIMCHECK
 70
0
  9
$BLIPMODE
 70
1
  9
$CHAMFERA
 40
0
  9
$CHAMFERB
 40
0
  9
$FASTZOOM
 70
1
  9
$SKPOLY
 70
0
  9
$ANGBASE
 50
0
  9
$ANGDIR
 70
0
  9
$PDMODE
 70
0
  9
$PDSIZE
 40
0
  9
$PLINEWID
 40
0
  9
$COORDS
 70
2
  0
ENDSEC
  0
SECTION
  2
TABLES
  0
TABLE
  2
DIMSTYLE
 70
0
  0
ENDTAB
  0
TABLE
  2
LTYPE
 70
9
  0
LTYPE
  2
CONTINUOUS
 70
64
  3
Solid line
 72
65
 73
0
 40
0
  0
LTYPE
  2
BORDER
 70
64
  3
__ __ . __ __ .
 72
65
 73
6
 40
8.331951822749661
 49
2.38055766364276
 49
-1.19027883182138
 49
2.38055766364276
 49
-1.19027883182138
 49
0
 49
-1.19027883182138
  0
LTYPE
  2
CENTER
 70
64
  3
____ _ ____ _
 72
65
 73
4
 40
9.522230654571041
 49
5.951394159106901
 49
-1.19027883182138
 49
1.19027883182138
 49
-1.19027883182138
  0
LTYPE
  2
DASHDOT
 70
64
  3
__ . __ . __ .
 72
65
 73
4
 40
4.761115327285521
 49
2.38055766364276
 49
-1.19027883182138
 49
0
 49
-1.19027883182138
  0
LTYPE
  2
DASHED
 70
64
  3
__ __ __ __ __
 72
65
 73
2
 40
3.570836495464141
 49
2.38055766364276
 49
-1.19027883182138
  0
LTYPE
  2
DIVIDE
 70
64
  3
__ . . __ . . 
 72
65
 73
6
 40
5.951394159106901
 49
2.38055766364276
 49
-1.19027883182138
 49
0
 49
-1.19027883182138
 49
0
 49
-1.19027883182138
  0
LTYPE
  2
DOT
 70
64
  3
..............
 72
65
 73
4
 40
2.38055766364276
 49
0
 49
-1.19027883182138
 49
0
 49
-1.19027883182138
  0
LTYPE
  2
HIDDEN
 70
64
  3
_ _ _ _ _ _ _
 72
65
 73
2
 40
1.78541824773207
 49
1.19027883182138
 49
-0.5951394159106901
  0
LTYPE
  2
PHANTOM
 70
64
  3
_____ _ _ _____ _ _ 
 72
65
 73
6
 40
11.9027883182138
 49
5.951394159106901
 49
-1.19027883182138
 49
1.19027883182138
 49
-1.19027883182138
 49
1.19027883182138
 49
-1.19027883182138
  0
ENDTAB
  0
TABLE
  2
LAYER
 70
3
  0
LAYER
  2
1
 70
0
 62
7
  6
CONTINUOUS
  0
LAYER
  2
0
 70
0
 62
7
  6
CONTINUOUS
  0
ENDTAB
  0
TABLE
  2
STYLE
 70
4
  0
STYLE
  2
STANDARD
 70
0
 40
0
 41
1
 50
0
 71
0
 42
3.5
  3
txt
  4

  0
STYLE
  2
SIMPLEX
 70
0
 40
0
 41
1
 50
0
 71
0
 42
3.5
  3
simplex
  4

  0
STYLE
  2
COMPLEX
 70
0
 40
0
 41
1
 50
0
 71
0
 42
3.5
  3
complex
  4

  0
STYLE
  2
ITALIC
 70
0
 40
0
 41
1
 50
0
 71
0
 42
3.5
  3
italic
  4

  0
ENDTAB
  0
TABLE
  2
VIEW
 70
0
  0
ENDTAB
  0
ENDSEC
  0
SECTION
  2
BLOCKS
  0
ENDSEC
  0
SECTION
  2
ENTITIES
  0
LINE
  8
1
 62
7
 10
91.10077562345282
 20
154.3696645052497
 30
0
 11
37.55574698902857
 21
100.8246358708254
 31
0
  0
LINE
  8
1
 62
7
 10
92.51498918582593
 20
152.9554509428766
 30
0
 11
38.96996055140166
 21
99.41042230845233
 31
0
  0
LINE
  8
1
 62
2
  6
CENTER
 10
99.0820263436933
 20
73.72321789584294
 30
0
 11
86.92251431868689
 21
73.72321789584294
 31
0
  0
LINE
  8
1
 62
7
 10
92.51498918582593
 20
152.9554509428766
 30
0
 11
91.10077562345282
 21
154.3696645052497
 31
0
  0
LINE
  8
1
 62
7
 10
148.1813381638098
 20
100.8246358708254
 30
0
 11
94.63630952938559
 21
154.3696645052497
 31
0
  0
LINE
  8
1
 62
7
 10
94.63630952938559
 20
154.3696645052497
 30
0
 11
93.22209596701248
 21
152.9554509428766
 31
0
  0
LINE
  8
1
 62
7
 10
146.7671246014367
 20
99.41042230845233
 30
0
 11
93.22209596701248
 21
152.9554509428766
 31
0
  0
LINE
  8
1
 62
2
  6
CENTER
 10
13.6225466758756
 20
154.723217895843
 30
0
 11
172.026075773104
 21
154.723217895843
 31
0
  0
LINE
  8
1
 62
7
 10
37.55574698902857
 20
208.6217999208605
 30
0
 11
91.10077562345282
 21
155.0767712864363
 31
0
  0
LINE
  8
1
 62
7
 10
38.96996055140166
 20
210.0360134832336
 30
0
 11
92.51498918582593
 21
156.4909848488094
 31
0
  0
LINE
  8
1
 62
2
  6
CENTER
 10
86.92251431868689
 20
235.723217895843
 30
0
 11
99.0820263436933
 21
235.723217895843
 31
0
  0
LINE
  8
1
 62
7
 10
91.10077562345282
 20
155.0767712864363
 30
0
 11
92.51498918582593
 21
156.4909848488094
 31
0
  0
LINE
  8
1
 62
7
 10
94.63630952938559
 20
155.0767712864363
 30
0
 11
148.1813381638098
 21
208.6217999208605
 31
0
  0
LINE
  8
1
 62
7
 10
93.22209596701248
 20
156.4909848488094
 30
0
 11
94.63630952938559
 21
155.0767712864363
 31
0
  0
LINE
  8
1
 62
7
 10
93.22209596701248
 20
156.4909848488094
 30
0
 11
146.7671246014367
 21
210.0360134832336
 31
0
  0
LINE
  8
1
 62
2
  6
CENTER
 10
92.8685425764192
 20
244.436866708239
 30
0
 11
92.8685425764192
 21
68.02976811418399
 31
0
  0
ARC
  8
1
 62
7
 10
92.8685425764192
 20
154.723217895843
 30
0
 40
74.30000000000003
 50
45.77116432632011
 51
134.2288356736799
  0
ARC
  8
1
 62
7
 10
92.8685425764192
 20
154.723217895843
 30
0
 40
74.30000000000001
 50
315.7711643263201
 51
44.22883567367989
  0
ARC
  8
1
 62
7
 10
92.8685425764192
 20
154.723217895843
 30
0
 40
74.3
 50
225.7711643263201
 51
314.2288356736799
  0
ARC
  8
1
 62
7
 10
92.8685425764192
 20
154.723217895843
 30
0
 40
72.3
 50
45.79249801502468
 51
134.2075019849753
  0
ARC
  8
1
 62
7
 10
92.8685425764192
 20
154.723217895843
 30
0
 40
72.3
 50
315.7924980150247
 51
44.20750198497532
  0
ARC
  8
1
 62
7
 10
92.8685425764192
 20
154.723217895843
 30
0
 40
72.3
 50
225.7924980150247
 51
314.2075019849753
  0
ARC
  8
1
 62
7
 10
92.8685425764192
 20
154.723217895843
 30
0
 40
67.5
 50
45.84885741611367
 51
134.1511425838863
  0
ARC
  8
1
 62
7
 10
92.8685425764192
 20
154.723217895843
 30
0
 40
67.5
 50
315.8488574161137
 51
44.15114258388633
  0
ARC
  8
1
 62
7
 10
92.8685425764192
 20
154.723217895843
 30
0
 40
67.49999999999997
 50
225.8488574161137
 51
314.1511425838864
  0
ARC
  8
1
 62
7
 10
92.8685425764192
 20
154.723217895843
 30
0
 40
65.50000000000007
 50
45.87477871084168
 51
134.1252212891583
  0
ARC
  8
1
 62
7
 10
92.8685425764192
 20
154.723217895843
 30
0
 40
65.50000000000006
 50
315.8747787108417
 51
44.12522128915835
  0
ARC
  8
1
 62
7
 10
92.8685425764192
 20
154.723217895843
 30
0
 40
65.50000000000001
 50
225.8747787108417
 51
314.1252212891583
  0
ARC
  8
1
 62
7
 10
92.8685425764192
 20
154.723217895843
 30
0
 40
61.00000000000001
 50
45.93931714998082
 51
134.0606828500192
  0
ARC
  8
1
 62
7
 10
92.8685425764192
 20
154.723217895843
 30
0
 40
61
 50
315.9393171499808
 51
44.06068285001918
  0
ARC
  8
1
 62
7
 10
92.8685425764192
 20
154.723217895843
 30
0
 40
61
 50
225.9393171499808
 51
314.0606828500192
  0
ARC
  8
1
 62
7
 10
92.8685425764192
 20
154.723217895843
 30
0
 40
59.00000000000006
 50
45.97116140898683
 51
134.0288385910132
  0
ARC
  8
1
 62
7
 10
92.8685425764192
 20
154.723217895843
 30
0
 40
59.00000000000004
 50
315.9711614089868
 51
44.02883859101319
  0
ARC
  8
1
 62
7
 10
92.8685425764192
 20
154.723217895843
 30
0
 40
59.00000000000001
 50
225.9711614089868
 51
314.0288385910132
  0
ARC
  8
1
 62
7
 10
92.8685425764192
 20
154.723217895843
 30
0
 40
54.50000000000006
 50
46.05135770607361
 51
133.9486422939264
  0
ARC
  8
1
 62
7
 10
92.8685425764192
 20
154.723217895843
 30
0
 40
54.50000000000006
 50
316.0513577060736
 51
43.94864229392638
  0
ARC
  8
1
 62
7
 10
92.8685425764192
 20
154.723217895843
 30
0
 40
54.49999999999999
 50
226.0513577060737
 51
313.9486422939264
  0
ARC
  8
1
 62
7
 10
92.8685425764192
 20
154.723217895843
 30
0
 40
52.49999999999996
 50
46.09141418430961
 51
133.9085858156905
  0
ARC
  8
1
 62
7
 10
92.8685425764192
 20
154.723217895843
 30
0
 40
52.50000000000004
 50
316.0914141843097
 51
43.90858581569033
  0
ARC
  8
1
 62
7
 10
92.8685425764192
 20
154.723217895843
 30
0
 40
52.50000000000003
 50
226.0914141843097
 51
313.9085858156905
  0
ARC
  8
1
 62
7
 10
92.8685425764192
 20
154.723217895843
 30
0
 40
48.00000000000007
 50
46.19374843714109
 51
133.8062515628589
  0
ARC
  8
1
 62
7
 10
92.8685425764192
 20
154.723217895843
 30
0
 40
48.00000000000006
 50
316.1937484371411
 51
43.80625156285893
  0
ARC
  8
1
 62
7
 10
92.8685425764192
 20
154.723217895843
 30
0
 40
48.00000000000004
 50
226.1937484371411
 51
313.8062515628589
  0
ARC
  8
1
 62
7
 10
92.8685425764192
 20
154.723217895843
 30
0
 40
46.00000000000009
 50
46.24565855159083
 51
133.7543414484092
  0
ARC
  8
1
 62
7
 10
92.8685425764192
 20
154.723217895843
 30
0
 40
45.99999999999999
 50
316.245658551591
 51
43.75434144840919
  0
ARC
  8
1
 62
7
 10
92.8685425764192
 20
154.723217895843
 30
0
 40
46.00000000000002
 50
226.2456585515909
 51
313.7543414484092
  0
ARC
  8
1
 62
7
 10
92.8685425764192
 20
154.723217895843
 30
0
 40
40.99999999999997
 50
46.39759662824553
 51
133.6024033717545
  0
ARC
  8
1
 62
7
 10
92.8685425764192
 20
154.723217895843
 30
0
 40
41.00000000000003
 50
316.3975966282457
 51
43.60240337175449
  0
ARC
  8
1
 62
7
 10
92.8685425764192
 20
154.723217895843
 30
0
 40
40.99999999999998
 50
226.3975966282455
 51
313.6024033717546
  0
ARC
  8
1
 62
7
 10
92.8685425764192
 20
154.723217895843
 30
0
 40
39.00000000000002
 50
46.4692835813538
 51
133.5307164186462
  0
ARC
  8
1
 62
7
 10
92.8685425764192
 20
154.723217895843
 30
0
 40
39
 50
316.4692835813538
 51
43.53071641864622
  0
ARC
  8
1
 62
7
 10
92.8685425764192
 20
154.723217895843
 30
0
 40
38.99999999999999
 50
226.4692835813539
 51
313.5307164186462
  0
ARC
  8
1
 62
7
 10
92.8685425764192
 20
154.723217895843
 30
0
 40
34.00000000000003
 50
46.68541304022264
 51
133.3145869597773
  0
ARC
  8
1
 62
7
 10
92.8685425764192
 20
154.723217895843
 30
0
 40
34.00000000000001
 50
316.6854130402227
 51
43.31458695977738
  0
ARC
  8
1
 62
7
 10
92.8685425764192
 20
154.723217895843
 30
0
 40
33.99999999999999
 50
226.6854130402227
 51
313.3145869597774
  0
ARC
  8
1
 62
7
 10
92.8685425764192
 20
154.723217895843
 30
0
 40
32.00000000000002
 50
46.79078465932908
 51
133.2092153406711
  0
ARC
  8
1
 62
7
 10
92.8685425764192
 20
154.723217895843
 30
0
 40
32.00000000000001
 50
316.7907846593291
 51
43.20921534067104
  0
ARC
  8
1
 62
7
 10
92.8685425764192
 20
154.723217895843
 30
0
 40
32.00000000000004
 50
226.7907846593291
 51
313.2092153406712
  0
ARC
  8
1
 62
7
 10
92.8685425764192
 20
154.723217895843
 30
0
 40
27.49999999999997
 50
47.0839423346083
 51
132.9160576653917
  0
ARC
  8
1
 62
7
 10
92.8685425764192
 20
154.723217895843
 30
0
 40
27.50000000000004
 50
317.0839423346084
 51
42.91605766539188
  0
ARC
  8
1
 62
7
 10
92.8685425764192
 20
154.723217895843
 30
0
 40
27.49999999999999
 50
227.0839423346083
 51
312.9160576653919
  0
ARC
  8
1
 62
7
 10
92.8685425764192
 20
154.723217895843
 30
0
 40
25.50000000000001
 50
47.24746961814284
 51
132.7525303818572
  0
ARC
  8
1
 62
7
 10
92.8685425764192
 20
154.723217895843
 30
0
 40
25.50000000000007
 50
317.2474696181429
 51
42.75253038185719
  0
ARC
  8
1
 62
7
 10
92.8685425764192
 20
154.723217895843
 30
0
 40
25.49999999999997
 50
227.2474696181428
 51
312.7525303818572
  0
ARC
  8
1
 62
7
 10
92.8685425764192
 20
154.723217895843
 30
0
 40
21.00000000000003
 50
47.72940263677869
 51
132.2705973632213
  0
ARC
  8
1
 62
7
 10
92.8685425764192
 20
154.723217895843
 30
0
 40
21.00000000000002
 50
317.7294026367787
 51
42.27059736322133
  0
ARC
  8
1
 62
7
 10
92.8685425764192
 20
154.723217895843
 30
0
 40
21.00000000000002
 50
227.7294026367787
 51
312.2705973632213
  0
ARC
  8
1
 62
7
 10
92.8685425764192
 20
154.723217895843
 30
0
 40
19.00000000000001
 50
48.01696130981602
 51
131.9830386901841
  0
ARC
  8
1
 62
7
 10
92.8685425764192
 20
154.723217895843
 30
0
 40
19.00000000000001
 50
318.0169613098161
 51
41.98303869018405
  0
ARC
  8
1
 62
7
 10
92.8685425764192
 20
154.723217895843
 30
0
 40
18.99999999999998
 50
228.0169613098161
 51
311.983038690184
  0
ARC
  8
1
 62
7
 10
92.8685425764192
 20
154.723217895843
 30
0
 40
14.50000000000003
 50
48.95457212209118
 51
131.0454278779093
  0
ARC
  8
1
 62
7
 10
92.8685425764192
 20
154.723217895843
 30
0
 40
14.50000000000002
 50
318.9545721220911
 51
41.04542787790921
  0
ARC
  8
1
 62
7
 10
92.8685425764192
 20
154.723217895843
 30
0
 40
14.50000000000003
 50
228.954572122091
 51
311.0454278779094
  0
ARC
  8
1
 62
7
 10
92.8685425764192
 20
154.723217895843
 30
0
 40
12.5
 50
49.58856573578583
 51
130.4114342642143
  0
ARC
  8
1
 62
7
 10
92.8685425764192
 20
154.723217895843
 30
0
 40
12.50000000000007
 50
319.5885657357862
 51
40.41143426421423
  0
ARC
  8
1
 62
7
 10
92.8685425764192
 20
154.723217895843
 30
0
 40
12.49999999999999
 50
229.5885657357859
 51
310.4114342642142
  0
ARC
  8
1
 62
7
 10
92.8685425764192
 20
154.723217895843
 30
0
 40
7.599999999999981
 50
52.56084317667219
 51
127.4391568233279
  0
ARC
  8
1
 62
7
 10
92.8685425764192
 20
154.723217895843
 30
0
 40
7.600000000000009
 50
322.5608431766726
 51
37.43915682332814
  0
ARC
  8
1
 62
7
 10
92.8685425764192
 20
154.723217895843
 30
0
 40
7.600000000000066
 50
232.5608431766724
 51
307.4391568233278
  0
ARC
  8
1
 62
7
 10
92.8685425764192
 20
154.723217895843
 30
0
 40
5.599999999999998
 50
55.28656061147523
 51
124.7134393885255
  0
ARC
  8
1
 62
7
 10
92.8685425764192
 20
154.723217895843
 30
0
 40
5.600000000000038
 50
325.2865606114752
 51
34.71343938852525
  0
ARC
  8
1
 62
7
 10
92.8685425764192
 20
154.723217895843
 30
0
 40
5.600000000000015
 50
235.286560611475
 51
304.7134393885252
  0
ARC
  8
1
 62
7
 10
92.8685425764192
 20
154.723217895843
 30
0
 40
74.30000000000001
 50
135.7711643263201
 51
224.2288356736799
  0
ARC
  8
1
 62
7
 10
92.8685425764192
 20
154.723217895843
 30
0
 40
72.30000000000003
 50
135.7924980150247
 51
224.2075019849753
  0
ARC
  8
1
 62
7
 10
92.8685425764192
 20
154.723217895843
 30
0
 40
65.50000000000006
 50
135.8747787108416
 51
224.1252212891584
  0
ARC
  8
1
 62
7
 10
92.8685425764192
 20
154.723217895843
 30
0
 40
67.5
 50
135.8488574161137
 51
224.1511425838863
  0
ARC
  8
1
 62
7
 10
92.8685425764192
 20
154.723217895843
 30
0
 40
61.00000000000001
 50
135.9393171499808
 51
224.0606828500192
  0
ARC
  8
1
 62
7
 10
92.8685425764192
 20
154.723217895843
 30
0
 40
59.00000000000004
 50
135.9711614089868
 51
224.0288385910132
  0
ARC
  8
1
 62
7
 10
92.8685425764192
 20
154.723217895843
 30
0
 40
52.49999999999999
 50
136.0914141843096
 51
223.9085858156904
  0
ARC
  8
1
 62
7
 10
92.8685425764192
 20
154.723217895843
 30
0
 40
54.50000000000003
 50
136.0513577060736
 51
223.9486422939264
  0
ARC
  8
1
 62
7
 10
92.8685425764192
 20
154.723217895843
 30
0
 40
48.00000000000004
 50
136.193748437141
 51
223.806251562859
  0
ARC
  8
1
 62
7
 10
92.8685425764192
 20
154.723217895843
 30
0
 40
45.99999999999999
 50
136.2456585515909
 51
223.7543414484092
  0
ARC
  8
1
 62
7
 10
92.8685425764192
 20
154.723217895843
 30
0
 40
40.99999999999999
 50
136.3975966282455
 51
223.6024033717546
  0
ARC
  8
1
 62
7
 10
92.8685425764192
 20
154.723217895843
 30
0
 40
39.00000000000001
 50
136.4692835813538
 51
223.5307164186463
  0
ARC
  8
1
 62
7
 10
92.8685425764192
 20
154.723217895843
 30
0
 40
34.00000000000002
 50
136.6854130402226
 51
223.3145869597774
  0
ARC
  8
1
 62
7
 10
92.8685425764192
 20
154.723217895843
 30
0
 40
31.99999999999999
 50
136.790784659329
 51
223.2092153406711
  0
ARC
  8
1
 62
7
 10
92.8685425764192
 20
154.723217895843
 30
0
 40
27.49999999999997
 50
137.0839423346083
 51
222.9160576653918
  0
ARC
  8
1
 62
7
 10
92.8685425764192
 20
154.723217895843
 30
0
 40
25.50000000000001
 50
137.2474696181428
 51
222.7525303818572
  0
ARC
  8
1
 62
7
 10
92.8685425764192
 20
154.723217895843
 30
0
 40
21.00000000000003
 50
137.7294026367786
 51
222.2705973632214
  0
ARC
  8
1
 62
7
 10
92.8685425764192
 20
154.723217895843
 30
0
 40
19.00000000000002
 50
138.0169613098159
 51
221.9830386901841
  0
ARC
  8
1
 62
7
 10
92.8685425764192
 20
154.723217895843
 30
0
 40
14.49999999999998
 50
138.954572122091
 51
221.0454278779094
  0
ARC
  8
1
 62
7
 10
92.8685425764192
 20
154.723217895843
 30
0
 40
12.50000000000002
 50
139.5885657357858
 51
220.4114342642141
  0
ARC
  8
1
 62
7
 10
92.8685425764192
 20
154.723217895843
 30
0
 40
5.600000000000019
 50
145.2865606114747
 51
214.7134393885253
  0
ARC
  8
1
 62
7
 10
92.8685425764192
 20
154.723217895843
 30
0
 40
7.599999999999993
 50
142.5608431766723
 51
217.4391568233284
  0
ARC
  8
1
 62
7
 10
146.0600178202502
 20
98.70331552726577
 30
0
 40
2.999999999999984
 50
313.5164483560747
 51
45.00000000000038
  0
ARC
  8
1
 62
7
 10
146.0600178202502
 20
98.70331552726577
 30
0
 40
0.9999999999999886
 50
313.5164483560735
 51
45.0000000000023
  0
ARC
  8
1
 62
7
 10
92.8685425764192
 20
154.723217895843
 30
0
 40
80.25000000000007
 50
226.4835516439247
 51
265.5928932630742
  0
ARC
  8
1
 62
7
 10
39.6770673325882
 20
98.70331552726577
 30
0
 40
2.999999999999985
 50
135
 51
226.483551643925
  0
ARC
  8
1
 62
7
 10
92.8685425764192
 20
154.723217895843
 30
0
 40
78.25000000000007
 50
226.4835516439247
 51
265.5928932630742
  0
ARC
  8
1
 62
7
 10
39.6770673325882
 20
98.70331552726577
 30
0
 40
0.9999999999999981
 50
134.9999999999994
 51
226.4835516439256
  0
ARC
  8
1
 62
7
 10
92.8685425764192
 20
73.72321789584294
 30
0
 40
2.400000000000005
 50
189.0509887452756
 51
350.9490112547244
  0
ARC
  8
1
 62
7
 10
86.54823067167095
 20
72.71641234028738
 30
0
 40
3.999999999999996
 50
9.050988745275337
 51
85.59289326307426
  0
ARC
  8
1
 62
7
 10
92.8685425764192
 20
73.72321789584294
 30
0
 40
4.399999999999996
 50
189.0509887452755
 51
350.9490112547245
  0
ARC
  8
1
 62
7
 10
86.54823067167095
 20
72.71641234028738
 30
0
 40
2.000000000000005
 50
9.050988745275301
 51
85.59289326307426
  0
ARC
  8
1
 62
7
 10
92.8685425764192
 20
154.723217895843
 30
0
 40
78.25000000000007
 50
274.4071067369258
 51
313.5164483560753
  0
ARC
  8
1
 62
7
 10
92.8685425764192
 20
73.72321789584294
 30
0
 40
2.400000000000005
 50
350.9490112547244
 51
0
  0
ARC
  8
1
 62
7
 10
99.18885448116745
 20
72.71641234028738
 30
0
 40
3.999999999999996
 50
94.40710673692574
 51
170.9490112547247
  0
ARC
  8
1
 62
7
 10
92.8685425764192
 20
154.723217895843
 30
0
 40
80.25000000000006
 50
274.4071067369258
 51
313.5164483560753
  0
ARC
  8
1
 62
7
 10
99.18885448116745
 20
72.71641234028738
 30
0
 40
1.999999999999998
 50
94.40710673692574
 51
170.9490112547247
  0
ARC
  8
1
 62
7
 10
146.0600178202502
 20
210.7431202644202
 30
0
 40
3.000000000000024
 50
314.9999999999985
 51
46.4835516439242
  0
ARC
  8
1
 62
7
 10
146.0600178202502
 20
210.7431202644202
 30
0
 40
1.000000000000008
 50
314.9999999999954
 51
46.48355164392424
  0
ARC
  8
1
 62
7
 10
92.8685425764192
 20
154.723217895843
 30
0
 40
80.25
 50
94.40710673692583
 51
133.5164483560753
  0
ARC
  8
1
 62
7
 10
39.6770673325882
 20
210.7431202644202
 30
0
 40
2.999999999999942
 50
133.5164483560762
 51
225.0000000000012
  0
ARC
  8
1
 62
7
 10
92.8685425764192
 20
154.723217895843
 30
0
 40
78.25000000000004
 50
94.40710673692583
 51
133.5164483560753
  0
ARC
  8
1
 62
7
 10
39.6770673325882
 20
210.7431202644202
 30
0
 40
0.999999999999962
 50
133.5164483560767
 51
225.0000000000029
  0
ARC
  8
1
 62
7
 10
92.8685425764192
 20
235.723217895843
 30
0
 40
2.400000000000001
 50
9.050988745274912
 51
170.9490112547251
  0
ARC
  8
1
 62
7
 10
86.54823067167095
 20
236.7300234513986
 30
0
 40
4.000000000000025
 50
274.4071067369257
 51
350.9490112547234
  0
ARC
  8
1
 62
7
 10
92.8685425764192
 20
235.723217895843
 30
0
 40
4.399999999999987
 50
9.050988745274752
 51
170.9490112547252
  0
ARC
  8
1
 62
7
 10
86.54823067167095
 20
236.7300234513986
 30
0
 40
2.000000000000055
 50
274.4071067369256
 51
350.9490112547215
  0
ARC
  8
1
 62
7
 10
92.8685425764192
 20
154.723217895843
 30
0
 40
78.25000000000001
 50
46.4835516439247
 51
85.59289326307417
  0
ARC
  8
1
 62
7
 10
92.8685425764192
 20
235.723217895843
 30
0
 40
2.400000000000006
 50
0
 51
9.050988745274912
  0
ARC
  8
1
 62
7
 10
99.18885448116745
 20
236.7300234513986
 30
0
 40
4.000000000000009
 50
189.0509887452765
 51
265.5928932630743
  0
ARC
  8
1
 62
7
 10
92.8685425764192
 20
154.723217895843
 30
0
 40
80.25
 50
46.48355164392468
 51
85.59289326307417
  0
ARC
  8
1
 62
7
 10
99.18885448116745
 20
236.7300234513986
 30
0
 40
2.000000000000023
 50
189.0509887452785
 51
265.5928932630744
  0
TEXT
  8
1
 62
2
 10
117.251075327511
 20
63.51448427138919
 30
0
 40
3.5
  1
FGARD172
 41
0.9
  0
ENDSEC
  0
EOF
