  0
SECTION
  2
HEADER
  9
$ACADVER
  1
AC1009
  9
$INSBASE
 10
0
 20
0
  9
$EXTMIN
 10
-124.5
 20
-24.5
  9
$EXTMAX
 10
122.0871149850459
 20
68.8672485348106
  9
$LIMMIN
 10
-124.5
 20
-24.5
  9
$LIMMAX
 10
122.0871149850459
 20
68.8672485348106
  9
$VIEWCTR
 10
10
 20
10
  9
$VIEWSIZE
 40
10
  9
$SNAPMODE
 70
0
  9
$SNAPUNIT
 10
1
 20
1
  9
$SNAPBASE
 10
0
 20
0
  9
$SNAPANG
 50
0
  9
$SNAPSTYLE
 70
0
  9
$SNAPISOPAIR
 70
0
  9
$GRIDMODE
 70
0
  9
$GRIDUNIT
 10
0
 20
0
  9
$ORTHOMODE
 70
0
  9
$REGENMODE
 70
1
  9
$FILLMODE
 70
1
  9
$QTEXTMODE
 70
0
  9
$DRAGMODE
 70
2
  9
$LTSCALE
 40
1
  9
$OSMODE
 70
0
  9
$ATTMODE
 70
1
  9
$TEXTSIZE
 40
3.5
  9
$TRACEWID
 40
0.5
  9
$TEXTSTYLE
  7
STANDARD
  9
$CLAYER
  8
0
  9
$CELTYPE
  6
BYLAYER
  9
$CECOLOR
 62
256
  9
$DIMSCALE
 40
1
  9
$DIMASZ
 40
0.18
  9
$DIMEXO
 40
0.0625
  9
$DIMDLI
 40
0.38
  9
$DIMRND
 40
0
  9
$DIMDLE
 40
0
  9
$DIMEXE
 40
0.18
  9
$DIMTP
 40
0
  9
$DIMTM
 40
0
  9
$DIMTXT
 40
0.18
  9
$DIMCEN
 40
0.09
  9
$DIMTSZ
 40
0
  9
$DIMTOL
 70
0
  9
$DIMLIM
 70
0
  9
$DIMTIH
 70
1
  9
$DIMTOH
 70
1
  9
$DIMSE1
 70
0
  9
$DIMSE2
 70
0
  9
$DIMTAD
 70
0
  9
$DIMZIN
 70
0
  9
$DIMBLK
  1

  9
$DIMASO
 70
1
  9
$DIMSHO
 70
1
  9
$DIMPOST
  1

  9
$DIMAPOST
  1

  9
$DIMALT
 70
0
  9
$DIMALTD
 70
2
  9
$DIMALTF
 40
25.4
  9
$DIMLFAC
 40
1
  9
$DIMTOFL
 70
0
  9
$DIMTVP
 40
0
  9
$DIMTIX
 70
0
  9
$DIMSOXD
 70
0
  9
$DIMSAH
 70
0
  9
$DIMBLK1
  1

  9
$DIMBLK2
  1

  9
$DIMSTYLE
  2
*UNNAMED
  9
$DIMCLRD
 70
0
  9
$DIMCLRE
 70
0
  9
$DIMCLRT
 70
0
  9
$DIMTFAC
 40
1
  9
$DIMGAP
 40
0.09
  9
$LUNITS
 70
2
  9
$LUPREC
 70
4
  9
$AXISMODE
 70
0
  9
$AXISUNIT
 10
0
 20
0
  9
$SKETCHINC
 40
0.1
  9
$FILLETRAD
 40
2
  9
$AUNITS
 70
0
  9
$AUPREC
 70
0
  9
$MENU
  1
ACAD
  9
$ELEVATION
 40
0
  9
$THICKNESS
 40
0
  9
$VIEWDIR
 10
0
 20
0
 30
1
  9
$LIMCHECK
 70
0
  9
$BLIPMODE
 70
1
  9
$CHAMFERA
 40
0
  9
$CHAMFERB
 40
0
  9
$FASTZOOM
 70
1
  9
$SKPOLY
 70
0
  9
$ANGBASE
 50
0
  9
$ANGDIR
 70
0
  9
$PDMODE
 70
0
  9
$PDSIZE
 40
0
  9
$PLINEWID
 40
0
  9
$COORDS
 70
2
  0
ENDSEC
  0
SECTION
  2
TABLES
  0
TABLE
  2
DIMSTYLE
 70
0
  0
ENDTAB
  0
TABLE
  2
LTYPE
 70
9
  0
LTYPE
  2
CONTINUOUS
 70
64
  3
Solid line
 72
65
 73
0
 40
0
  0
LTYPE
  2
BORDER
 70
64
  3
__ __ . __ __ .
 72
65
 73
6
 40
11.35598555852185
 49
3.244567302434815
 49
-1.622283651217407
 49
3.244567302434815
 49
-1.622283651217407
 49
0
 49
-1.622283651217407
  0
LTYPE
  2
CENTER
 70
64
  3
____ _ ____ _
 72
65
 73
4
 40
12.97826920973926
 49
8.111418256087037
 49
-1.622283651217407
 49
1.622283651217407
 49
-1.622283651217407
  0
LTYPE
  2
DASHDOT
 70
64
  3
__ . __ . __ .
 72
65
 73
4
 40
6.489134604869629
 49
3.244567302434815
 49
-1.622283651217407
 49
0
 49
-1.622283651217407
  0
LTYPE
  2
DASHED
 70
64
  3
__ __ __ __ __
 72
65
 73
2
 40
4.866850953652222
 49
3.244567302434815
 49
-1.622283651217407
  0
LTYPE
  2
DIVIDE
 70
64
  3
__ . . __ . . 
 72
65
 73
6
 40
8.111418256087037
 49
3.244567302434815
 49
-1.622283651217407
 49
0
 49
-1.622283651217407
 49
0
 49
-1.622283651217407
  0
LTYPE
  2
DOT
 70
64
  3
..............
 72
65
 73
4
 40
3.244567302434815
 49
0
 49
-1.622283651217407
 49
0
 49
-1.622283651217407
  0
LTYPE
  2
HIDDEN
 70
64
  3
_ _ _ _ _ _ _
 72
65
 73
2
 40
2.433425476826111
 49
1.622283651217407
 49
-0.8111418256087036
  0
LTYPE
  2
PHANTOM
 70
64
  3
_____ _ _ _____ _ _ 
 72
65
 73
6
 40
16.22283651217407
 49
8.111418256087037
 49
-1.622283651217407
 49
1.622283651217407
 49
-1.622283651217407
 49
1.622283651217407
 49
-1.622283651217407
  0
ENDTAB
  0
TABLE
  2
LAYER
 70
3
  0
LAYER
  2
1
 70
0
 62
7
  6
CONTINUOUS
  0
LAYER
  2
0
 70
0
 62
7
  6
CONTINUOUS
  0
ENDTAB
  0
TABLE
  2
STYLE
 70
4
  0
STYLE
  2
STANDARD
 70
0
 40
0
 41
1
 50
0
 71
0
 42
3.5
  3
txt
  4

  0
STYLE
  2
SIMPLEX
 70
0
 40
0
 41
1
 50
0
 71
0
 42
3.5
  3
simplex
  4

  0
STYLE
  2
COMPLEX
 70
0
 40
0
 41
1
 50
0
 71
0
 42
3.5
  3
complex
  4

  0
STYLE
  2
ITALIC
 70
0
 40
0
 41
1
 50
0
 71
0
 42
3.5
  3
italic
  4

  0
ENDTAB
  0
TABLE
  2
VIEW
 70
0
  0
ENDTAB
  0
ENDSEC
  0
SECTION
  2
BLOCKS
  0
ENDSEC
  0
SECTION
  2
ENTITIES
  0
POLYLINE
  8
1
 62
2
 66
1
  0
VERTEX
  8
1
 10
86.3477634318831
 20
-1.660000000000021
 30
0
 42
0.005242237567723474
  0
VERTEX
  8
1
 10
86.51447668139835
 20
-1.484775951925333
 30
0
 42
0.01714841413821974
  0
VERTEX
  8
1
 10
86.66664676742627
 20
-1.310122653060516
 30
0
 42
0.03390202050809936
  0
VERTEX
  8
1
 10
86.78973052647959
 20
-1.136610852615441
 30
0
 42
0.05996756665690961
  0
VERTEX
  8
1
 10
86.86918479507098
 20
-0.9648112997999789
 30
0
 42
0.09457323444279807
  0
VERTEX
  8
1
 10
86.8904664097131
 20
-0.7952947438240017
 30
0
 42
0.08501367003326761
  0
VERTEX
  8
1
 10
86.84879871852016
 20
-0.6376762746188074
 30
0
 42
0.04938818170592513
  0
VERTEX
  8
1
 10
86.7580743161973
 20
-0.4809668155035262
 30
0
 42
0.0239148850122471
  0
VERTEX
  8
1
 10
86.63391346168791
 20
-0.323537116608442
 30
0
 42
0.006290958371934883
  0
VERTEX
  8
1
 10
86.49193641393539
 20
-0.1637579280638387
 30
0
 42
-0.005899236995771598
  0
VERTEX
  8
1
 10
86.3477634318831
 20
0
 30
0
 42
-0.02175284297820506
  0
VERTEX
  8
1
 10
86.22370621413528
 20
0.1576910976468308
 30
0
 42
-0.02031018658741877
  0
VERTEX
  8
1
 10
86.11736879206038
 20
0.3191248842876402
 30
0
 42
-0.03762017696350391
  0
VERTEX
  8
1
 10
86.03474223691296
 20
0.4831443937136304
 30
0
 42
-0.04094631376568808
  0
VERTEX
  8
1
 10
85.98181761994763
 20
0.6485926597160034
 30
0
 42
-0.06215230223735446
  0
VERTEX
  8
1
 10
85.96458601241898
 20
0.8143127160859613
 30
0
 42
-0.05807845058524415
  0
VERTEX
  8
1
 10
85.98798405355652
 20
0.9845806883411793
 30
0
 42
-0.04090712517594253
  0
VERTEX
  8
1
 10
86.04687372319758
 20
1.154094983614786
 30
0
 42
-0.02620784398785063
  0
VERTEX
  8
1
 10
86.13238211421628
 20
1.323044021152185
 30
0
 42
-0.01432161089910413
  0
VERTEX
  8
1
 10
86.23563631948676
 20
1.491616220198778
 30
0
 42
-0.004627892300730372
  0
VERTEX
  8
1
 10
86.3477634318831
 20
1.659999999999968
 30
0
  0
SEQEND
  8
1
  0
POLYLINE
  8
1
 62
2
 66
1
  0
VERTEX
  8
1
 10
88.58514345019729
 20
-1.660000000000082
 30
0
 42
0.005242237567723474
  0
VERTEX
  8
1
 10
88.75185669971255
 20
-1.484775951925379
 30
0
 42
0.01714841413821486
  0
VERTEX
  8
1
 10
88.9040267857405
 20
-1.310122653060547
 30
0
 42
0.0339020205079871
  0
VERTEX
  8
1
 10
89.02711054479381
 20
-1.136610852615459
 30
0
 42
0.05996756665684499
  0
VERTEX
  8
1
 10
89.10656481338519
 20
-0.9648112997999867
 30
0
 42
0.0945732344430416
  0
VERTEX
  8
1
 10
89.1278464280273
 20
-0.7952947438240017
 30
0
 42
0.08501367003326325
  0
VERTEX
  8
1
 10
89.08617873683433
 20
-0.6376762746188107
 30
0
 42
0.04938818170599327
  0
VERTEX
  8
1
 10
88.99545433451148
 20
-0.4809668155035338
 30
0
 42
0.02391488501218533
  0
VERTEX
  8
1
 10
88.87129348000208
 20
-0.3235371166084521
 30
0
 42
0.006290958371930859
  0
VERTEX
  8
1
 10
88.72931643224956
 20
-0.163757928063847
 30
0
 42
-0.005899236995627707
  0
VERTEX
  8
1
 10
88.58514345019729
 20
0
 30
0
 42
-0.02175284297839733
  0
VERTEX
  8
1
 10
88.46108623244952
 20
0.1576910976468479
 30
0
 42
-0.02031018658724261
  0
VERTEX
  8
1
 10
88.35474881037466
 20
0.3191248842876802
 30
0
 42
-0.03762017696372582
  0
VERTEX
  8
1
 10
88.2721222552273
 20
0.4831443937136964
 30
0
 42
-0.04094631376547634
  0
VERTEX
  8
1
 10
88.21919763826203
 20
0.6485926597160967
 30
0
 42
-0.06215230223747884
  0
VERTEX
  8
1
 10
88.2019660307334
 20
0.8143127160860804
 30
0
 42
-0.05807845058502514
  0
VERTEX
  8
1
 10
88.22536407187094
 20
0.9845806883413013
 30
0
 42
-0.04090712517608532
  0
VERTEX
  8
1
 10
88.28425374151198
 20
1.154094983614908
 30
0
 42
-0.02620784398765287
  0
VERTEX
  8
1
 10
88.36976213253062
 20
1.323044021152305
 30
0
 42
-0.01432161089928469
  0
VERTEX
  8
1
 10
88.47301633780103
 20
1.491616220198894
 30
0
 42
-0.00462789230055784
  0
VERTEX
  8
1
 10
88.58514345019729
 20
1.66000000000008
 30
0
  0
SEQEND
  8
1
  0
LINE
  8
1
 62
3
 10
80.27394669805312
 20
1.659999999999968
 30
0
 11
86.3477634318831
 21
1.659999999999968
 31
0
  0
LINE
  8
1
 62
3
 10
80.79559716917015
 20
1.659999999999968
 30
0
 11
80.79559716917015
 21
-2.667939847309921
 31
0
  0
LINE
  8
1
 62
3
 10
83.29559716917015
 20
-2.667939847309921
 30
0
 11
83.29559716917015
 21
1.659999999999968
 31
0
  0
LINE
  8
1
 62
3
 10
80.03452267605007
 20
4.583731477860621
 30
0
 11
79.90570466838517
 21
1.872715535701388
 31
0
  0
LINE
  8
1
 62
3
 10
83.55723516286412
 20
5.060000000000059
 30
0
 11
80.53395917547596
 21
5.060000000000059
 31
0
  0
LINE
  8
1
 62
3
 10
84.185489669954
 20
1.872715535701388
 30
0
 11
84.05667166229
 21
4.583731477860621
 31
0
  0
LINE
  8
1
 62
3
 10
80.79559716917015
 20
-2.667939847309921
 30
0
 11
83.29559716917015
 21
-2.667939847309921
 31
0
  0
LINE
  8
1
 62
3
 10
70.5
 20
7.478504678941871
 30
0
 11
74.02956293441207
 21
7.478504678941871
 31
0
  0
LINE
  8
1
 62
3
 10
74.51903437114311
 20
7.278922217228001
 30
0
 11
78.81398915369414
 21
0.2851178024483296
 31
0
  0
LINE
  8
1
 62
3
 10
79.51323406331017
 20
0
 30
0
 11
80.79559716917015
 21
0
 31
0
  0
LINE
  8
1
 62
3
 10
70.5
 20
-7.478504678941929
 30
0
 11
74.02956293441207
 21
-7.478504678941929
 31
0
  0
LINE
  8
1
 62
3
 10
74.51903437114311
 20
-7.278922217228111
 30
0
 11
78.81398915369414
 21
-0.2851178024484398
 31
0
  0
LINE
  8
1
 62
3
 10
83.29559716917015
 20
0
 30
0
 11
86.3477634318831
 21
0
 31
0
  0
LINE
  8
1
 62
3
 10
83.29559716917015
 20
-1.660000000000021
 30
0
 11
86.3477634318831
 21
-1.660000000000021
 31
0
  0
LINE
  8
1
 62
3
 10
70.5
 20
9.138504678941899
 30
0
 11
74.43751528276812
 21
9.138504678941899
 31
0
  0
LINE
  8
1
 62
3
 10
75.82614829352497
 20
8.2056892709731
 30
0
 11
79.81106902780107
 21
1.970938469322959
 31
0
  0
LINE
  8
1
 62
3
 10
70.5
 20
-9.138504678941899
 30
0
 11
74.43751528276812
 21
-9.138504678941899
 31
0
  0
LINE
  8
1
 62
3
 10
75.82614829352497
 20
-8.205689270973149
 30
0
 11
79.81106902780107
 21
-1.970938469322899
 31
0
  0
LINE
  8
1
 62
3
 10
80.27394669805312
 20
-1.660000000000021
 30
0
 11
80.79559716917015
 21
-1.660000000000021
 31
0
  0
LINE
  8
1
 62
3
 10
44.5
 20
13.10000000000002
 30
0
 11
44.5
 21
-13.10000000000002
 31
0
  0
LINE
  8
1
 62
3
 10
61.5
 20
13.10000000000002
 30
0
 11
44.5
 21
13.10000000000002
 31
0
  0
LINE
  8
1
 62
3
 10
61.5
 20
-13.10000000000002
 30
0
 11
61.5
 21
13.10000000000002
 31
0
  0
LINE
  8
1
 62
3
 10
44.5
 20
-13.10000000000002
 30
0
 11
61.5
 21
-13.10000000000002
 31
0
  0
LINE
  8
1
 62
1
 10
-84.5
 20
-18
 30
0
 11
-80.25
 21
-18
 31
0
  0
LINE
  8
1
 62
1
 10
-82
 20
-15.5
 30
0
 11
-82
 21
-20.5
 31
0
  0
LINE
  8
1
 62
1
 10
-120.5
 20
-18
 30
0
 11
-115.5
 21
-18
 31
0
  0
LINE
  8
1
 62
1
 10
-118
 20
-15.5
 30
0
 11
-118
 21
-20.5
 31
0
  0
LINE
  8
1
 62
1
 10
-82
 20
20.5
 30
0
 11
-82
 21
15.5
 31
0
  0
LINE
  8
1
 62
1
 10
-84.5
 20
18
 30
0
 11
-79.49999999999994
 21
18
 31
0
  0
LINE
  8
1
 62
1
 10
-120.5
 20
18
 30
0
 11
-115.5
 21
18
 31
0
  0
LINE
  8
1
 62
1
 10
-118
 20
20.5
 30
0
 11
-118
 21
15.5
 31
0
  0
LINE
  8
1
 62
1
 10
-108.2867258072389
 20
7
 30
0
 11
-91.84920070903468
 21
7
 31
0
  0
LINE
  8
1
 62
3
 10
-101.5139022425509
 20
9.590000000000032
 30
0
 11
-98.48609775744922
 21
9.590000000000032
 31
0
  0
LINE
  8
1
 62
3
 10
-118
 20
-21.5
 30
0
 11
-82
 21
-21.5
 31
0
  0
LINE
  8
1
 62
3
 10
-78.5
 20
-18
 30
0
 11
-78.5
 21
18
 31
0
  0
LINE
  8
1
 62
3
 10
-82
 20
21.5
 30
0
 11
-118
 21
21.5
 31
0
  0
LINE
  8
1
 62
3
 10
-121.4999999999999
 20
18
 30
0
 11
-121.4999999999999
 21
-18
 31
0
  0
LINE
  8
1
 62
1
 10
-124.5
 20
0
 30
0
 11
-75.5
 21
0
 31
0
  0
LINE
  8
1
 62
1
 10
-100
 20
-24.5
 30
0
 11
-100
 21
24.5
 31
0
  0
LINE
  8
1
 62
3
 10
7.200000000000045
 20
21.5
 30
0
 11
8.199999999999932
 21
21.5
 31
0
  0
LINE
  8
1
 62
3
 10
-14.99999999999997
 20
4
 30
0
 11
2.842170943040401e-014
 21
4
 31
0
  0
LINE
  8
1
 62
3
 10
-14.99999999999997
 20
9.5
 30
0
 11
-14.99999999999997
 21
4
 31
0
  0
LINE
  8
1
 62
3
 10
2.842170943040401e-014
 20
10
 30
0
 11
-2.999999999999972
 21
10
 31
0
  0
LINE
  8
1
 62
3
 10
-2.999999999999972
 20
9.5
 30
0
 11
-14.99999999999997
 21
9.5
 31
0
  0
LINE
  8
1
 62
3
 10
-2.999999999999972
 20
10
 30
0
 11
-2.999999999999972
 21
9.5
 31
0
  0
LINE
  8
1
 62
3
 10
0
 20
1
 30
0
 11
7.200000000000074
 21
1
 31
0
  0
LINE
  8
1
 62
3
 10
0
 20
13
 30
0
 11
0
 21
1
 31
0
  0
LINE
  8
1
 62
3
 10
7.200000000000045
 20
13
 30
0
 11
0
 21
13
 31
0
  0
LINE
  8
1
 62
3
 10
8.199999999999932
 20
18.5
 30
0
 11
32.70000000000005
 21
18.5
 31
0
  0
LINE
  8
1
 62
3
 10
8.19999999999996
 20
-18.5
 30
0
 11
32.70000000000005
 21
-18.5
 31
0
  0
LINE
  8
1
 62
1
 10
-80.25
 20
-18
 30
0
 11
-79.49999999999994
 21
-18
 31
0
  0
LINE
  8
1
 62
3
 10
-112.6372721654419
 20
7.411602540378567
 30
0
 11
-112.7372721654419
 21
7.238397459621808
 31
0
  0
LINE
  8
1
 62
3
 10
-112.9153810567665
 20
7.629903810567782
 30
0
 11
-112.6555734356311
 21
7.479903810567862
 31
0
  0
LINE
  8
1
 62
3
 10
-112.8934899480911
 20
8.367820323027786
 30
0
 11
-113.0434899480912
 21
8.108012701892392
 31
0
  0
LINE
  8
1
 62
3
 10
-113.0849962990371
 20
8.53612159321699
 30
0
 11
-112.9117912182803
 21
8.436121593216967
 31
0
  0
LINE
  8
1
 62
3
 10
-113.3032975692264
 20
8.258012701892426
 30
0
 11
-113.1532975692264
 21
8.517820323027763
 31
0
  0
LINE
  8
1
 62
3
 10
-114.0412140816862
 20
8.279903810567816
 30
0
 11
-113.7814064605509
 21
8.129903810567782
 31
0
  0
LINE
  8
1
 62
3
 10
-114.2095153518756
 20
8.088397459621774
 30
0
 11
-114.1095153518755
 21
8.26160254037859
 31
0
  0
LINE
  8
1
 62
3
 10
-113.9314064605509
 20
7.870096189432616
 30
0
 11
-114.1912140816862
 21
8.020096189432593
 31
0
  0
LINE
  8
1
 62
3
 10
-113.9532975692265
 20
7.132179676972555
 30
0
 11
-113.8032975692264
 21
7.391987298108006
 31
0
  0
LINE
  8
1
 62
3
 10
-113.7617912182803
 20
6.963878406783465
 30
0
 11
-113.9349962990372
 21
7.063878406783374
 31
0
  0
LINE
  8
1
 62
3
 10
-113.5434899480912
 20
7.241987298107972
 30
0
 11
-113.6934899480912
 21
6.982179676972578
 31
0
  0
LINE
  8
1
 62
3
 10
-112.8055734356311
 20
7.220096189432525
 30
0
 11
-113.0653810567665
 21
7.370096189432616
 31
0
  0
LINE
  8
1
 62
1
 10
-111.69134295109
 20
6.75
 30
0
 11
-115.1554445662277
 21
8.75
 31
0
  0
LINE
  8
1
 62
3
 10
-100.1000000000003
 20
-14.65000000000003
 30
0
 11
-99.90000000000032
 21
-14.65000000000003
 31
0
  0
LINE
  8
1
 62
3
 10
-100.1500000000001
 20
-15
 30
0
 11
-100.1500000000003
 21
-14.70000000000005
 31
0
  0
LINE
  8
1
 62
3
 10
-100.8000000000002
 20
-15.35000000000014
 30
0
 11
-100.5000000000002
 21
-15.35000000000014
 31
0
  0
LINE
  8
1
 62
3
 10
-100.8500000000003
 20
-15.59999999999997
 30
0
 11
-100.8500000000003
 21
-15.40000000000009
 31
0
  0
LINE
  8
1
 62
3
 10
-100.5000000000002
 20
-15.65000000000003
 30
0
 11
-100.8000000000002
 21
-15.65000000000009
 31
0
  0
LINE
  8
1
 62
3
 10
-100.1500000000002
 20
-16.30000000000001
 30
0
 11
-100.1500000000001
 21
-16
 31
0
  0
LINE
  8
1
 62
3
 10
-99.90000000000021
 20
-16.34999999999997
 30
0
 11
-100.1000000000001
 21
-16.34999999999997
 31
0
  0
LINE
  8
1
 62
3
 10
-99.85000000000036
 20
-16
 30
0
 11
-99.85000000000036
 21
-16.30000000000001
 31
0
  0
LINE
  8
1
 62
3
 10
-99.20000000000016
 20
-15.65000000000003
 30
0
 11
-99.50000000000023
 21
-15.65000000000003
 31
0
  0
LINE
  8
1
 62
3
 10
-99.15000000000032
 20
-15.40000000000009
 30
0
 11
-99.15000000000021
 21
-15.59999999999991
 31
0
  0
LINE
  8
1
 62
3
 10
-99.50000000000023
 20
-15.35000000000014
 30
0
 11
-99.20000000000016
 21
-15.34999999999997
 31
0
  0
LINE
  8
1
 62
3
 10
-99.85000000000025
 20
-14.70000000000005
 30
0
 11
-99.85000000000036
 21
-15
 31
0
  0
LINE
  8
1
 62
3
 10
-87.26272783455795
 20
7.23839745962141
 30
0
 11
-87.36272783455786
 21
7.411602540378226
 31
0
  0
LINE
  8
1
 62
3
 10
-86.93461894323332
 20
7.370096189432275
 30
0
 11
-87.19442656436866
 21
7.22009618943207
 31
0
  0
LINE
  8
1
 62
3
 10
-86.30651005190873
 20
6.982179676972294
 30
0
 11
-86.45651005190871
 21
7.241987298107688
 31
0
  0
LINE
  8
1
 62
3
 10
-86.06500370096262
 20
7.06387840678309
 30
0
 11
-86.23820878171944
 21
6.963878406783124
 31
0
  0
LINE
  8
1
 62
3
 10
-86.19670243077337
 20
7.391987298107608
 30
0
 11
-86.04670243077328
 21
7.132179676972328
 31
0
  0
LINE
  8
1
 62
3
 10
-85.80878591831367
 20
8.020096189432195
 30
0
 11
-86.0685935394489
 21
7.870096189432161
 31
0
  0
LINE
  8
1
 62
3
 10
-85.89048464812436
 20
8.261602540378306
 30
0
 11
-85.79048464812433
 21
8.08839745962149
 31
0
  0
LINE
  8
1
 62
3
 10
-86.21859353944876
 20
8.129903810567498
 30
0
 11
-85.95878591831354
 21
8.279903810567362
 31
0
  0
LINE
  8
1
 62
3
 10
-86.84670243077346
 20
8.517820323027536
 30
0
 11
-86.69670243077337
 21
8.258012701892085
 31
0
  0
LINE
  8
1
 62
3
 10
-87.08820878171946
 20
8.436121593216626
 30
0
 11
-86.91500370096276
 21
8.536121593216592
 31
0
  0
LINE
  8
1
 62
3
 10
-86.95651005190871
 20
8.108012701892108
 30
0
 11
-87.1065100519088
 21
8.367820323027502
 31
0
  0
LINE
  8
1
 62
3
 10
-87.34442656436863
 20
7.479903810567521
 30
0
 11
-87.0846189432333
 21
7.629903810567384
 31
0
  0
LINE
  8
1
 62
1
 10
-88.30865704891016
 20
6.75
 30
0
 11
-84.84455543377237
 21
8.75
 31
0
  0
LINE
  8
1
 62
1
 10
-18
 20
7
 30
0
 11
11.19999999999993
 21
7
 31
0
  0
LINE
  8
1
 62
3
 10
33.70000000000005
 20
-17.5
 30
0
 11
33.70000000000005
 21
17.5
 31
0
  0
LINE
  8
1
 62
3
 10
8.199999999999932
 20
21.5
 30
0
 11
8.199999999999932
 21
-21.5
 31
0
  0
LINE
  8
1
 62
3
 10
7.200000000000045
 20
21.5
 30
0
 11
7.200000000000045
 21
-21.5
 31
0
  0
LINE
  8
1
 62
3
 10
7.200000000000045
 20
-21.5
 30
0
 11
8.199999999999932
 21
-21.5
 31
0
  0
LINE
  8
1
 62
3
 10
37
 20
-17
 30
0
 11
70.5
 21
-17
 31
0
  0
LINE
  8
1
 62
3
 10
37
 20
17.00000000000011
 30
0
 11
70.5
 21
17.00000000000011
 31
0
  0
LINE
  8
1
 62
3
 10
35.5
 20
15.50000000000011
 30
0
 11
35.5
 21
-15.5
 31
0
  0
LINE
  8
1
 62
3
 10
88.58514345019729
 20
0
 30
0
 11
119.0871149850459
 21
0
 31
0
  0
LINE
  8
1
 62
3
 10
70.5
 20
17.00000000000011
 30
0
 11
70.5
 21
-17
 31
0
  0
LINE
  8
1
 62
3
 10
119.0871149850459
 20
1.66000000000008
 30
0
 11
119.0871149850459
 21
-1.660000000000082
 31
0
  0
LINE
  8
1
 62
3
 10
119.0871149850459
 20
1.100000000000019
 30
0
 11
122.0871149850459
 21
1.100000000000019
 31
0
  0
LINE
  8
1
 62
3
 10
119.0871149850459
 20
0.3999999999999808
 30
0
 11
122.0871149850459
 21
0.3999999999999808
 31
0
  0
LINE
  8
1
 62
3
 10
119.0871149850459
 20
-0.3999999999999808
 30
0
 11
122.0871149850459
 21
-0.3999999999999808
 31
0
  0
LINE
  8
1
 62
3
 10
119.0871149850459
 20
-1.100000000000023
 30
0
 11
122.0871149850459
 21
-1.100000000000023
 31
0
  0
LINE
  8
1
 62
3
 10
88.58514345019729
 20
1.66000000000008
 30
0
 11
119.0871149850459
 21
1.66000000000008
 31
0
  0
LINE
  8
1
 62
3
 10
88.58514345019729
 20
-1.660000000000082
 30
0
 11
119.0871149850459
 21
-1.660000000000082
 31
0
  0
LINE
  8
1
 62
3
 10
71.34511721223532
 20
4.21505948911442
 30
0
 11
70.5
 21
4.606399233376351
 31
0
  0
LINE
  8
1
 62
3
 10
72.10000000000002
 20
-3.245566037735898
 30
0
 11
72.10000000000002
 21
3.2455660377359
 31
0
  0
LINE
  8
1
 62
3
 10
71.34511721223532
 20
-4.215059489114537
 30
0
 11
70.5
 21
-4.606399233376351
 31
0
  0
LINE
  8
1
 62
1
 10
5.716521878360986
 20
0
 30
0
 11
74.89458842742707
 21
0
 31
0
  0
ARC
  8
1
 62
3
 10
80.10530004696898
 20
1.86000000000001
 30
0
 40
0.2000000000004669
 50
176.3548088145813
 51
192.3470653506601
  0
ARC
  8
1
 62
3
 10
83.55723516286412
 20
4.560000000000059
 30
0
 40
0.5000000000002265
 50
2.720449105930216
 51
90
  0
ARC
  8
1
 62
3
 10
80.53395917547596
 20
4.560000000000059
 30
0
 40
0.5
 50
90
 51
177.2795508940698
  0
ARC
  8
1
 62
3
 10
83.9858942913711
 20
1.86000000000001
 30
0
 40
0.2000000000000421
 50
270
 51
3.645191185435308
  0
ARC
  8
1
 62
3
 10
79.51323406331017
 20
-1
 30
0
 40
1
 50
90
 51
134.3664543436558
  0
ARC
  8
1
 62
3
 10
79.51323406331017
 20
1
 30
0
 40
1.000000000000116
 50
225.6335456563487
 51
270
  0
ARC
  8
1
 62
3
 10
74.02956293441207
 20
-6.778504678941889
 30
0
 40
0.7000000000000402
 50
270
 51
314.3664543436377
  0
ARC
  8
1
 62
3
 10
74.02956293441207
 20
6.778504678941768
 30
0
 40
0.6999999999999993
 50
45.63354565636294
 51
90
  0
ARC
  8
1
 62
3
 10
74.43751528276812
 20
7.638504678941899
 30
0
 40
1.50000000000041
 50
22.21746912181925
 51
90
  0
ARC
  8
1
 62
3
 10
74.43751528276812
 20
-7.638504678941899
 30
0
 40
1.5
 50
270
 51
337.7825308781789
  0
ARC
  8
1
 62
3
 10
80.27394669805312
 20
-2.160000000000021
 30
0
 40
0.5
 50
90
 51
157.7825308781651
  0
ARC
  8
1
 62
3
 10
80.27394669805312
 20
2.159999999999968
 30
0
 40
0.4999999999999042
 50
202.217469121823
 51
270
  0
ARC
  8
1
 62
3
 10
-118
 20
-18
 30
0
 40
3.499999999999901
 50
180
 51
270
  0
ARC
  8
1
 62
3
 10
-118
 20
18
 30
0
 40
3.5
 50
90
 51
180
  0
ARC
  8
1
 62
3
 10
-82
 20
18
 30
0
 40
3.5
 50
0
 51
90
  0
ARC
  8
1
 62
3
 10
-82
 20
-18
 30
0
 40
3.5
 50
270
 51
0
  0
ARC
  8
1
 62
3
 10
-112.7805734356311
 20
7.263397459621729
 30
0
 40
0.04999999999998725
 50
239.9999999999841
 51
330.0000000000687
  0
ARC
  8
1
 62
3
 10
-112.6805734356312
 20
7.436602540378487
 30
0
 40
0.05000000000003033
 50
330.0000000001265
 51
59.99999999998355
  0
ARC
  8
1
 62
3
 10
-113.1099962990371
 20
8.492820323027786
 30
0
 40
0.04999999999998725
 50
59.99999999998405
 51
150.0000000000611
  0
ARC
  8
1
 62
3
 10
-112.9367912182803
 20
8.392820323027763
 30
0
 40
0.04999999999997304
 50
330.0000000000123
 51
59.99999999998405
  0
ARC
  8
1
 62
3
 10
-114.0662140816863
 20
8.236602540378613
 30
0
 40
0.05000000000002988
 50
59.99999999989943
 51
150.0000000000123
  0
ARC
  8
1
 62
3
 10
-114.1662140816862
 20
8.063397459621797
 30
0
 40
0.05000000000013304
 50
150.0000000001181
 51
239.9999999999981
  0
ARC
  8
1
 62
3
 10
-113.9099962990371
 20
7.107179676972578
 30
0
 40
0.05000000000014534
 50
150.0000000001263
 51
239.9999999998994
  0
ARC
  8
1
 62
3
 10
-113.7367912182804
 20
7.007179676972669
 30
0
 40
0.04999999999993041
 50
240.0000000000969
 51
329.9999999998994
  0
ARC
  8
1
 62
3
 10
-113.2403810567665
 20
7.066987298107961
 30
0
 40
0.3500000000000864
 50
60.0000000000087
 51
150.0000000000113
  0
ARC
  8
1
 62
3
 10
-112.7403810567665
 20
7.93301270189238
 30
0
 40
0.3500000000001427
 50
150.0000000000113
 51
240.000000000002
  0
ARC
  8
1
 62
3
 10
-113.6064064605509
 20
8.43301270189238
 30
0
 40
0.3500000000000371
 50
240.0000000000041
 51
330.000000000002
  0
ARC
  8
1
 62
3
 10
-114.1064064605509
 20
7.566987298107961
 30
0
 40
0.3499999999999297
 50
330.000000000002
 51
60.0000000000087
  0
ARC
  8
1
 62
3
 10
-99.90000000000021
 20
-14.69999999999987
 30
0
 40
0.04999999999995453
 50
359.9999999997924
 51
90
  0
ARC
  8
1
 62
3
 10
-100.1
 20
-14.70000000000005
 30
0
 40
0.05000000000002025
 50
90
 51
180
  0
ARC
  8
1
 62
3
 10
-100.8000000000002
 20
-15.59999999999997
 30
0
 40
0.05000000000011085
 50
180
 51
270
  0
ARC
  8
1
 62
3
 10
-100.8000000000002
 20
-15.40000000000009
 30
0
 40
0.0499999999999492
 50
90
 51
180
  0
ARC
  8
1
 62
3
 10
-100.1000000000001
 20
-16.30000000000001
 30
0
 40
0.05000000000011085
 50
180
 51
270
  0
ARC
  8
1
 62
3
 10
-99.90000000000021
 20
-16.30000000000001
 30
0
 40
0.04999999999995808
 50
270
 51
0
  0
ARC
  8
1
 62
3
 10
-99.20000000000016
 20
-15.59999999999991
 30
0
 40
0.05000000000011973
 50
270
 51
0
  0
ARC
  8
1
 62
3
 10
-99.20000000000027
 20
-15.40000000000009
 30
0
 40
0.04999999999995453
 50
0
 51
90
  0
ARC
  8
1
 62
3
 10
-99.50000000000023
 20
-15
 30
0
 40
0.3500000000001364
 50
180
 51
270
  0
ARC
  8
1
 62
3
 10
-100.5000000000002
 20
-15
 30
0
 40
0.35000000000014
 50
270
 51
0
  0
ARC
  8
1
 62
3
 10
-100.5000000000003
 20
-16
 30
0
 40
0.3500000000001933
 50
0
 51
90
  0
ARC
  8
1
 62
3
 10
-99.50000000000034
 20
-16
 30
0
 40
0.3499999999999695
 50
90
 51
180
  0
ARC
  8
1
 62
3
 10
-87.31942656436877
 20
7.43660254037826
 30
0
 40
0.04999999999996543
 50
119.9999999998424
 51
210.0000000001093
  0
ARC
  8
1
 62
3
 10
-87.21942656436875
 20
7.263397459621501
 30
0
 40
0.05000000000002988
 50
210.0000000001006
 51
299.9999999999703
  0
ARC
  8
1
 62
3
 10
-86.0900037009626
 20
7.107179676972294
 30
0
 40
0.04999999999997304
 50
299.9999999999878
 51
29.99999999997903
  0
ARC
  8
1
 62
3
 10
-86.26320878171953
 20
7.007179676972328
 30
0
 40
0.05000000000000146
 50
210.0000000000442
 51
300.0000000001006
  0
ARC
  8
1
 62
3
 10
-85.83378591831354
 20
8.063397459621456
 30
0
 40
0.04999999999996543
 50
299.9999999998424
 51
30.00000000004416
  0
ARC
  8
1
 62
3
 10
-85.93378591831356
 20
8.236602540378158
 30
0
 40
0.05000000000005832
 50
30.00000000015698
 51
119.9999999999878
  0
ARC
  8
1
 62
3
 10
-86.89000370096267
 20
8.492820323027388
 30
0
 40
0.05000000000005832
 50
30.00000000015698
 51
120.0000000001006
  0
ARC
  8
1
 62
3
 10
-87.06320878171948
 20
8.392820323027422
 30
0
 40
0.04999999999997304
 50
119.9999999999878
 51
209.9999999998662
  0
ARC
  8
1
 62
3
 10
-87.25961894323325
 20
7.933012701892096
 30
0
 40
0.3500000000001143
 50
299.9999999999806
 51
30.00000000000262
  0
ARC
  8
1
 62
3
 10
-86.75961894323336
 20
7.066987298107733
 30
0
 40
0.3500000000000651
 50
29.99999999998526
 51
119.9999999999945
  0
ARC
  8
1
 62
3
 10
-85.89359353944894
 20
7.56698729810762
 30
0
 40
0.3499999999999666
 50
119.9999999999945
 51
210.0000000000119
  0
ARC
  8
1
 62
3
 10
-86.39359353944883
 20
8.433012701891983
 30
0
 40
0.3499999999999382
 50
209.9999999999865
 51
300.0000000000154
  0
ARC
  8
1
 62
3
 10
32.70000000000005
 20
-17.5
 30
0
 40
1
 50
270
 51
0
  0
ARC
  8
1
 62
3
 10
32.70000000000005
 20
17.5
 30
0
 40
1
 50
0
 51
90
  0
ARC
  8
1
 62
3
 10
33.70000000000005
 20
-15.20000000000002
 30
0
 40
1.799999999999979
 50
270
 51
0
  0
ARC
  8
1
 62
3
 10
33.70000000000005
 20
12.19999999999999
 30
0
 40
1.799999999999947
 50
0
 51
90
  0
ARC
  8
1
 62
3
 10
37
 20
-15.5
 30
0
 40
1.5
 50
180
 51
270
  0
ARC
  8
1
 62
3
 10
37
 20
15.50000000000011
 30
0
 40
1.5
 50
90
 51
180
  0
ARC
  8
1
 62
3
 10
71.10000000000002
 20
3.2455660377359
 30
0
 40
1
 50
0
 51
75.81123928935158
  0
ARC
  8
1
 62
3
 10
71.10000000000002
 20
-3.245566037735898
 30
0
 40
1.000000000000036
 50
284.1887607106467
 51
0
  0
ARC
  8
1
 62
3
 10
-100
 20
7
 30
0
 40
6
 50
180
 51
0
  0
ARC
  8
1
 62
3
 10
-100
 20
7
 30
0
 40
6
 50
0
 51
180
  0
ARC
  8
1
 62
1
  6
CENTER
 10
-100
 20
0
 30
0
 40
15.50000000000001
 50
142.6018578736698
 51
157.3981421263301
  0
ARC
  8
1
 62
1
  6
CENTER
 10
-100
 20
0
 30
0
 40
15.50000000000006
 50
262.6018578736699
 51
277.3981421263302
  0
ARC
  8
1
 62
1
  6
CENTER
 10
-100
 20
0
 30
0
 40
15.49999999999995
 50
22.60185787366996
 51
37.39814212633033
  0
CIRCLE
  8
1
 62
3
 10
-100
 20
7
 30
0
 40
3
  0
CIRCLE
  8
1
 62
3
 10
-100
 20
0
 30
0
 40
18
  0
CIRCLE
  8
1
 62
3
 10
-82
 20
-18
 30
0
 40
1.75
  0
CIRCLE
  8
1
 62
3
 10
-82
 20
18
 30
0
 40
1.75
  0
CIRCLE
  8
1
 62
3
 10
-118
 20
18
 30
0
 40
1.75
  0
CIRCLE
  8
1
 62
3
 10
-118
 20
-18
 30
0
 40
1.75
  0
CIRCLE
  8
1
 62
3
 10
-113.4233937586588
 20
7.75
 30
0
 40
1.5
  0
CIRCLE
  8
1
 62
3
 10
-100
 20
-15.5
 30
0
 40
1.499999999999929
  0
CIRCLE
  8
1
 62
3
 10
-86.57660624134121
 20
7.75
 30
0
 40
1.500000000000028
  0
TEXT
  8
1
 62
2
 10
-135.8056146229162
 20
63.8672485348106
 30
0
 40
5
  1
ＤＭＥ３４Ｂ４３Ｇ４００Ａ～ＤＭＥ３４Ｂ４３Ｇ６００Ａ
 41
0.891
  0
TEXT
  8
1
 62
2
 10
-135.8056146229162
 20
55.1172485348106
 30
0
 40
5
  1
ＤＭＥ３４Ｂ４３Ｇ４００Ｂ～ＤＭＥ３４Ｂ４３Ｇ６００Ｂ
 41
0.891
  0
ENDSEC
  0
EOF
