  0
SECTION
  2
HEADER
  9
$ACADVER
  1
AC1009
  9
$INSBASE
 10
0
 20
0
  9
$EXTMIN
 10
-124.5
 20
-24.5
  9
$EXTMAX
 10
109.7580181544052
 20
71.3222864707045
  9
$LIMMIN
 10
-124.5
 20
-24.5
  9
$LIMMAX
 10
109.7580181544052
 20
71.3222864707045
  9
$VIEWCTR
 10
10
 20
10
  9
$VIEWSIZE
 40
10
  9
$SNAPMODE
 70
0
  9
$SNAPUNIT
 10
1
 20
1
  9
$SNAPBASE
 10
0
 20
0
  9
$SNAPANG
 50
0
  9
$SNAPSTYLE
 70
0
  9
$SNAPISOPAIR
 70
0
  9
$GRIDMODE
 70
0
  9
$GRIDUNIT
 10
0
 20
0
  9
$ORTHOMODE
 70
0
  9
$REGENMODE
 70
1
  9
$FILLMODE
 70
1
  9
$QTEXTMODE
 70
0
  9
$DRAGMODE
 70
2
  9
$LTSCALE
 40
1
  9
$OSMODE
 70
0
  9
$ATTMODE
 70
1
  9
$TEXTSIZE
 40
3.5
  9
$TRACEWID
 40
0.5
  9
$TEXTSTYLE
  7
STANDARD
  9
$CLAYER
  8
0
  9
$CELTYPE
  6
BYLAYER
  9
$CECOLOR
 62
256
  9
$DIMSCALE
 40
1
  9
$DIMASZ
 40
0.18
  9
$DIMEXO
 40
0.0625
  9
$DIMDLI
 40
0.38
  9
$DIMRND
 40
0
  9
$DIMDLE
 40
0
  9
$DIMEXE
 40
0.18
  9
$DIMTP
 40
0
  9
$DIMTM
 40
0
  9
$DIMTXT
 40
0.18
  9
$DIMCEN
 40
0.09
  9
$DIMTSZ
 40
0
  9
$DIMTOL
 70
0
  9
$DIMLIM
 70
0
  9
$DIMTIH
 70
1
  9
$DIMTOH
 70
1
  9
$DIMSE1
 70
0
  9
$DIMSE2
 70
0
  9
$DIMTAD
 70
0
  9
$DIMZIN
 70
0
  9
$DIMBLK
  1

  9
$DIMASO
 70
1
  9
$DIMSHO
 70
1
  9
$DIMPOST
  1

  9
$DIMAPOST
  1

  9
$DIMALT
 70
0
  9
$DIMALTD
 70
2
  9
$DIMALTF
 40
25.4
  9
$DIMLFAC
 40
1
  9
$DIMTOFL
 70
0
  9
$DIMTVP
 40
0
  9
$DIMTIX
 70
0
  9
$DIMSOXD
 70
0
  9
$DIMSAH
 70
0
  9
$DIMBLK1
  1

  9
$DIMBLK2
  1

  9
$DIMSTYLE
  2
*UNNAMED
  9
$DIMCLRD
 70
0
  9
$DIMCLRE
 70
0
  9
$DIMCLRT
 70
0
  9
$DIMTFAC
 40
1
  9
$DIMGAP
 40
0.09
  9
$LUNITS
 70
2
  9
$LUPREC
 70
4
  9
$AXISMODE
 70
0
  9
$AXISUNIT
 10
0
 20
0
  9
$SKETCHINC
 40
0.1
  9
$FILLETRAD
 40
2
  9
$AUNITS
 70
0
  9
$AUPREC
 70
0
  9
$MENU
  1
ACAD
  9
$ELEVATION
 40
0
  9
$THICKNESS
 40
0
  9
$VIEWDIR
 10
0
 20
0
 30
1
  9
$LIMCHECK
 70
0
  9
$BLIPMODE
 70
1
  9
$CHAMFERA
 40
0
  9
$CHAMFERB
 40
0
  9
$FASTZOOM
 70
1
  9
$SKPOLY
 70
0
  9
$ANGBASE
 50
0
  9
$ANGDIR
 70
0
  9
$PDMODE
 70
0
  9
$PDSIZE
 40
0
  9
$PLINEWID
 40
0
  9
$COORDS
 70
2
  0
ENDSEC
  0
SECTION
  2
TABLES
  0
TABLE
  2
DIMSTYLE
 70
0
  0
ENDTAB
  0
TABLE
  2
LTYPE
 70
9
  0
LTYPE
  2
CONTINUOUS
 70
64
  3
Solid line
 72
65
 73
0
 40
0
  0
LTYPE
  2
BORDER
 70
64
  3
__ __ . __ __ .
 72
65
 73
6
 40
10.78819820447919
 49
3.08234234413691
 49
-1.541171172068455
 49
3.08234234413691
 49
-1.541171172068455
 49
0
 49
-1.541171172068455
  0
LTYPE
  2
CENTER
 70
64
  3
____ _ ____ _
 72
65
 73
4
 40
12.32936937654764
 49
7.705855860342275
 49
-1.541171172068455
 49
1.541171172068455
 49
-1.541171172068455
  0
LTYPE
  2
DASHDOT
 70
64
  3
__ . __ . __ .
 72
65
 73
4
 40
6.16468468827382
 49
3.08234234413691
 49
-1.541171172068455
 49
0
 49
-1.541171172068455
  0
LTYPE
  2
DASHED
 70
64
  3
__ __ __ __ __
 72
65
 73
2
 40
4.623513516205366
 49
3.08234234413691
 49
-1.541171172068455
  0
LTYPE
  2
DIVIDE
 70
64
  3
__ . . __ . . 
 72
65
 73
6
 40
7.705855860342275
 49
3.08234234413691
 49
-1.541171172068455
 49
0
 49
-1.541171172068455
 49
0
 49
-1.541171172068455
  0
LTYPE
  2
DOT
 70
64
  3
..............
 72
65
 73
4
 40
3.08234234413691
 49
0
 49
-1.541171172068455
 49
0
 49
-1.541171172068455
  0
LTYPE
  2
HIDDEN
 70
64
  3
_ _ _ _ _ _ _
 72
65
 73
2
 40
2.311756758102683
 49
1.541171172068455
 49
-0.7705855860342276
  0
LTYPE
  2
PHANTOM
 70
64
  3
_____ _ _ _____ _ _ 
 72
65
 73
6
 40
15.41171172068455
 49
7.705855860342275
 49
-1.541171172068455
 49
1.541171172068455
 49
-1.541171172068455
 49
1.541171172068455
 49
-1.541171172068455
  0
ENDTAB
  0
TABLE
  2
LAYER
 70
3
  0
LAYER
  2
1
 70
0
 62
7
  6
CONTINUOUS
  0
LAYER
  2
0
 70
0
 62
7
  6
CONTINUOUS
  0
ENDTAB
  0
TABLE
  2
STYLE
 70
4
  0
STYLE
  2
STANDARD
 70
0
 40
0
 41
1
 50
0
 71
0
 42
3.5
  3
txt
  4

  0
STYLE
  2
SIMPLEX
 70
0
 40
0
 41
1
 50
0
 71
0
 42
3.5
  3
simplex
  4

  0
STYLE
  2
COMPLEX
 70
0
 40
0
 41
1
 50
0
 71
0
 42
3.5
  3
complex
  4

  0
STYLE
  2
ITALIC
 70
0
 40
0
 41
1
 50
0
 71
0
 42
3.5
  3
italic
  4

  0
ENDTAB
  0
TABLE
  2
VIEW
 70
0
  0
ENDTAB
  0
ENDSEC
  0
SECTION
  2
BLOCKS
  0
ENDSEC
  0
SECTION
  2
ENTITIES
  0
POLYLINE
  8
1
 62
2
 66
1
  0
VERTEX
  8
1
 10
77.60016026166825
 20
14.75493388736201
 30
0
 42
-0.004186897804077334
  0
VERTEX
  8
1
 10
77.64809908002431
 20
14.62163244658984
 30
0
 42
-0.01290248157270866
  0
VERTEX
  8
1
 10
77.69090696280297
 20
14.48857718960874
 30
0
 42
-0.02254802247754524
  0
VERTEX
  8
1
 10
77.72345297442695
 20
14.35601430020977
 30
0
 42
-0.03328225659851812
  0
VERTEX
  8
1
 10
77.7406061793188
 20
14.22418996218401
 30
0
 42
-0.04414267360482608
  0
VERTEX
  8
1
 10
77.73723564190125
 20
14.09335035932251
 30
0
 42
-0.04746932973028994
  0
VERTEX
  8
1
 10
77.70127723802412
 20
13.93343630424536
 30
0
 42
-0.023289071393516
  0
VERTEX
  8
1
 10
77.64135075199488
 20
13.77496117100133
 30
0
 42
-0.002187931268834072
  0
VERTEX
  8
1
 10
77.57256932255028
 20
13.61748875300437
 30
0
 42
0.01880544693310512
  0
VERTEX
  8
1
 10
77.51004608842713
 20
13.46058284366844
 30
0
 42
0.04246910544635385
  0
VERTEX
  8
1
 10
77.4688941883622
 20
13.3038072364075
 30
0
 42
0.07659463129707428
  0
VERTEX
  8
1
 10
77.46497465143658
 20
13.09667117560136
 30
0
 42
0.04405793155069258
  0
VERTEX
  8
1
 10
77.51183198976324
 20
12.88910937545991
 30
0
 42
0.03892408209528767
  0
VERTEX
  8
1
 10
77.5967719845291
 20
12.68122827081698
 30
0
 42
0.01089913513627261
  0
VERTEX
  8
1
 10
77.70710041692111
 20
12.4731342965064
 30
0
 42
0.01219559973371211
  0
VERTEX
  8
1
 10
77.83012306812618
 20
12.264933887362
 30
0
  0
SEQEND
  8
1
  0
POLYLINE
  8
1
 62
2
 66
1
  0
VERTEX
  8
1
 10
75.87048588694937
 20
14.74398228888464
 30
0
 42
-0.004186897803976857
  0
VERTEX
  8
1
 10
75.9184247053057
 20
14.61068084811247
 30
0
 42
-0.01290248157269701
  0
VERTEX
  8
1
 10
75.96123258808461
 20
14.47762559113137
 30
0
 42
-0.0225480224778283
  0
VERTEX
  8
1
 10
75.99377859970878
 20
14.3450627017324
 30
0
 42
-0.03328225659892511
  0
VERTEX
  8
1
 10
76.0109318046008
 20
14.21323836370664
 30
0
 42
-0.04414267360482697
  0
VERTEX
  8
1
 10
76.00756126718328
 20
14.08239876084514
 30
0
 42
-0.04746932973045263
  0
VERTEX
  8
1
 10
75.97160286330606
 20
13.92248470576798
 30
0
 42
-0.02328907139357399
  0
VERTEX
  8
1
 10
75.91167637727661
 20
13.76400957252394
 30
0
 42
-0.00218793126868197
  0
VERTEX
  8
1
 10
75.84289494783178
 20
13.60653715452698
 30
0
 42
0.01880544693317353
  0
VERTEX
  8
1
 10
75.78037171370839
 20
13.44963124519106
 30
0
 42
0.04246910544652902
  0
VERTEX
  8
1
 10
75.73921981364332
 20
13.29285563793013
 30
0
 42
0.07659463129743745
  0
VERTEX
  8
1
 10
75.73530027671774
 20
13.08571957712397
 30
0
 42
0.04405793155084119
  0
VERTEX
  8
1
 10
75.78215761504467
 20
12.87815777698251
 30
0
 42
0.03892408209552296
  0
VERTEX
  8
1
 10
75.86709760981101
 20
12.67027667233959
 30
0
 42
0.01089913513617213
  0
VERTEX
  8
1
 10
75.97742604220362
 20
12.46218269802902
 30
0
 42
0.01219559973385946
  0
VERTEX
  8
1
 10
76.10044869340935
 20
12.25398228888463
 30
0
  0
SEQEND
  8
1
  0
LINE
  8
1
 62
3
 10
60.4000000000003
 20
-4.600000000000023
 30
0
 11
60.4000000000003
 21
4.599999999999909
 31
0
  0
LINE
  8
1
 62
3
 10
59.20000000000026
 20
15.00000000000006
 30
0
 11
59.20000000000026
 21
-14.99999999999988
 31
0
  0
LINE
  8
1
 62
3
 10
55.00000000000135
 20
-15.99999999999988
 30
0
 11
55.00000000000135
 21
10.56370849898463
 31
0
  0
LINE
  8
1
 62
3
 10
55.00000000000135
 20
12.06370849898463
 30
0
 11
53.90000000000009
 21
12.06370849898463
 31
0
  0
LINE
  8
1
 62
3
 10
55.00000000000135
 20
12.06370849898463
 30
0
 11
55.00000000000135
 21
16.00000000000006
 31
0
  0
LINE
  8
1
 62
3
 10
53.9000000000003
 20
14.56370849898463
 30
0
 11
53.90000000000009
 21
8.063708498984624
 31
0
  0
LINE
  8
1
 62
3
 10
53.9000000000003
 20
14.56370849898463
 30
0
 11
52.50000000000135
 21
14.56370849898463
 31
0
  0
LINE
  8
1
 62
3
 10
52.50000000000135
 20
14.56370849898463
 30
0
 11
52.50000000000135
 21
8.063708498984624
 31
0
  0
LINE
  8
1
 62
3
 10
52.50000000000135
 20
8.063708498984624
 30
0
 11
53.90000000000009
 21
8.063708498984624
 31
0
  0
LINE
  8
1
 62
3
 10
53.90000000000009
 20
10.56370849898463
 30
0
 11
55.00000000000135
 21
10.56370849898463
 31
0
  0
LINE
  8
1
 62
3
 10
58.20000000000026
 20
16
 30
0
 11
29.49999999999999
 21
16
 31
0
  0
LINE
  8
1
 62
3
 10
58.20000000000003
 20
-16
 30
0
 11
29.49999999999999
 21
-16
 31
0
  0
LINE
  8
1
 62
3
 10
58.20000000000003
 20
-16
 30
0
 11
59.20000000000026
 21
-14.99999999999988
 31
0
  0
LINE
  8
1
 62
3
 10
58.20000000000026
 20
16
 30
0
 11
58.20000000000026
 21
13.98400296755773
 31
0
  0
LINE
  8
1
 62
3
 10
55.00000000000135
 20
7.774809386945321
 30
0
 11
58.20000000000026
 21
7.774809386945378
 31
0
  0
LINE
  8
1
 62
3
 10
58.20000000000026
 20
7.774809386945378
 30
0
 11
58.20000000000003
 21
-16
 31
0
  0
LINE
  8
1
 62
3
 10
55.00000000000135
 20
13.98400296755773
 30
0
 11
58.20000000000026
 21
13.98400296755773
 31
0
  0
LINE
  8
1
 62
3
 10
59.20000000000026
 20
12.44144631178307
 30
0
 11
55.00000000000135
 21
12.44144631178307
 31
0
  0
LINE
  8
1
 62
3
 10
58.20000000000026
 20
13.98400296755773
 30
0
 11
59.20000000000026
 21
12.44144631178307
 31
0
  0
LINE
  8
1
 62
3
 10
58.20000000000026
 20
7.774809386945378
 30
0
 11
59.20000000000026
 21
7.197459117755727
 31
0
  0
LINE
  8
1
 62
3
 10
59.20000000000026
 20
-6
 30
0
 11
60.4000000000003
 21
-4.600000000000023
 31
0
  0
LINE
  8
1
 62
3
 10
60.4000000000003
 20
4.599999999999909
 30
0
 11
59.20000000000026
 21
6.000000000000058
 31
0
  0
LINE
  8
1
 62
3
 10
58.20000000000026
 20
16
 30
0
 11
59.20000000000026
 21
15.00000000000006
 31
0
  0
LINE
  8
1
 62
3
 10
77.69854642526828
 20
13.92493388736214
 30
0
 11
106.7580181544052
 21
13.92493388736214
 31
0
  0
LINE
  8
1
 62
3
 10
77.60016026166825
 20
14.75493388736201
 30
0
 11
106.7580181544052
 21
14.75493388736201
 31
0
  0
LINE
  8
1
 62
3
 10
60.94000000000004
 20
12.25398228888458
 30
0
 11
76.10044869340935
 21
12.25398228888463
 31
0
  0
LINE
  8
1
 62
3
 10
60.94000000000028
 20
13.91398228888477
 30
0
 11
75.9688720505503
 21
13.91398228888477
 31
0
  0
LINE
  8
1
 62
3
 10
106.7580181544052
 20
14.75493388736201
 30
0
 11
106.7580181544052
 21
12.264933887362
 31
0
  0
LINE
  8
1
 62
3
 10
106.7580181544052
 20
14.37993388736201
 30
0
 11
109.7580181544052
 21
14.37993388736201
 31
0
  0
LINE
  8
1
 62
3
 10
109.7580181544052
 20
13.329933887362
 30
0
 11
106.7580181544052
 21
13.329933887362
 31
0
  0
LINE
  8
1
 62
3
 10
106.7580181544052
 20
13.709933887362
 30
0
 11
109.7580181544052
 21
13.709933887362
 31
0
  0
LINE
  8
1
 62
3
 10
109.7580181544052
 20
12.65993388736215
 30
0
 11
106.7580181544052
 21
12.65993388736215
 31
0
  0
LINE
  8
1
 62
3
 10
75.87048588694937
 20
14.74398228888464
 30
0
 11
59.20000000000026
 21
14.74398228888464
 31
0
  0
LINE
  8
1
 62
3
 10
60.94000000000004
 20
10.74398228888458
 30
0
 11
60.94000000000028
 21
14.74398228888464
 31
0
  0
LINE
  8
1
 62
3
 10
57.67892550688133
 20
17.66771376674547
 30
0
 11
57.59968157421234
 21
16.00000000000006
 31
0
  0
LINE
  8
1
 62
3
 10
61.2016379936954
 20
18.14398228888473
 30
0
 11
58.17836200630632
 21
18.14398228888473
 31
0
  0
LINE
  8
1
 62
3
 10
61.82989250078525
 20
14.95669782458583
 30
0
 11
61.70107449312035
 21
17.66771376674547
 31
0
  0
LINE
  8
1
 62
3
 10
59.20000000000026
 20
10.74398228888464
 30
0
 11
60.94000000000004
 21
10.74398228888458
 31
0
  0
LINE
  8
1
 62
3
 10
77.83012306812618
 20
12.264933887362
 30
0
 11
106.7580181544052
 21
12.264933887362
 31
0
  0
LINE
  8
1
 62
3
 10
50.1835823428417
 20
5.999999999999998
 30
0
 11
50.1835823428417
 21
16
 31
0
  0
LINE
  8
1
 62
3
 10
33.18358234284168
 20
5.999999999999998
 30
0
 11
50.1835823428417
 21
5.999999999999998
 31
0
  0
LINE
  8
1
 62
1
 10
-2.283478121639014
 20
0
 30
0
 11
64.89458842742701
 21
0
 31
0
  0
LINE
  8
1
 62
3
 10
27.99999999999999
 20
14.5
 30
0
 11
28
 21
-15.20000000000005
 31
0
  0
LINE
  8
1
 62
1
 10
-82
 20
-15.5
 30
0
 11
-82
 21
-20.5
 31
0
  0
LINE
  8
1
 62
1
 10
-120.5
 20
-18
 30
0
 11
-115.5
 21
-18
 31
0
  0
LINE
  8
1
 62
1
 10
-118
 20
-15.5
 30
0
 11
-118
 21
-20.5
 31
0
  0
LINE
  8
1
 62
1
 10
-82
 20
20.5
 30
0
 11
-82
 21
15.5
 31
0
  0
LINE
  8
1
 62
1
 10
-84.5
 20
18
 30
0
 11
-79.5
 21
18
 31
0
  0
LINE
  8
1
 62
1
 10
-120.5
 20
18
 30
0
 11
-115.5
 21
18
 31
0
  0
LINE
  8
1
 62
1
 10
-118
 20
20.5
 30
0
 11
-118
 21
15.5
 31
0
  0
LINE
  8
1
 62
1
 10
-108.2867258072389
 20
7
 30
0
 11
-91.84920070903468
 21
7
 31
0
  0
LINE
  8
1
 62
3
 10
-101.5139022425509
 20
9.589999999999975
 30
0
 11
-98.48609775744922
 21
9.589999999999975
 31
0
  0
LINE
  8
1
 62
3
 10
-118
 20
-21.5
 30
0
 11
-82
 21
-21.5
 31
0
  0
LINE
  8
1
 62
3
 10
-78.5
 20
-18
 30
0
 11
-78.5
 21
18
 31
0
  0
LINE
  8
1
 62
3
 10
-82
 20
21.5
 30
0
 11
-118
 21
21.5
 31
0
  0
LINE
  8
1
 62
3
 10
-121.5
 20
18
 30
0
 11
-121.5
 21
-18
 31
0
  0
LINE
  8
1
 62
1
 10
-124.5
 20
0
 30
0
 11
-75.5
 21
0
 31
0
  0
LINE
  8
1
 62
1
 10
-100
 20
-24.5
 30
0
 11
-100
 21
24.5
 31
0
  0
LINE
  8
1
 62
3
 10
2.200000000000045
 20
-21.5
 30
0
 11
3.199999999999932
 21
-21.5
 31
0
  0
LINE
  8
1
 62
3
 10
2.200000000000045
 20
21.5
 30
0
 11
2.200000000000045
 21
-21.5
 31
0
  0
LINE
  8
1
 62
3
 10
3.199999999999932
 20
21.5
 30
0
 11
3.199999999999932
 21
-21.5
 31
0
  0
LINE
  8
1
 62
3
 10
3.199999999999932
 20
21.5
 30
0
 11
2.200000000000045
 21
21.5
 31
0
  0
LINE
  8
1
 62
3
 10
-20
 20
4
 30
0
 11
-5
 21
4
 31
0
  0
LINE
  8
1
 62
3
 10
-20
 20
9.5
 30
0
 11
-20
 21
4
 31
0
  0
LINE
  8
1
 62
3
 10
-5
 20
10
 30
0
 11
-8
 21
10
 31
0
  0
LINE
  8
1
 62
3
 10
-8
 20
9.5
 30
0
 11
-20
 21
9.5
 31
0
  0
LINE
  8
1
 62
3
 10
-8
 20
10
 30
0
 11
-8
 21
9.5
 31
0
  0
LINE
  8
1
 62
3
 10
-5
 20
1
 30
0
 11
2.200000000000045
 21
1
 31
0
  0
LINE
  8
1
 62
3
 10
-5
 20
13
 30
0
 11
-5
 21
1
 31
0
  0
LINE
  8
1
 62
3
 10
2.200000000000045
 20
13
 30
0
 11
-5
 21
13
 31
0
  0
LINE
  8
1
 62
3
 10
3.199999999999932
 20
18.5
 30
0
 11
25.20000000000005
 21
18.5
 31
0
  0
LINE
  8
1
 62
3
 10
3.199999999999932
 20
-18.5
 30
0
 11
25.20000000000005
 21
-18.5
 31
0
  0
LINE
  8
1
 62
3
 10
26.20000000000005
 20
-17.5
 30
0
 11
26.20000000000005
 21
17.5
 31
0
  0
LINE
  8
1
 62
1
 10
-23
 20
7
 30
0
 11
6.19999999999993
 21
7
 31
0
  0
LINE
  8
1
 62
1
 10
-84.5
 20
-18
 30
0
 11
-79.5
 21
-18
 31
0
  0
LINE
  8
1
 62
3
 10
-112.6372721654419
 20
7.411602540378567
 30
0
 11
-112.7372721654419
 21
7.238397459621808
 31
0
  0
LINE
  8
1
 62
3
 10
-112.9153810567665
 20
7.629903810567782
 30
0
 11
-112.6555734356311
 21
7.479903810567919
 31
0
  0
LINE
  8
1
 62
3
 10
-112.8934899480911
 20
8.367820323027786
 30
0
 11
-113.0434899480912
 21
8.108012701892392
 31
0
  0
LINE
  8
1
 62
3
 10
-113.0849962990371
 20
8.53612159321699
 30
0
 11
-112.9117912182803
 21
8.436121593217024
 31
0
  0
LINE
  8
1
 62
3
 10
-113.3032975692264
 20
8.258012701892369
 30
0
 11
-113.1532975692264
 21
8.51782032302782
 31
0
  0
LINE
  8
1
 62
3
 10
-114.0412140816862
 20
8.27990381056776
 30
0
 11
-113.7814064605509
 21
8.129903810567782
 31
0
  0
LINE
  8
1
 62
3
 10
-114.2095153518756
 20
8.088397459621831
 30
0
 11
-114.1095153518755
 21
8.26160254037859
 31
0
  0
LINE
  8
1
 62
3
 10
-113.9314064605509
 20
7.870096189432559
 30
0
 11
-114.1912140816862
 21
8.020096189432593
 31
0
  0
LINE
  8
1
 62
3
 10
-113.9532975692265
 20
7.132179676972612
 30
0
 11
-113.8032975692264
 21
7.391987298108006
 31
0
  0
LINE
  8
1
 62
3
 10
-113.7617912182803
 20
6.963878406783522
 30
0
 11
-113.9349962990372
 21
7.063878406783431
 31
0
  0
LINE
  8
1
 62
3
 10
-113.5434899480912
 20
7.241987298107972
 30
0
 11
-113.6934899480912
 21
6.982179676972635
 31
0
  0
LINE
  8
1
 62
3
 10
-112.8055734356311
 20
7.220096189432468
 30
0
 11
-113.0653810567665
 21
7.370096189432559
 31
0
  0
LINE
  8
1
 62
1
 10
-111.69134295109
 20
6.75
 30
0
 11
-115.1554445662277
 21
8.75
 31
0
  0
LINE
  8
1
 62
3
 10
-100.1000000000003
 20
-14.65000000000003
 30
0
 11
-99.90000000000032
 21
-14.65000000000003
 31
0
  0
LINE
  8
1
 62
3
 10
-100.1500000000001
 20
-15
 30
0
 11
-100.1500000000003
 21
-14.70000000000005
 31
0
  0
LINE
  8
1
 62
3
 10
-100.8000000000002
 20
-15.35000000000014
 30
0
 11
-100.5000000000001
 21
-15.35000000000014
 31
0
  0
LINE
  8
1
 62
3
 10
-100.8500000000003
 20
-15.59999999999997
 30
0
 11
-100.8500000000003
 21
-15.40000000000009
 31
0
  0
LINE
  8
1
 62
3
 10
-100.5000000000002
 20
-15.65000000000003
 30
0
 11
-100.8000000000002
 21
-15.65000000000009
 31
0
  0
LINE
  8
1
 62
3
 10
-100.1500000000002
 20
-16.30000000000001
 30
0
 11
-100.1500000000001
 21
-16
 31
0
  0
LINE
  8
1
 62
3
 10
-99.90000000000021
 20
-16.34999999999997
 30
0
 11
-100.1000000000001
 21
-16.34999999999997
 31
0
  0
LINE
  8
1
 62
3
 10
-99.85000000000036
 20
-16
 30
0
 11
-99.85000000000036
 21
-16.30000000000001
 31
0
  0
LINE
  8
1
 62
3
 10
-99.20000000000016
 20
-15.65000000000003
 30
0
 11
-99.50000000000023
 21
-15.65000000000003
 31
0
  0
LINE
  8
1
 62
3
 10
-99.15000000000032
 20
-15.40000000000009
 30
0
 11
-99.15000000000021
 21
-15.59999999999991
 31
0
  0
LINE
  8
1
 62
3
 10
-99.50000000000023
 20
-15.35000000000014
 30
0
 11
-99.20000000000016
 21
-15.34999999999997
 31
0
  0
LINE
  8
1
 62
3
 10
-99.85000000000025
 20
-14.70000000000005
 30
0
 11
-99.85000000000036
 21
-15
 31
0
  0
LINE
  8
1
 62
3
 10
-87.26272783455795
 20
7.238397459621353
 30
0
 11
-87.36272783455786
 21
7.411602540378226
 31
0
  0
LINE
  8
1
 62
3
 10
-86.93461894323332
 20
7.370096189432331
 30
0
 11
-87.19442656436866
 21
7.220096189432127
 31
0
  0
LINE
  8
1
 62
3
 10
-86.30651005190873
 20
6.982179676972294
 30
0
 11
-86.45651005190871
 21
7.241987298107688
 31
0
  0
LINE
  8
1
 62
3
 10
-86.06500370096262
 20
7.06387840678309
 30
0
 11
-86.23820878171944
 21
6.963878406783067
 31
0
  0
LINE
  8
1
 62
3
 10
-86.19670243077337
 20
7.391987298107608
 30
0
 11
-86.04670243077328
 21
7.132179676972271
 31
0
  0
LINE
  8
1
 62
3
 10
-85.80878591831367
 20
8.020096189432195
 30
0
 11
-86.0685935394489
 21
7.870096189432218
 31
0
  0
LINE
  8
1
 62
3
 10
-85.89048464812436
 20
8.261602540378306
 30
0
 11
-85.79048464812433
 21
8.08839745962149
 31
0
  0
LINE
  8
1
 62
3
 10
-86.21859353944876
 20
8.129903810567498
 30
0
 11
-85.95878591831354
 21
8.279903810567419
 31
0
  0
LINE
  8
1
 62
3
 10
-86.84670243077346
 20
8.517820323027479
 30
0
 11
-86.69670243077337
 21
8.258012701892085
 31
0
  0
LINE
  8
1
 62
3
 10
-87.08820878171946
 20
8.436121593216569
 30
0
 11
-86.91500370096276
 21
8.536121593216592
 31
0
  0
LINE
  8
1
 62
3
 10
-86.95651005190871
 20
8.108012701892108
 30
0
 11
-87.1065100519088
 21
8.367820323027502
 31
0
  0
LINE
  8
1
 62
3
 10
-87.34442656436863
 20
7.479903810567464
 30
0
 11
-87.0846189432333
 21
7.629903810567384
 31
0
  0
LINE
  8
1
 62
1
 10
-88.30865704891016
 20
6.75
 30
0
 11
-84.84455543377237
 21
8.75
 31
0
  0
LINE
  8
1
 62
3
 10
33.18358234284168
 20
16
 30
0
 11
33.18358234284168
 21
5.999999999999998
 31
0
  0
ARC
  8
1
 62
1
  6
CENTER
 10
-100
 20
0
 30
0
 40
15.50000000000001
 50
142.6018578736698
 51
157.3981421263301
  0
ARC
  8
1
 62
1
  6
CENTER
 10
-100
 20
0
 30
0
 40
15.50000000000006
 50
262.6018578736699
 51
277.3981421263302
  0
ARC
  8
1
 62
1
  6
CENTER
 10
-100
 20
0
 30
0
 40
15.49999999999995
 50
22.60185787366996
 51
37.39814212633033
  0
ARC
  8
1
 62
3
 10
29.50000000000004
 20
14.5
 30
0
 40
1.5
 50
90
 51
180
  0
ARC
  8
1
 62
3
 10
29.50000000000004
 20
-14.5
 30
0
 40
1.50000000000005
 50
180
 51
270
  0
ARC
  8
1
 62
3
 10
61.2016379936954
 20
17.64398228888473
 30
0
 40
0.4999999999993053
 50
2.720449105956018
 51
90
  0
ARC
  8
1
 62
3
 10
58.17836200630632
 20
17.64398228888473
 30
0
 40
0.5
 50
90
 51
177.2795508940442
  0
ARC
  8
1
 62
3
 10
61.63029712220235
 20
14.94398228888463
 30
0
 40
0.1999999999999904
 50
270
 51
3.645191185384648
  0
ARC
  8
1
 62
3
 10
-118
 20
-18
 30
0
 40
3.5
 50
180
 51
270
  0
ARC
  8
1
 62
3
 10
-118
 20
18
 30
0
 40
3.5
 50
90
 51
180
  0
ARC
  8
1
 62
3
 10
-82
 20
18
 30
0
 40
3.5
 50
0
 51
90
  0
ARC
  8
1
 62
3
 10
-82
 20
-18
 30
0
 40
3.5
 50
270
 51
0
  0
ARC
  8
1
 62
3
 10
26.20000000000005
 20
12.19999999999999
 30
0
 40
1.799999999999951
 50
0
 51
90
  0
ARC
  8
1
 62
3
 10
26.20000000000005
 20
-15.20000000000005
 30
0
 40
1.799999999999949
 50
270
 51
0
  0
ARC
  8
1
 62
3
 10
25.20000000000005
 20
17.5
 30
0
 40
1
 50
0
 51
90
  0
ARC
  8
1
 62
3
 10
25.20000000000005
 20
-17.5
 30
0
 40
1
 50
270
 51
0
  0
ARC
  8
1
 62
3
 10
-112.7805734356311
 20
7.263397459621672
 30
0
 40
0.04999999999998725
 50
239.9999999999841
 51
330.0000000001251
  0
ARC
  8
1
 62
3
 10
-112.6805734356312
 20
7.436602540378487
 30
0
 40
0.05000000000003033
 50
330.0000000001265
 51
60.00000000001612
  0
ARC
  8
1
 62
3
 10
-113.1099962990371
 20
8.492820323027786
 30
0
 40
0.04999999999998725
 50
59.99999999998405
 51
150.0000000000047
  0
ARC
  8
1
 62
3
 10
-112.9367912182803
 20
8.39282032302782
 30
0
 40
0.05000000000000146
 50
329.9999999999559
 51
59.99999999998405
  0
ARC
  8
1
 62
3
 10
-114.0662140816863
 20
8.236602540378556
 30
0
 40
0.05000000000002988
 50
59.99999999989943
 51
149.9999999999558
  0
ARC
  8
1
 62
3
 10
-114.1662140816862
 20
8.063397459621797
 30
0
 40
0.05000000000016146
 50
150.0000000000617
 51
239.9999999999981
  0
ARC
  8
1
 62
3
 10
-113.9099962990371
 20
7.107179676972635
 30
0
 40
0.05000000000014534
 50
150.0000000001263
 51
239.9999999998994
  0
ARC
  8
1
 62
3
 10
-113.7367912182804
 20
7.007179676972726
 30
0
 40
0.04999999999993041
 50
240.0000000000969
 51
329.9999999998994
  0
ARC
  8
1
 62
3
 10
-113.2403810567665
 20
7.066987298108018
 30
0
 40
0.3499999999999872
 50
59.99999999999933
 51
150.0000000000195
  0
ARC
  8
1
 62
3
 10
-112.7403810567665
 20
7.933012701892437
 30
0
 40
0.3500000000001143
 50
150.0000000000194
 51
240.0000000000067
  0
ARC
  8
1
 62
3
 10
-113.6064064605509
 20
8.433012701892437
 30
0
 40
0.3500000000000864
 50
240.0000000000087
 51
329.9999999999859
  0
ARC
  8
1
 62
3
 10
-114.1064064605509
 20
7.566987298108018
 30
0
 40
0.3499999999999586
 50
329.9999999999938
 51
59.99999999999933
  0
ARC
  8
1
 62
3
 10
-99.90000000000021
 20
-14.69999999999987
 30
0
 40
0.04999999999995453
 50
359.9999999997924
 51
90
  0
ARC
  8
1
 62
3
 10
-100.1
 20
-14.70000000000005
 30
0
 40
0.05000000000002025
 50
90
 51
180
  0
ARC
  8
1
 62
3
 10
-100.8000000000002
 20
-15.59999999999997
 30
0
 40
0.05000000000011085
 50
180
 51
270
  0
ARC
  8
1
 62
3
 10
-100.8000000000002
 20
-15.40000000000009
 30
0
 40
0.0499999999999492
 50
90
 51
180
  0
ARC
  8
1
 62
3
 10
-100.1000000000001
 20
-16.30000000000001
 30
0
 40
0.05000000000011085
 50
180
 51
270
  0
ARC
  8
1
 62
3
 10
-99.90000000000021
 20
-16.30000000000001
 30
0
 40
0.04999999999995808
 50
270
 51
0
  0
ARC
  8
1
 62
3
 10
-99.20000000000016
 20
-15.59999999999991
 30
0
 40
0.05000000000011973
 50
270
 51
0
  0
ARC
  8
1
 62
3
 10
-99.20000000000027
 20
-15.40000000000009
 30
0
 40
0.04999999999995453
 50
0
 51
90
  0
ARC
  8
1
 62
3
 10
-99.50000000000023
 20
-15
 30
0
 40
0.3500000000001364
 50
180
 51
270
  0
ARC
  8
1
 62
3
 10
-100.5000000000002
 20
-15
 30
0
 40
0.35000000000014
 50
270
 51
0
  0
ARC
  8
1
 62
3
 10
-100.5000000000002
 20
-16
 30
0
 40
0.3500000000000938
 50
0
 51
90
  0
ARC
  8
1
 62
3
 10
-99.50000000000034
 20
-16
 30
0
 40
0.3499999999999695
 50
90
 51
180
  0
ARC
  8
1
 62
3
 10
-87.31942656436877
 20
7.43660254037826
 30
0
 40
0.0499999999999162
 50
119.9999999998749
 51
210.0000000001093
  0
ARC
  8
1
 62
3
 10
-87.21942656436875
 20
7.263397459621501
 30
0
 40
0.05000000000005832
 50
210.000000000157
 51
300.0000000000028
  0
ARC
  8
1
 62
3
 10
-86.0900037009626
 20
7.107179676972294
 30
0
 40
0.04999999999997304
 50
299.9999999999878
 51
29.99999999992262
  0
ARC
  8
1
 62
3
 10
-86.26320878171953
 20
7.007179676972271
 30
0
 40
0.04999999999997304
 50
209.9999999999878
 51
300.0000000001006
  0
ARC
  8
1
 62
3
 10
-85.83378591831354
 20
8.063397459621513
 30
0
 40
0.05000000000001466
 50
299.9999999998098
 51
29.99999999998775
  0
ARC
  8
1
 62
3
 10
-85.93378591831356
 20
8.236602540378215
 30
0
 40
0.05000000000002988
 50
30.00000000010057
 51
119.9999999999878
  0
ARC
  8
1
 62
3
 10
-86.89000370096267
 20
8.492820323027388
 30
0
 40
0.05000000000002988
 50
30.00000000010057
 51
120.0000000001006
  0
ARC
  8
1
 62
3
 10
-87.06320878171948
 20
8.392820323027365
 30
0
 40
0.04999999999997304
 50
119.9999999999878
 51
209.9999999998098
  0
ARC
  8
1
 62
3
 10
-87.25961894323325
 20
7.933012701892096
 30
0
 40
0.3500000000001143
 50
299.9999999999806
 51
30.00000000000262
  0
ARC
  8
1
 62
3
 10
-86.75961894323336
 20
7.066987298107676
 30
0
 40
0.3500000000000939
 50
29.99999999999344
 51
119.9999999999852
  0
ARC
  8
1
 62
3
 10
-85.89359353944894
 20
7.566987298107563
 30
0
 40
0.3500000000000651
 50
119.9999999999853
 51
210.0000000000038
  0
ARC
  8
1
 62
3
 10
-86.39359353944883
 20
8.433012701891983
 30
0
 40
0.3499999999999382
 50
209.9999999999865
 51
300.0000000000154
  0
CIRCLE
  8
1
 62
3
 10
-100
 20
7
 30
0
 40
6
  0
CIRCLE
  8
1
 62
3
 10
-100
 20
7
 30
0
 40
3
  0
CIRCLE
  8
1
 62
3
 10
-100
 20
0
 30
0
 40
18
  0
CIRCLE
  8
1
 62
3
 10
-82
 20
-18
 30
0
 40
1.75
  0
CIRCLE
  8
1
 62
3
 10
-82
 20
18
 30
0
 40
1.75
  0
CIRCLE
  8
1
 62
3
 10
-118
 20
18
 30
0
 40
1.75
  0
CIRCLE
  8
1
 62
3
 10
-118
 20
-18
 30
0
 40
1.75
  0
CIRCLE
  8
1
 62
3
 10
-113.4233937586588
 20
7.75
 30
0
 40
1.5
  0
CIRCLE
  8
1
 62
3
 10
-100
 20
-15.5
 30
0
 40
1.499999999999972
  0
CIRCLE
  8
1
 62
3
 10
-86.57660624134121
 20
7.75
 30
0
 40
1.500000000000028
  0
TEXT
  8
1
 62
2
 10
-150.6564620122901
 20
66.3222864707045
 30
0
 40
5
  1
ＤＭＥ３３Ｓ４３Ｇ１２０Ａ～ＤＭＥ３３Ｓ４３Ｇ３００Ａ
 41
0.891
  0
TEXT
  8
1
 62
2
 10
-150.6564620122901
 20
57.5722864707045
 30
0
 40
5
  1
ＤＭＥ３３Ｓ４３Ｇ１２０Ｂ～ＤＭＥ３３Ｓ４３Ｇ３００Ｂ
 41
0.891
  0
ENDSEC
  0
EOF
