  0
SECTION
  2
HEADER
  9
$ACADVER
  1
AC1009
  9
$INSBASE
 10
0
 20
0
  9
$EXTMIN
 10
-124.5
 20
-24.5
  9
$EXTMAX
 10
107.1568021976034
 20
55.90864142573218
  9
$LIMMIN
 10
-124.5
 20
-24.5
  9
$LIMMAX
 10
107.1568021976034
 20
55.90864142573218
  9
$VIEWCTR
 10
10
 20
10
  9
$VIEWSIZE
 40
10
  9
$SNAPMODE
 70
0
  9
$SNAPUNIT
 10
1
 20
1
  9
$SNAPBASE
 10
0
 20
0
  9
$SNAPANG
 50
0
  9
$SNAPSTYLE
 70
0
  9
$SNAPISOPAIR
 70
0
  9
$GRIDMODE
 70
0
  9
$GRIDUNIT
 10
0
 20
0
  9
$ORTHOMODE
 70
0
  9
$REGENMODE
 70
1
  9
$FILLMODE
 70
1
  9
$QTEXTMODE
 70
0
  9
$DRAGMODE
 70
2
  9
$LTSCALE
 40
1
  9
$OSMODE
 70
0
  9
$ATTMODE
 70
1
  9
$TEXTSIZE
 40
3.5
  9
$TRACEWID
 40
0.5
  9
$TEXTSTYLE
  7
STANDARD
  9
$CLAYER
  8
0
  9
$CELTYPE
  6
BYLAYER
  9
$CECOLOR
 62
256
  9
$DIMSCALE
 40
1
  9
$DIMASZ
 40
0.18
  9
$DIMEXO
 40
0.0625
  9
$DIMDLI
 40
0.38
  9
$DIMRND
 40
0
  9
$DIMDLE
 40
0
  9
$DIMEXE
 40
0.18
  9
$DIMTP
 40
0
  9
$DIMTM
 40
0
  9
$DIMTXT
 40
0.18
  9
$DIMCEN
 40
0.09
  9
$DIMTSZ
 40
0
  9
$DIMTOL
 70
0
  9
$DIMLIM
 70
0
  9
$DIMTIH
 70
1
  9
$DIMTOH
 70
1
  9
$DIMSE1
 70
0
  9
$DIMSE2
 70
0
  9
$DIMTAD
 70
0
  9
$DIMZIN
 70
0
  9
$DIMBLK
  1

  9
$DIMASO
 70
1
  9
$DIMSHO
 70
1
  9
$DIMPOST
  1

  9
$DIMAPOST
  1

  9
$DIMALT
 70
0
  9
$DIMALTD
 70
2
  9
$DIMALTF
 40
25.4
  9
$DIMLFAC
 40
1
  9
$DIMTOFL
 70
0
  9
$DIMTVP
 40
0
  9
$DIMTIX
 70
0
  9
$DIMSOXD
 70
0
  9
$DIMSAH
 70
0
  9
$DIMBLK1
  1

  9
$DIMBLK2
  1

  9
$DIMSTYLE
  2
*UNNAMED
  9
$DIMCLRD
 70
0
  9
$DIMCLRE
 70
0
  9
$DIMCLRT
 70
0
  9
$DIMTFAC
 40
1
  9
$DIMGAP
 40
0.09
  9
$LUNITS
 70
2
  9
$LUPREC
 70
4
  9
$AXISMODE
 70
0
  9
$AXISUNIT
 10
0
 20
0
  9
$SKETCHINC
 40
0.1
  9
$FILLETRAD
 40
2
  9
$AUNITS
 70
0
  9
$AUPREC
 70
0
  9
$MENU
  1
ACAD
  9
$ELEVATION
 40
0
  9
$THICKNESS
 40
0
  9
$VIEWDIR
 10
0
 20
0
 30
1
  9
$LIMCHECK
 70
0
  9
$BLIPMODE
 70
1
  9
$CHAMFERA
 40
0
  9
$CHAMFERB
 40
0
  9
$FASTZOOM
 70
1
  9
$SKPOLY
 70
0
  9
$ANGBASE
 50
0
  9
$ANGDIR
 70
0
  9
$PDMODE
 70
0
  9
$PDSIZE
 40
0
  9
$PLINEWID
 40
0
  9
$COORDS
 70
2
  0
ENDSEC
  0
SECTION
  2
TABLES
  0
TABLE
  2
DIMSTYLE
 70
0
  0
ENDTAB
  0
TABLE
  2
LTYPE
 70
9
  0
LTYPE
  2
CONTINUOUS
 70
64
  3
Solid line
 72
65
 73
0
 40
0
  0
LTYPE
  2
BORDER
 70
64
  3
__ __ . __ __ .
 72
65
 73
6
 40
10.66840536436331
 49
3.048115818389518
 49
-1.524057909194759
 49
3.048115818389518
 49
-1.524057909194759
 49
0
 49
-1.524057909194759
  0
LTYPE
  2
CENTER
 70
64
  3
____ _ ____ _
 72
65
 73
4
 40
12.19246327355807
 49
7.620289545973796
 49
-1.524057909194759
 49
1.524057909194759
 49
-1.524057909194759
  0
LTYPE
  2
DASHDOT
 70
64
  3
__ . __ . __ .
 72
65
 73
4
 40
6.096231636779036
 49
3.048115818389518
 49
-1.524057909194759
 49
0
 49
-1.524057909194759
  0
LTYPE
  2
DASHED
 70
64
  3
__ __ __ __ __
 72
65
 73
2
 40
4.572173727584277
 49
3.048115818389518
 49
-1.524057909194759
  0
LTYPE
  2
DIVIDE
 70
64
  3
__ . . __ . . 
 72
65
 73
6
 40
7.620289545973796
 49
3.048115818389518
 49
-1.524057909194759
 49
0
 49
-1.524057909194759
 49
0
 49
-1.524057909194759
  0
LTYPE
  2
DOT
 70
64
  3
..............
 72
65
 73
4
 40
3.048115818389518
 49
0
 49
-1.524057909194759
 49
0
 49
-1.524057909194759
  0
LTYPE
  2
HIDDEN
 70
64
  3
_ _ _ _ _ _ _
 72
65
 73
2
 40
2.286086863792138
 49
1.524057909194759
 49
-0.7620289545973795
  0
LTYPE
  2
PHANTOM
 70
64
  3
_____ _ _ _____ _ _ 
 72
65
 73
6
 40
15.24057909194759
 49
7.620289545973796
 49
-1.524057909194759
 49
1.524057909194759
 49
-1.524057909194759
 49
1.524057909194759
 49
-1.524057909194759
  0
ENDTAB
  0
TABLE
  2
LAYER
 70
3
  0
LAYER
  2
1
 70
0
 62
7
  6
CONTINUOUS
  0
LAYER
  2
0
 70
0
 62
7
  6
CONTINUOUS
  0
ENDTAB
  0
TABLE
  2
STYLE
 70
4
  0
STYLE
  2
STANDARD
 70
0
 40
0
 41
1
 50
0
 71
0
 42
3.5
  3
txt
  4

  0
STYLE
  2
SIMPLEX
 70
0
 40
0
 41
1
 50
0
 71
0
 42
3.5
  3
simplex
  4

  0
STYLE
  2
COMPLEX
 70
0
 40
0
 41
1
 50
0
 71
0
 42
3.5
  3
complex
  4

  0
STYLE
  2
ITALIC
 70
0
 40
0
 41
1
 50
0
 71
0
 42
3.5
  3
italic
  4

  0
ENDTAB
  0
TABLE
  2
VIEW
 70
0
  0
ENDTAB
  0
ENDSEC
  0
SECTION
  2
BLOCKS
  0
ENDSEC
  0
SECTION
  2
ENTITIES
  0
POLYLINE
  8
1
 62
2
 66
1
  0
VERTEX
  8
1
 10
77.8380692560383
 20
1.19999999999987
 30
0
 42
-0.05436175073862812
  0
VERTEX
  8
1
 10
77.98853518174076
 20
1.020660596836325
 30
0
 42
-0.06918166927167634
  0
VERTEX
  8
1
 10
78.07005971099981
 20
0.845851734904123
 30
0
 42
-0.07251555931764296
  0
VERTEX
  8
1
 10
78.09391449654105
 20
0.6744372558114578
 30
0
 42
-0.05966672198141784
  0
VERTEX
  8
1
 10
78.07137119108997
 20
0.5052810011665205
 30
0
 42
-0.0399617869273461
  0
VERTEX
  8
1
 10
78.01370144737213
 20
0.337246812577503
 30
0
 42
-0.02183926344434666
  0
VERTEX
  8
1
 10
77.93217691811307
 20
0.1691985316525971
 30
0
 42
-0.006803853941266764
  0
VERTEX
  8
1
 10
77.8380692560383
 20
0
 30
0
 42
0.005650400506601774
  0
VERTEX
  8
1
 10
77.74735371535121
 20
-0.162553544242098
 30
0
 42
0.01759122285957742
  0
VERTEX
  8
1
 10
77.66572335191032
 20
-0.3261657055970183
 30
0
 42
0.03200310916503958
  0
VERTEX
  8
1
 10
77.60344760034002
 20
-0.4898304896828724
 30
0
 42
0.05017479070493774
  0
VERTEX
  8
1
 10
77.57079589526472
 20
-0.652541902117766
 30
0
 42
0.06972643429699769
  0
VERTEX
  8
1
 10
77.57803767130871
 20
-0.8132939485198053
 30
0
 42
0.08058707428319988
  0
VERTEX
  8
1
 10
77.63544236309645
 20
-0.971080634507097
 30
0
 42
0.07380277377871382
  0
VERTEX
  8
1
 10
77.75327940525224
 20
-1.124895965697747
 30
0
  0
VERTEX
  8
1
 10
77.8380692560383
 20
-1.199999999999989
 30
0
  0
SEQEND
  8
1
  0
POLYLINE
  8
1
 62
2
 66
1
  0
VERTEX
  8
1
 10
75.98468172387157
 20
1.199999999999989
 30
0
 42
-0.05436175073874836
  0
VERTEX
  8
1
 10
76.13514764957402
 20
1.020660596836399
 30
0
 42
-0.06918166927171873
  0
VERTEX
  8
1
 10
76.21667217883309
 20
0.8458517349041664
 30
0
 42
-0.07251555931794497
  0
VERTEX
  8
1
 10
76.24052696437433
 20
0.67443725581148
 30
0
 42
-0.05966672198141405
  0
VERTEX
  8
1
 10
76.21798365892325
 20
0.5052810011665299
 30
0
 42
-0.03996178692734698
  0
VERTEX
  8
1
 10
76.16031391520541
 20
0.3372468125775058
 30
0
 42
-0.02183926344427691
  0
VERTEX
  8
1
 10
76.07878938594634
 20
0.1691985316525974
 30
0
 42
-0.006803853941268984
  0
VERTEX
  8
1
 10
75.98468172387157
 20
0
 30
0
 42
0.005650400506534936
  0
VERTEX
  8
1
 10
75.89396618318449
 20
-0.162553544242098
 30
0
 42
0.01759122285950801
  0
VERTEX
  8
1
 10
75.81233581974358
 20
-0.3261657055970183
 30
0
 42
0.03200310916496801
  0
VERTEX
  8
1
 10
75.7500600681733
 20
-0.4898304896828724
 30
0
 42
0.05017479070469075
  0
VERTEX
  8
1
 10
75.71740836309799
 20
-0.652541902117766
 30
0
 42
0.06972643429708582
  0
VERTEX
  8
1
 10
75.72465013914199
 20
-0.8132939485198053
 30
0
 42
0.08058707428319988
  0
VERTEX
  8
1
 10
75.78205483092972
 20
-0.971080634507097
 30
0
 42
0.07380277377871382
  0
VERTEX
  8
1
 10
75.89989187308552
 20
-1.124895965697747
 30
0
  0
VERTEX
  8
1
 10
75.98468172387157
 20
-1.199999999999989
 30
0
  0
SEQEND
  8
1
  0
LINE
  8
1
 62
3
 10
68.27394669805308
 20
1.200000000000045
 30
0
 11
71.98589429137107
 21
1.200000000000045
 31
0
  0
LINE
  8
1
 62
3
 10
68.79559716917009
 20
1.200000000000045
 30
0
 11
68.79559716917009
 21
-1.648112696003864
 31
0
  0
LINE
  8
1
 62
3
 10
71.29559716917009
 20
-1.648112696003864
 30
0
 11
71.29559716917009
 21
1.199999999999875
 31
0
  0
LINE
  8
1
 62
3
 10
68.03452267605002
 20
4.123731477860701
 30
0
 11
67.90570466838513
 21
1.412715535701466
 31
0
  0
LINE
  8
1
 62
3
 10
71.55723516286408
 20
4.600000000000136
 30
0
 11
68.53395917547591
 21
4.600000000000136
 31
0
  0
LINE
  8
1
 62
3
 10
72.18548966995394
 20
1.412715535701466
 30
0
 11
72.05667166228996
 21
4.123731477860701
 31
0
  0
LINE
  8
1
 62
3
 10
68.79559716917009
 20
-1.648112696003864
 30
0
 11
71.29559716917009
 21
-1.648112696003864
 31
0
  0
LINE
  8
1
 62
3
 10
67.51323406331011
 20
0
 30
0
 11
68.79559716917009
 21
0
 31
0
  0
LINE
  8
1
 62
3
 10
60.49999999999996
 20
-5.800000000000011
 30
0
 11
63.02956293441203
 21
-5.800000000000011
 31
0
  0
LINE
  8
1
 62
3
 10
63.51903437114306
 20
-5.600417538286194
 30
0
 11
66.8139891536941
 21
-0.2851178024484398
 31
0
  0
LINE
  8
1
 62
3
 10
60.49999999999996
 20
-7.039640387701525
 30
0
 11
63.43751528276808
 21
-7.039640387701525
 31
0
  0
LINE
  8
1
 62
3
 10
64.82614829352491
 20
-6.106824979732778
 30
0
 11
67.81106902780101
 21
-1.510938469322923
 31
0
  0
LINE
  8
1
 62
3
 10
68.27394669805308
 20
-1.200000000000045
 30
0
 11
68.79559716917009
 21
-1.200000000000045
 31
0
  0
LINE
  8
1
 62
3
 10
63.02956293441203
 20
5.800000000000011
 30
0
 11
60.49999999999996
 21
5.800000000000011
 31
0
  0
LINE
  8
1
 62
3
 10
63.43751528276808
 20
7.039640387701525
 30
0
 11
60.49999999999996
 21
7.039640387701525
 31
0
  0
LINE
  8
1
 62
3
 10
66.8139891536941
 20
0.2851178024483261
 30
0
 11
63.51903437114306
 21
5.600417538286194
 31
0
  0
LINE
  8
1
 62
3
 10
67.81106902780101
 20
1.510938469322923
 30
0
 11
64.82614829352491
 21
6.106824979732778
 31
0
  0
LINE
  8
1
 62
3
 10
68.79559716917009
 20
1.200000000000045
 30
0
 11
68.27394669805308
 21
1.200000000000045
 31
0
  0
LINE
  8
1
 62
3
 10
71.29559716917009
 20
0
 30
0
 11
75.98468172387157
 21
0
 31
0
  0
LINE
  8
1
 62
3
 10
71.29559716917009
 20
1.199999999999875
 30
0
 11
75.98468172387157
 21
1.199999999999989
 31
0
  0
LINE
  8
1
 62
3
 10
71.29559716917009
 20
-1.199999999999989
 30
0
 11
75.98468172387157
 21
-1.199999999999989
 31
0
  0
LINE
  8
1
 62
3
 10
28.00000000000003
 20
12.19999999999999
 30
0
 11
28.00000000000003
 21
-15.20000000000005
 31
0
  0
LINE
  8
1
 62
1
 10
-84.5
 20
-18
 30
0
 11
-80.25
 21
-18
 31
0
  0
LINE
  8
1
 62
1
 10
-82
 20
-15.5
 30
0
 11
-82
 21
-20.5
 31
0
  0
LINE
  8
1
 62
1
 10
-120.5
 20
-18
 30
0
 11
-115.5
 21
-18
 31
0
  0
LINE
  8
1
 62
1
 10
-118
 20
-15.5
 30
0
 11
-118
 21
-20.5
 31
0
  0
LINE
  8
1
 62
1
 10
-82
 20
20.5
 30
0
 11
-82
 21
15.5
 31
0
  0
LINE
  8
1
 62
1
 10
-84.5
 20
18
 30
0
 11
-79.49999999999994
 21
18
 31
0
  0
LINE
  8
1
 62
1
 10
-120.5
 20
18
 30
0
 11
-115.5
 21
18
 31
0
  0
LINE
  8
1
 62
1
 10
-118
 20
20.5
 30
0
 11
-118
 21
15.5
 31
0
  0
LINE
  8
1
 62
1
 10
-108.2867258072389
 20
7
 30
0
 11
-91.84920070903468
 21
7
 31
0
  0
LINE
  8
1
 62
3
 10
-101.5139022425509
 20
9.590000000000032
 30
0
 11
-98.48609775744922
 21
9.590000000000032
 31
0
  0
LINE
  8
1
 62
3
 10
-118
 20
-21.5
 30
0
 11
-82
 21
-21.5
 31
0
  0
LINE
  8
1
 62
3
 10
-78.5
 20
-18
 30
0
 11
-78.5
 21
18
 31
0
  0
LINE
  8
1
 62
3
 10
-82
 20
21.5
 30
0
 11
-118
 21
21.5
 31
0
  0
LINE
  8
1
 62
3
 10
-121.4999999999999
 20
18
 30
0
 11
-121.4999999999999
 21
-18
 31
0
  0
LINE
  8
1
 62
1
 10
-124.5
 20
0
 30
0
 11
-75.5
 21
0
 31
0
  0
LINE
  8
1
 62
1
 10
-100
 20
-24.5
 30
0
 11
-100
 21
24.5
 31
0
  0
LINE
  8
1
 62
3
 10
9.700000000000017
 20
-21.5
 30
0
 11
10.69999999999996
 21
-21.5
 31
0
  0
LINE
  8
1
 62
3
 10
9.700000000000017
 20
21.5
 30
0
 11
9.700000000000017
 21
-21.5
 31
0
  0
LINE
  8
1
 62
3
 10
10.69999999999996
 20
21.5
 30
0
 11
10.69999999999996
 21
-21.5
 31
0
  0
LINE
  8
1
 62
3
 10
10.69999999999996
 20
21.5
 30
0
 11
9.700000000000017
 21
21.5
 31
0
  0
LINE
  8
1
 62
3
 10
-12.49999999999997
 20
4
 30
0
 11
2.500000000000028
 21
4
 31
0
  0
LINE
  8
1
 62
3
 10
-12.49999999999997
 20
9.5
 30
0
 11
-12.49999999999997
 21
4
 31
0
  0
LINE
  8
1
 62
3
 10
2.500000000000028
 20
10
 30
0
 11
-0.4999999999999698
 21
10
 31
0
  0
LINE
  8
1
 62
3
 10
-0.4999999999999698
 20
9.5
 30
0
 11
-12.49999999999997
 21
9.5
 31
0
  0
LINE
  8
1
 62
3
 10
-0.4999999999999698
 20
10
 30
0
 11
-0.4999999999999698
 21
9.5
 31
0
  0
LINE
  8
1
 62
3
 10
2.5
 20
1
 30
0
 11
9.700000000000074
 21
1
 31
0
  0
LINE
  8
1
 62
3
 10
2.5
 20
13
 30
0
 11
2.5
 21
1
 31
0
  0
LINE
  8
1
 62
3
 10
9.700000000000074
 20
13
 30
0
 11
2.5
 21
13
 31
0
  0
LINE
  8
1
 62
3
 10
10.69999999999996
 20
18.5
 30
0
 11
25.20000000000007
 21
18.5
 31
0
  0
LINE
  8
1
 62
3
 10
10.69999999999996
 20
-18.5
 30
0
 11
25.20000000000007
 21
-18.5
 31
0
  0
LINE
  8
1
 62
3
 10
26.20000000000007
 20
-17.5
 30
0
 11
26.20000000000007
 21
17.5
 31
0
  0
LINE
  8
1
 62
1
 10
-15.49999999999997
 20
7
 30
0
 11
13.69999999999996
 21
7
 31
0
  0
LINE
  8
1
 62
1
 10
-80.25
 20
-18
 30
0
 11
-79.49999999999994
 21
-18
 31
0
  0
LINE
  8
1
 62
3
 10
-112.6372721654419
 20
7.411602540378567
 30
0
 11
-112.7372721654419
 21
7.238397459621808
 31
0
  0
LINE
  8
1
 62
3
 10
-112.9153810567665
 20
7.629903810567782
 30
0
 11
-112.6555734356311
 21
7.479903810567862
 31
0
  0
LINE
  8
1
 62
3
 10
-112.8934899480911
 20
8.367820323027786
 30
0
 11
-113.0434899480912
 21
8.108012701892392
 31
0
  0
LINE
  8
1
 62
3
 10
-113.0849962990371
 20
8.53612159321699
 30
0
 11
-112.9117912182803
 21
8.436121593216967
 31
0
  0
LINE
  8
1
 62
3
 10
-113.3032975692264
 20
8.258012701892426
 30
0
 11
-113.1532975692264
 21
8.517820323027763
 31
0
  0
LINE
  8
1
 62
3
 10
-114.0412140816862
 20
8.279903810567816
 30
0
 11
-113.7814064605509
 21
8.129903810567782
 31
0
  0
LINE
  8
1
 62
3
 10
-114.2095153518756
 20
8.088397459621774
 30
0
 11
-114.1095153518755
 21
8.26160254037859
 31
0
  0
LINE
  8
1
 62
3
 10
-113.9314064605509
 20
7.870096189432616
 30
0
 11
-114.1912140816862
 21
8.020096189432593
 31
0
  0
LINE
  8
1
 62
3
 10
-113.9532975692265
 20
7.132179676972555
 30
0
 11
-113.8032975692264
 21
7.391987298108006
 31
0
  0
LINE
  8
1
 62
3
 10
-113.7617912182803
 20
6.963878406783465
 30
0
 11
-113.9349962990372
 21
7.063878406783374
 31
0
  0
LINE
  8
1
 62
3
 10
-113.5434899480912
 20
7.241987298107972
 30
0
 11
-113.6934899480912
 21
6.982179676972578
 31
0
  0
LINE
  8
1
 62
3
 10
-112.8055734356311
 20
7.220096189432525
 30
0
 11
-113.0653810567665
 21
7.370096189432616
 31
0
  0
LINE
  8
1
 62
1
 10
-111.69134295109
 20
6.75
 30
0
 11
-115.1554445662277
 21
8.75
 31
0
  0
LINE
  8
1
 62
3
 10
-100.1000000000003
 20
-14.65000000000003
 30
0
 11
-99.90000000000032
 21
-14.65000000000003
 31
0
  0
LINE
  8
1
 62
3
 10
-100.1500000000001
 20
-15
 30
0
 11
-100.1500000000003
 21
-14.70000000000005
 31
0
  0
LINE
  8
1
 62
3
 10
-100.8000000000002
 20
-15.35000000000014
 30
0
 11
-100.5000000000002
 21
-15.35000000000014
 31
0
  0
LINE
  8
1
 62
3
 10
-100.8500000000003
 20
-15.59999999999997
 30
0
 11
-100.8500000000003
 21
-15.40000000000009
 31
0
  0
LINE
  8
1
 62
3
 10
-100.5000000000002
 20
-15.65000000000003
 30
0
 11
-100.8000000000002
 21
-15.65000000000009
 31
0
  0
LINE
  8
1
 62
3
 10
-100.1500000000002
 20
-16.30000000000001
 30
0
 11
-100.1500000000001
 21
-16
 31
0
  0
LINE
  8
1
 62
3
 10
-99.90000000000021
 20
-16.34999999999997
 30
0
 11
-100.1000000000001
 21
-16.34999999999997
 31
0
  0
LINE
  8
1
 62
3
 10
-99.85000000000036
 20
-16
 30
0
 11
-99.85000000000036
 21
-16.30000000000001
 31
0
  0
LINE
  8
1
 62
3
 10
-99.20000000000016
 20
-15.65000000000003
 30
0
 11
-99.50000000000023
 21
-15.65000000000003
 31
0
  0
LINE
  8
1
 62
3
 10
-99.15000000000032
 20
-15.40000000000009
 30
0
 11
-99.15000000000021
 21
-15.59999999999991
 31
0
  0
LINE
  8
1
 62
3
 10
-99.50000000000023
 20
-15.35000000000014
 30
0
 11
-99.20000000000016
 21
-15.34999999999997
 31
0
  0
LINE
  8
1
 62
3
 10
-99.85000000000025
 20
-14.70000000000005
 30
0
 11
-99.85000000000036
 21
-15
 31
0
  0
LINE
  8
1
 62
3
 10
-87.26272783455795
 20
7.23839745962141
 30
0
 11
-87.36272783455786
 21
7.411602540378226
 31
0
  0
LINE
  8
1
 62
3
 10
-86.93461894323332
 20
7.370096189432275
 30
0
 11
-87.19442656436866
 21
7.22009618943207
 31
0
  0
LINE
  8
1
 62
3
 10
-86.30651005190873
 20
6.982179676972294
 30
0
 11
-86.45651005190871
 21
7.241987298107688
 31
0
  0
LINE
  8
1
 62
3
 10
-86.06500370096262
 20
7.06387840678309
 30
0
 11
-86.23820878171944
 21
6.963878406783124
 31
0
  0
LINE
  8
1
 62
3
 10
-86.19670243077337
 20
7.391987298107608
 30
0
 11
-86.04670243077328
 21
7.132179676972328
 31
0
  0
LINE
  8
1
 62
3
 10
-85.80878591831367
 20
8.020096189432195
 30
0
 11
-86.0685935394489
 21
7.870096189432161
 31
0
  0
LINE
  8
1
 62
3
 10
-85.89048464812436
 20
8.261602540378306
 30
0
 11
-85.79048464812433
 21
8.08839745962149
 31
0
  0
LINE
  8
1
 62
3
 10
-86.21859353944876
 20
8.129903810567498
 30
0
 11
-85.95878591831354
 21
8.279903810567362
 31
0
  0
LINE
  8
1
 62
3
 10
-86.84670243077346
 20
8.517820323027536
 30
0
 11
-86.69670243077337
 21
8.258012701892085
 31
0
  0
LINE
  8
1
 62
3
 10
-87.08820878171946
 20
8.436121593216626
 30
0
 11
-86.91500370096276
 21
8.536121593216592
 31
0
  0
LINE
  8
1
 62
3
 10
-86.95651005190871
 20
8.108012701892108
 30
0
 11
-87.1065100519088
 21
8.367820323027502
 31
0
  0
LINE
  8
1
 62
3
 10
-87.34442656436863
 20
7.479903810567521
 30
0
 11
-87.0846189432333
 21
7.629903810567384
 31
0
  0
LINE
  8
1
 62
1
 10
-88.30865704891016
 20
6.75
 30
0
 11
-84.84455543377237
 21
8.75
 31
0
  0
LINE
  8
1
 62
3
 10
59.00000000000003
 20
-12.69999999999999
 30
0
 11
29.00000000000003
 21
-12.69999999999999
 31
0
  0
LINE
  8
1
 62
3
 10
59.00000000000003
 20
9.6594807680126
 30
0
 11
59.00000000000003
 21
12.69999999999987
 31
0
  0
LINE
  8
1
 62
3
 10
56.50000000000003
 20
8.24526720563949
 30
0
 11
56.50000000000003
 21
9.6594807680126
 31
0
  0
LINE
  8
1
 62
3
 10
59.00000000000003
 20
8.24526720563949
 30
0
 11
56.50000000000003
 21
8.24526720563949
 31
0
  0
LINE
  8
1
 62
3
 10
56.50000000000003
 20
9.6594807680126
 30
0
 11
59.00000000000003
 21
9.6594807680126
 31
0
  0
LINE
  8
1
 62
3
 10
52.25000000000003
 20
7.07158388319948
 30
0
 11
52.25000000000003
 21
12.69999999999987
 31
0
  0
LINE
  8
1
 62
3
 10
35.25000000000003
 20
7.07158388319948
 30
0
 11
52.25000000000003
 21
7.07158388319948
 31
0
  0
LINE
  8
1
 62
3
 10
35.25000000000003
 20
12.69999999999987
 30
0
 11
35.25000000000003
 21
7.07158388319948
 31
0
  0
LINE
  8
1
 62
3
 10
59.00000000000003
 20
12.69999999999987
 30
0
 11
29.00000000000003
 21
12.69999999999987
 31
0
  0
LINE
  8
1
 62
1
 10
64.07956029063004
 20
0
 30
0
 11
7.103234835567172
 21
0
 31
0
  0
LINE
  8
1
 62
3
 10
59.00000000000003
 20
-12.69999999999999
 30
0
 11
59.00000000000003
 21
8.24526720563949
 31
0
  0
LINE
  8
1
 62
3
 10
104.1568021976034
 20
1
 30
0
 11
107.1568021976034
 21
1
 31
0
  0
LINE
  8
1
 62
3
 10
104.1568021976034
 20
0.1999999999998696
 30
0
 11
107.1568021976034
 21
0.1999999999998696
 31
0
  0
LINE
  8
1
 62
3
 10
104.1568021976034
 20
-0.1999999999999904
 30
0
 11
107.1568021976034
 21
-0.1999999999999904
 31
0
  0
LINE
  8
1
 62
3
 10
107.1568021976034
 20
-1
 30
0
 11
104.1568021976034
 21
-1
 31
0
  0
LINE
  8
1
 62
3
 10
104.1568021976034
 20
1.19999999999987
 30
0
 11
104.1568021976034
 21
-1.199999999999989
 31
0
  0
LINE
  8
1
 62
3
 10
77.8380692560383
 20
0
 30
0
 11
104.1568021976034
 21
0
 31
0
  0
LINE
  8
1
 62
3
 10
77.8380692560383
 20
1.19999999999987
 30
0
 11
104.1568021976034
 21
1.19999999999987
 31
0
  0
LINE
  8
1
 62
3
 10
104.1568021976034
 20
-1.199999999999989
 30
0
 11
77.8380692560383
 21
-1.199999999999989
 31
0
  0
LINE
  8
1
 62
3
 10
62.49999999999996
 20
5
 30
0
 11
60.49999999999996
 21
5
 31
0
  0
LINE
  8
1
 62
3
 10
62.49999999999996
 20
5
 30
0
 11
62.49999999999996
 21
-5
 31
0
  0
LINE
  8
1
 62
3
 10
60.49999999999996
 20
-5
 30
0
 11
62.49999999999996
 21
-5
 31
0
  0
LINE
  8
1
 62
3
 10
60.49999999999996
 20
12.69999999999987
 30
0
 11
59.00000000000003
 21
12.69999999999987
 31
0
  0
LINE
  8
1
 62
3
 10
60.49999999999996
 20
-12.69999999999999
 30
0
 11
59.00000000000003
 21
-12.69999999999999
 31
0
  0
LINE
  8
1
 62
3
 10
60.49999999999996
 20
-12.69999999999999
 30
0
 11
60.49999999999996
 21
12.69999999999987
 31
0
  0
ARC
  8
1
 62
3
 10
-100
 20
7
 30
0
 40
6
 50
180
 51
0
  0
ARC
  8
1
 62
3
 10
-100
 20
7
 30
0
 40
6
 50
0
 51
180
  0
ARC
  8
1
 62
1
  6
CENTER
 10
-100
 20
0
 30
0
 40
15.50000000000001
 50
142.6018578736698
 51
157.3981421263301
  0
ARC
  8
1
 62
1
  6
CENTER
 10
-100
 20
0
 30
0
 40
15.50000000000006
 50
262.6018578736699
 51
277.3981421263302
  0
ARC
  8
1
 62
1
  6
CENTER
 10
-100
 20
0
 30
0
 40
15.49999999999995
 50
22.60185787366996
 51
37.39814212633033
  0
ARC
  8
1
 62
3
 10
68.10530004696894
 20
1.400000000000091
 30
0
 40
0.2000000000004668
 50
176.3548088145821
 51
192.3470653506608
  0
ARC
  8
1
 62
3
 10
71.55723516286408
 20
4.100000000000136
 30
0
 40
0.5000000000002266
 50
2.720449105930522
 51
90
  0
ARC
  8
1
 62
3
 10
68.53395917547591
 20
4.100000000000136
 30
0
 40
0.5
 50
90
 51
177.2795508940696
  0
ARC
  8
1
 62
3
 10
71.98589429137107
 20
1.400000000000091
 30
0
 40
0.2000000000000459
 50
270
 51
3.645191185434999
  0
ARC
  8
1
 62
3
 10
67.51323406331011
 20
-1
 30
0
 40
1
 50
90
 51
134.3664543436552
  0
ARC
  8
1
 62
3
 10
67.51323406331011
 20
1
 30
0
 40
1.000000000000108
 50
225.6335456563494
 51
270
  0
ARC
  8
1
 62
3
 10
63.02956293441203
 20
-5.099999999999966
 30
0
 40
0.7000000000000455
 50
270
 51
314.366454343637
  0
ARC
  8
1
 62
3
 10
63.43751528276808
 20
-5.539640387701525
 30
0
 40
1.5
 50
270
 51
337.7825308781786
  0
ARC
  8
1
 62
3
 10
68.27394669805308
 20
-1.700000000000045
 30
0
 40
0.5
 50
90
 51
157.7825308781657
  0
ARC
  8
1
 62
3
 10
63.02956293441203
 20
5.099999999999966
 30
0
 40
0.6999999999999906
 50
45.63354565636306
 51
90
  0
ARC
  8
1
 62
3
 10
63.43751528276808
 20
5.539640387701525
 30
0
 40
1.50000000000041
 50
22.21746912182144
 51
90
  0
ARC
  8
1
 62
3
 10
68.27394669805308
 20
1.700000000000045
 30
0
 40
0.49999999999996
 50
202.2174691218343
 51
270
  0
ARC
  8
1
 62
3
 10
-118
 20
-18
 30
0
 40
3.499999999999901
 50
180
 51
270
  0
ARC
  8
1
 62
3
 10
-118
 20
18
 30
0
 40
3.5
 50
90
 51
180
  0
ARC
  8
1
 62
3
 10
-82
 20
18
 30
0
 40
3.5
 50
0
 51
90
  0
ARC
  8
1
 62
3
 10
-82
 20
-18
 30
0
 40
3.5
 50
270
 51
0
  0
ARC
  8
1
 62
3
 10
26.20000000000007
 20
12.19999999999999
 30
0
 40
1.799999999999958
 50
0
 51
90
  0
ARC
  8
1
 62
3
 10
26.20000000000007
 20
-15.20000000000005
 30
0
 40
1.799999999999949
 50
270
 51
0
  0
ARC
  8
1
 62
3
 10
25.20000000000013
 20
17.5
 30
0
 40
0.9999999999999396
 50
0
 51
90
  0
ARC
  8
1
 62
3
 10
25.20000000000013
 20
-17.5
 30
0
 40
1
 50
270
 51
0
  0
ARC
  8
1
 62
3
 10
-112.7805734356311
 20
7.263397459621729
 30
0
 40
0.04999999999998725
 50
239.9999999999841
 51
330.0000000000687
  0
ARC
  8
1
 62
3
 10
-112.6805734356312
 20
7.436602540378487
 30
0
 40
0.05000000000003033
 50
330.0000000001265
 51
59.99999999998355
  0
ARC
  8
1
 62
3
 10
-113.1099962990371
 20
8.492820323027786
 30
0
 40
0.04999999999998725
 50
59.99999999998405
 51
150.0000000000611
  0
ARC
  8
1
 62
3
 10
-112.9367912182803
 20
8.392820323027763
 30
0
 40
0.04999999999997304
 50
330.0000000000123
 51
59.99999999998405
  0
ARC
  8
1
 62
3
 10
-114.0662140816863
 20
8.236602540378613
 30
0
 40
0.05000000000002988
 50
59.99999999989943
 51
150.0000000000123
  0
ARC
  8
1
 62
3
 10
-114.1662140816862
 20
8.063397459621797
 30
0
 40
0.05000000000013304
 50
150.0000000001181
 51
239.9999999999981
  0
ARC
  8
1
 62
3
 10
-113.9099962990371
 20
7.107179676972578
 30
0
 40
0.05000000000014534
 50
150.0000000001263
 51
239.9999999998994
  0
ARC
  8
1
 62
3
 10
-113.7367912182804
 20
7.007179676972669
 30
0
 40
0.04999999999993041
 50
240.0000000000969
 51
329.9999999998994
  0
ARC
  8
1
 62
3
 10
-113.2403810567665
 20
7.066987298107961
 30
0
 40
0.3500000000000864
 50
60.0000000000087
 51
150.0000000000113
  0
ARC
  8
1
 62
3
 10
-112.7403810567665
 20
7.93301270189238
 30
0
 40
0.3500000000001427
 50
150.0000000000113
 51
240.000000000002
  0
ARC
  8
1
 62
3
 10
-113.6064064605509
 20
8.43301270189238
 30
0
 40
0.3500000000000371
 50
240.0000000000041
 51
330.000000000002
  0
ARC
  8
1
 62
3
 10
-114.1064064605509
 20
7.566987298107961
 30
0
 40
0.3499999999999297
 50
330.000000000002
 51
60.0000000000087
  0
ARC
  8
1
 62
3
 10
-99.90000000000021
 20
-14.69999999999987
 30
0
 40
0.04999999999995453
 50
359.9999999997924
 51
90
  0
ARC
  8
1
 62
3
 10
-100.1
 20
-14.70000000000005
 30
0
 40
0.05000000000002025
 50
90
 51
180
  0
ARC
  8
1
 62
3
 10
-100.8000000000002
 20
-15.59999999999997
 30
0
 40
0.05000000000011085
 50
180
 51
270
  0
ARC
  8
1
 62
3
 10
-100.8000000000002
 20
-15.40000000000009
 30
0
 40
0.0499999999999492
 50
90
 51
180
  0
ARC
  8
1
 62
3
 10
-100.1000000000001
 20
-16.30000000000001
 30
0
 40
0.05000000000011085
 50
180
 51
270
  0
ARC
  8
1
 62
3
 10
-99.90000000000021
 20
-16.30000000000001
 30
0
 40
0.04999999999995808
 50
270
 51
0
  0
ARC
  8
1
 62
3
 10
-99.20000000000016
 20
-15.59999999999991
 30
0
 40
0.05000000000011973
 50
270
 51
0
  0
ARC
  8
1
 62
3
 10
-99.20000000000027
 20
-15.40000000000009
 30
0
 40
0.04999999999995453
 50
0
 51
90
  0
ARC
  8
1
 62
3
 10
-99.50000000000023
 20
-15
 30
0
 40
0.3500000000001364
 50
180
 51
270
  0
ARC
  8
1
 62
3
 10
-100.5000000000002
 20
-15
 30
0
 40
0.35000000000014
 50
270
 51
0
  0
ARC
  8
1
 62
3
 10
-100.5000000000003
 20
-16
 30
0
 40
0.3500000000001933
 50
0
 51
90
  0
ARC
  8
1
 62
3
 10
-99.50000000000034
 20
-16
 30
0
 40
0.3499999999999695
 50
90
 51
180
  0
ARC
  8
1
 62
3
 10
-87.31942656436877
 20
7.43660254037826
 30
0
 40
0.04999999999996543
 50
119.9999999998424
 51
210.0000000001093
  0
ARC
  8
1
 62
3
 10
-87.21942656436875
 20
7.263397459621501
 30
0
 40
0.05000000000002988
 50
210.0000000001006
 51
299.9999999999703
  0
ARC
  8
1
 62
3
 10
-86.0900037009626
 20
7.107179676972294
 30
0
 40
0.04999999999997304
 50
299.9999999999878
 51
29.99999999997903
  0
ARC
  8
1
 62
3
 10
-86.26320878171953
 20
7.007179676972328
 30
0
 40
0.05000000000000146
 50
210.0000000000442
 51
300.0000000001006
  0
ARC
  8
1
 62
3
 10
-85.83378591831354
 20
8.063397459621456
 30
0
 40
0.04999999999996543
 50
299.9999999998424
 51
30.00000000004416
  0
ARC
  8
1
 62
3
 10
-85.93378591831356
 20
8.236602540378158
 30
0
 40
0.05000000000005832
 50
30.00000000015698
 51
119.9999999999878
  0
ARC
  8
1
 62
3
 10
-86.89000370096267
 20
8.492820323027388
 30
0
 40
0.05000000000005832
 50
30.00000000015698
 51
120.0000000001006
  0
ARC
  8
1
 62
3
 10
-87.06320878171948
 20
8.392820323027422
 30
0
 40
0.04999999999997304
 50
119.9999999999878
 51
209.9999999998662
  0
ARC
  8
1
 62
3
 10
-87.25961894323325
 20
7.933012701892096
 30
0
 40
0.3500000000001143
 50
299.9999999999806
 51
30.00000000000262
  0
ARC
  8
1
 62
3
 10
-86.75961894323336
 20
7.066987298107733
 30
0
 40
0.3500000000000651
 50
29.99999999998526
 51
119.9999999999945
  0
ARC
  8
1
 62
3
 10
-85.89359353944894
 20
7.56698729810762
 30
0
 40
0.3499999999999666
 50
119.9999999999945
 51
210.0000000000119
  0
ARC
  8
1
 62
3
 10
-86.39359353944883
 20
8.433012701891983
 30
0
 40
0.3499999999999382
 50
209.9999999999865
 51
300.0000000000154
  0
ARC
  8
1
 62
3
 10
29.00000000000003
 20
11.69999999999987
 30
0
 40
1
 50
90
 51
180
  0
ARC
  8
1
 62
3
 10
29.00000000000003
 20
-11.69999999999999
 30
0
 40
0.9999999999999396
 50
180
 51
270
  0
CIRCLE
  8
1
 62
3
 10
-100
 20
7
 30
0
 40
3
  0
CIRCLE
  8
1
 62
3
 10
-100
 20
0
 30
0
 40
18
  0
CIRCLE
  8
1
 62
3
 10
-82
 20
-18
 30
0
 40
1.75
  0
CIRCLE
  8
1
 62
3
 10
-82
 20
18
 30
0
 40
1.75
  0
CIRCLE
  8
1
 62
3
 10
-118
 20
18
 30
0
 40
1.75
  0
CIRCLE
  8
1
 62
3
 10
-118
 20
-18
 30
0
 40
1.75
  0
CIRCLE
  8
1
 62
3
 10
-113.4233937586588
 20
7.75
 30
0
 40
1.5
  0
CIRCLE
  8
1
 62
3
 10
-100
 20
-15.5
 30
0
 40
1.499999999999929
  0
CIRCLE
  8
1
 62
3
 10
-86.57660624134121
 20
7.75
 30
0
 40
1.500000000000028
  0
TEXT
  8
1
 62
2
 10
-78.76705069114621
 20
50.90864142573218
 30
0
 40
5
  1
ＤＭＥ２５Ｂ４３Ｇ１０Ａ
 41
0.891
  0
TEXT
  8
1
 62
2
 10
-78.76705069114621
 20
42.15864142573218
 30
0
 40
5
  1
ＤＭＥ２５Ｂ４３Ｇ１０Ｂ
 41
0.891
  0
ENDSEC
  0
EOF
