  0
SECTION
  2
HEADER
  9
$ACADVER
  1
AC1003
  9
$INSBASE
 10
0.000000
 20
0.000000
  9
$EXTMIN
 10
0.000000
 20
0.000000
  9
$EXTMAX
 10
297.000000
 20
210.000000
  9
$LIMMIN
 10
0.000000
 20
0.000000
  9
$LIMMAX
 10
297.000000
 20
210.000000
  9
$VIEWCTR
 10
148.500000
 20
105.000000
  9
$VIEWSIZE
 40
210.000000
  9
$PEXTMIN
 10
0.000000
 20
0.000000
 30
0.000000
  9
$PEXTMAX
 10
297.000000
 20
210.000000
 30
0.000000
  9
$SNAPMODE
 70
     0
  9
$SNAPUNIT
 10
1.000000
 20
1.000000
  9
$SNAPBASE
 10
0.000000
 20
0.000000
  9
$SNAPANG
 50
0.000000
  9
$SNAPISOPAIR
 70
     0
  9
$SNAPSTYLE
 70
     0
  9
$GRIDMODE
 70
     0
  9
$GRIDUNIT
 10
0.000000
 20
0.000000
  9
$ORTHOMODE
 70
     0
  9
$REGENMODE
 70
     1
  9
$FILLMODE
 70
     1
  9
$QTEXTMODE
 70
     0
  9
$DRAGMODE
 70
     2
  9
$LTSCALE
 40
0.250000
  9
$OSMODE
 70
     0
  9
$ATTMODE
 70
     1
  9
$TEXTSIZE
 40
0.200000
  9
$TRACEWID
 40
0.050000
  9
$TEXTSTYLE
  7
STANDARD
  9
$CLAYER
  8
0
  9
$CELTYPE
  6
BYLAYER
  9
$CECOLOR
 62
   256
  9
$DIMSCALE
 40
1.000000
  9
$DIMASZ
 40
1.000000
  9
$DIMEXO
 40
0.000000
  9
$DIMDLI
 40
0.500000
  9
$DIMRND
 40
0.000000
  9
$DIMDLE
 40
0.000000
  9
$DIMEXE
 40
0.000000
  9
$DIMTP
 40
0.000000
  9
$DIMTM
 40
0.000000
  9
$DIMTXT
 40
0.180000
  9
$DIMCEN
 40
0.000000
  9
$DIMTSZ
 40
0.000000
  9
$DIMTOL
 70
     0
  9
$DIMLIM
 70
     0
  9
$DIMTIH
 70
     1
  9
$DIMTOH
 70
     1
  9
$DIMSE1
 70
     0
  9
$DIMSE2
 70
     0
  9
$DIMTAD
 70
     0
  9
$DIMZIN
 70
     0
  9
$DIMBLK
  1

  9
$DIMASO
 70
     0
  9
$DIMSHO
 70
     0
  9
$DIMPOST
  1

  9
$DIMAPOST
  1

  9
$DIMALT
 70
     0
  9
$DIMALTD
 70
     0
  9
$DIMALTF
 40
25.400000
  9
$DIMLFAC
 40
1.000000
  9
$DIMTOFL
 70
     0
  9
$DIMTVP
 40
0.000000
  9
$DIMTIX
 70
     0
  9
$DIMSOXD
 70
     0
  9
$DIMSAH
 70
     0
  9
$DIMBLKL
  1

  9
$DIMBLKR
  1

  9
$LUNITS
 70
     2
  9
$LUPREC
 70
     2
  9
$AXISMODE
 70
     0
  9
$AXISUNIT
 10
1.000000
 20
1.000000
  9
$SKETCHINC
 40
0.000000
  9
$FILLETRAD
 40
0.000000
  9
$AUNITS
 70
     1
  9
$AUPREC
 70
     2
  9
$MENU
  1
ACAD
  9
$ELEVATION
 40
0.000000
  9
$THICKNESS
 40
0.000000
  9
$VIEWDIR
 10
0.000000
 20
0.000000
 30
1.000000
  9
$LIMCHECK
 70
     1
  9
$BLIPMODE
 70
     1
  9
$CHAMFERA
 40
0.000000
  9
$CHAMFERB
 40
0.000000
  9
$FASTZOOM
 70
     1
  9
$SKPOLY
 70
     0
  9
$TDCREATE
 40
0.000000
  9
$TDUPDATE
 40
0.000000
  9
$TDINDWG
 40
0.000000
  9
$TDUSRTIMER
 40
0.000000
  9
$USRTIMER
 70
     1
  9
$ANGBASE
 50
0.000000
  9
$ANGDIR
 70
     0
  9
$PDMODE
 70
     0
  9
$PDSIZE
 40
0.000000
  9
$PLINEWID
 40
0.000000
  9
$COORDS
 70
     2
  9
$USERI1
 70
     0
  9
$USERI2
 70
     0
  9
$USERI3
 70
     0
  9
$USERI4
 70
     0
  9
$USERI5
 70
     0
  9
$USERR1
 40
0.000000
  9
$USERR2
 40
0.000000
  9
$USERR3
 40
0.000000
  9
$USERR4
 40
0.000000
  9
$USERR5
 40
0.000000
  0
ENDSEC
  0
SECTION
  2
TABLES
  0
TABLE
  2
LTYPE
 70
     5
  0
LTYPE
  2
CONTINUOUS
 70
    64
  3
Solid line
 72
    65
 73
     0
 40
0.0
  0
LTYPE
  2
HIDDEN
 70
    64
  3
------------------------
 72
    65
 73
     2
 40
12.6
 49
8.4
 49
-4.2
  0
LTYPE
  2
DOT
 70
    64
  3
ÑÑÑÑÑÑÑÑÑÑÑÑÑÑÑÑÑÑÑÑÑÑÑÑ
 72
    65
 73
     2
 40
8.0
 49
6.0
 49
-2.0
  0
LTYPE
  2
DASHDOT
 70
    64
  3
--Ñ--Ñ--Ñ--Ñ--Ñ--Ñ--Ñ--
 72
    65
 73
     4
 40
50.5
 49
30.0
 49
-9.0
 49
2.5
 49
-9.0
  0
LTYPE
  2
DIVIDE
 70
    64
  3
--ÑÑ--ÑÑ--ÑÑ--ÑÑ--ÑÑ--
 72
    65
 73
     6
 40
58.0
 49
30.0
 49
-9.0
 49
2.5
 49
-5.0
 49
2.5
 49
-9.0
  0
ENDTAB
  0
TABLE
  2
LAYER
 70
2
  0
LAYER
  2
1
 70
64
 62
7
  6
CONTINUOUS
  0
LAYER
  2
128
 70
64
 62
7
  6
CONTINUOUS
  0
ENDTAB
  0
TABLE
  2
STYLE
 70
     2
  0
STYLE
  2
STANDARD
 70
    64
 40
0.0
 41
1.0
 50
0.0
 71
     0
 42
0.2
  3
TXT
  4

  0
STYLE
  2
KANJI
 70
    64
 40
0.0
 41
1.0
 50
0.0
 71
     0
 42
0.2
  3
TXT
  4
BIGFONT
  0
ENDTAB
  0
TABLE
  2
VIEW
 70
     0
  0
ENDTAB
  0
ENDSEC
  0
SECTION
  2
BLOCKS
  0
ENDSEC
  0
SECTION
  2
ENTITIES
  0
LINE
  8
1
 62
7
  6
CONTINUOUS
 10
1039.593047
 20
413.039870
 11
1039.594044
 21
413.040867
  0
LINE
  8
1
 62
7
  6
CONTINUOUS
 10
1039.590019
 20
413.022700
 11
1039.608186
 21
413.040867
  0
LINE
  8
1
 62
7
  6
CONTINUOUS
 10
1039.586992
 20
413.005531
 11
1039.622328
 21
413.040867
  0
LINE
  8
1
 62
7
  6
CONTINUOUS
 10
1039.583964
 20
412.988361
 11
1039.636470
 21
413.040867
  0
LINE
  8
1
 62
7
  6
CONTINUOUS
 10
1039.580937
 20
412.971192
 11
1039.650612
 21
413.040867
  0
LINE
  8
1
 62
7
  6
CONTINUOUS
 10
1039.577909
 20
412.954022
 11
1039.664754
 21
413.040867
  0
LINE
  8
1
 62
7
  6
CONTINUOUS
 10
1039.574882
 20
412.936852
 11
1039.678896
 21
413.040867
  0
LINE
  8
1
 62
7
  6
CONTINUOUS
 10
1039.571854
 20
412.919683
 11
1039.693039
 21
413.040867
  0
LINE
  8
1
 62
7
  6
CONTINUOUS
 10
1039.568827
 20
412.902513
 11
1039.707181
 21
413.040867
  0
LINE
  8
1
 62
7
  6
CONTINUOUS
 10
1039.565800
 20
412.885344
 11
1039.721323
 21
413.040867
  0
LINE
  8
1
 62
7
  6
CONTINUOUS
 10
1039.562772
 20
412.868174
 11
1039.735465
 21
413.040867
  0
LINE
  8
1
 62
7
  6
CONTINUOUS
 10
1039.559745
 20
412.851004
 11
1039.749607
 21
413.040867
  0
LINE
  8
1
 62
7
  6
CONTINUOUS
 10
1039.556717
 20
412.833835
 11
1039.763749
 21
413.040867
  0
LINE
  8
1
 62
7
  6
CONTINUOUS
 10
1039.553690
 20
412.816665
 11
1039.777891
 21
413.040867
  0
LINE
  8
1
 62
7
  6
CONTINUOUS
 10
1039.550662
 20
412.799496
 11
1039.792034
 21
413.040867
  0
LINE
  8
1
 62
7
  6
CONTINUOUS
 10
1039.547635
 20
412.782326
 11
1039.806176
 21
413.040867
  0
LINE
  8
1
 62
7
  6
CONTINUOUS
 10
1039.544607
 20
412.765156
 11
1039.820318
 21
413.040867
  0
LINE
  8
1
 62
7
  6
CONTINUOUS
 10
1039.541580
 20
412.747987
 11
1039.834460
 21
413.040867
  0
LINE
  8
1
 62
7
  6
CONTINUOUS
 10
1039.538552
 20
412.730817
 11
1039.848602
 21
413.040867
  0
LINE
  8
1
 62
7
  6
CONTINUOUS
 10
1039.535525
 20
412.713648
 11
1039.862744
 21
413.040867
  0
LINE
  8
1
 62
7
  6
CONTINUOUS
 10
1039.532497
 20
412.696478
 11
1039.876886
 21
413.040867
  0
LINE
  8
1
 62
7
  6
CONTINUOUS
 10
1039.529470
 20
412.679308
 11
1039.891028
 21
413.040867
  0
LINE
  8
1
 62
7
  6
CONTINUOUS
 10
1039.526442
 20
412.662139
 11
1039.905171
 21
413.040867
  0
LINE
  8
1
 62
7
  6
CONTINUOUS
 10
1039.523415
 20
412.644969
 11
1039.919313
 21
413.040867
  0
LINE
  8
1
 62
7
  6
CONTINUOUS
 10
1039.520388
 20
412.627800
 11
1039.933455
 21
413.040867
  0
LINE
  8
1
 62
7
  6
CONTINUOUS
 10
1039.517360
 20
412.610630
 11
1039.947597
 21
413.040867
  0
LINE
  8
1
 62
7
  6
CONTINUOUS
 10
1039.514333
 20
412.593460
 11
1039.961739
 21
413.040867
  0
LINE
  8
1
 62
7
  6
CONTINUOUS
 10
1039.511305
 20
412.576291
 11
1039.975881
 21
413.040867
  0
LINE
  8
1
 62
7
  6
CONTINUOUS
 10
1039.508278
 20
412.559121
 11
1039.990023
 21
413.040867
  0
LINE
  8
1
 62
7
  6
CONTINUOUS
 10
1039.505250
 20
412.541952
 11
1040.004166
 21
413.040867
  0
LINE
  8
1
 62
7
  6
CONTINUOUS
 10
1039.518308
 20
412.540867
 11
1040.018308
 21
413.040867
  0
LINE
  8
1
 62
7
  6
CONTINUOUS
 10
1039.532450
 20
412.540867
 11
1040.032450
 21
413.040867
  0
LINE
  8
1
 62
7
  6
CONTINUOUS
 10
1039.546592
 20
412.540867
 11
1040.046592
 21
413.040867
  0
LINE
  8
1
 62
7
  6
CONTINUOUS
 10
1039.560734
 20
412.540867
 11
1040.060734
 21
413.040867
  0
LINE
  8
1
 62
7
  6
CONTINUOUS
 10
1039.574876
 20
412.540867
 11
1040.074876
 21
413.040867
  0
LINE
  8
1
 62
7
  6
CONTINUOUS
 10
1039.589018
 20
412.540867
 11
1040.089018
 21
413.040867
  0
LINE
  8
1
 62
7
  6
CONTINUOUS
 10
1039.603160
 20
412.540867
 11
1040.103160
 21
413.040867
  0
LINE
  8
1
 62
7
  6
CONTINUOUS
 10
1039.617303
 20
412.540867
 11
1040.117303
 21
413.040867
  0
LINE
  8
1
 62
7
  6
CONTINUOUS
 10
1039.631445
 20
412.540867
 11
1040.131445
 21
413.040867
  0
LINE
  8
1
 62
7
  6
CONTINUOUS
 10
1039.645587
 20
412.540867
 11
1040.145587
 21
413.040867
  0
LINE
  8
1
 62
7
  6
CONTINUOUS
 10
1039.659729
 20
412.540867
 11
1040.159729
 21
413.040867
  0
LINE
  8
1
 62
7
  6
CONTINUOUS
 10
1039.673871
 20
412.540867
 11
1040.173871
 21
413.040867
  0
LINE
  8
1
 62
7
  6
CONTINUOUS
 10
1039.688013
 20
412.540867
 11
1040.188013
 21
413.040867
  0
LINE
  8
1
 62
7
  6
CONTINUOUS
 10
1039.702155
 20
412.540867
 11
1040.202155
 21
413.040867
  0
LINE
  8
1
 62
7
  6
CONTINUOUS
 10
1039.716298
 20
412.540867
 11
1040.216298
 21
413.040867
  0
LINE
  8
1
 62
7
  6
CONTINUOUS
 10
1039.730440
 20
412.540867
 11
1040.230440
 21
413.040867
  0
LINE
  8
1
 62
7
  6
CONTINUOUS
 10
1039.744582
 20
412.540867
 11
1040.244582
 21
413.040867
  0
LINE
  8
1
 62
7
  6
CONTINUOUS
 10
1039.758724
 20
412.540867
 11
1040.258724
 21
413.040867
  0
LINE
  8
1
 62
7
  6
CONTINUOUS
 10
1039.772866
 20
412.540867
 11
1040.272866
 21
413.040867
  0
LINE
  8
1
 62
7
  6
CONTINUOUS
 10
1039.787008
 20
412.540867
 11
1040.287008
 21
413.040867
  0
LINE
  8
1
 62
7
  6
CONTINUOUS
 10
1039.801150
 20
412.540867
 11
1040.301150
 21
413.040867
  0
LINE
  8
1
 62
7
  6
CONTINUOUS
 10
1039.810341
 20
412.535915
 11
1040.315293
 21
413.040867
  0
LINE
  8
1
 62
7
  6
CONTINUOUS
 10
1039.811990
 20
412.523422
 11
1040.329435
 21
413.040867
  0
LINE
  8
1
 62
7
  6
CONTINUOUS
 10
1039.813640
 20
412.510930
 11
1040.343577
 21
413.040867
  0
LINE
  8
1
 62
7
  6
CONTINUOUS
 10
1039.815289
 20
412.498437
 11
1040.357719
 21
413.040867
  0
LINE
  8
1
 62
7
  6
CONTINUOUS
 10
1039.816938
 20
412.485944
 11
1040.371861
 21
413.040867
  0
LINE
  8
1
 62
7
  6
CONTINUOUS
 10
1039.818588
 20
412.473452
 11
1040.386003
 21
413.040867
  0
LINE
  8
1
 62
7
  6
CONTINUOUS
 10
1039.820237
 20
412.460959
 11
1040.400145
 21
413.040867
  0
LINE
  8
1
 62
7
  6
CONTINUOUS
 10
1039.821887
 20
412.448466
 11
1040.414287
 21
413.040867
  0
LINE
  8
1
 62
7
  6
CONTINUOUS
 10
1039.823536
 20
412.435973
 11
1040.428430
 21
413.040867
  0
LINE
  8
1
 62
7
  6
CONTINUOUS
 10
1039.825186
 20
412.423481
 11
1040.442572
 21
413.040867
  0
LINE
  8
1
 62
7
  6
CONTINUOUS
 10
1039.826835
 20
412.410988
 11
1040.456714
 21
413.040867
  0
LINE
  8
1
 62
7
  6
CONTINUOUS
 10
1039.828484
 20
412.398495
 11
1040.470856
 21
413.040867
  0
LINE
  8
1
 62
7
  6
CONTINUOUS
 10
1039.830134
 20
412.386003
 11
1040.484998
 21
413.040867
  0
LINE
  8
1
 62
7
  6
CONTINUOUS
 10
1039.831783
 20
412.373510
 11
1040.499140
 21
413.040867
  0
LINE
  8
1
 62
7
  6
CONTINUOUS
 10
1039.833433
 20
412.361017
 11
1040.513282
 21
413.040867
  0
LINE
  8
1
 62
7
  6
CONTINUOUS
 10
1039.835082
 20
412.348524
 11
1040.527425
 21
413.040867
  0
LINE
  8
1
 62
7
  6
CONTINUOUS
 10
1039.836732
 20
412.336032
 11
1040.541567
 21
413.040867
  0
LINE
  8
1
 62
7
  6
CONTINUOUS
 10
1039.838381
 20
412.323539
 11
1040.555709
 21
413.040867
  0
LINE
  8
1
 62
7
  6
CONTINUOUS
 10
1039.840030
 20
412.311046
 11
1040.569851
 21
413.040867
  0
LINE
  8
1
 62
7
  6
CONTINUOUS
 10
1039.841680
 20
412.298554
 11
1040.583993
 21
413.040867
  0
LINE
  8
1
 62
7
  6
CONTINUOUS
 10
1039.843329
 20
412.286061
 11
1040.598135
 21
413.040867
  0
LINE
  8
1
 62
7
  6
CONTINUOUS
 10
1039.844979
 20
412.273568
 11
1040.612277
 21
413.040867
  0
LINE
  8
1
 62
7
  6
CONTINUOUS
 10
1039.846628
 20
412.261075
 11
1040.626420
 21
413.040867
  0
LINE
  8
1
 62
7
  6
CONTINUOUS
 10
1039.848277
 20
412.248583
 11
1040.640562
 21
413.040867
  0
LINE
  8
1
 62
7
  6
CONTINUOUS
 10
1039.849927
 20
412.236090
 11
1040.654704
 21
413.040867
  0
LINE
  8
1
 62
7
  6
CONTINUOUS
 10
1039.851576
 20
412.223597
 11
1040.668846
 21
413.040867
  0
LINE
  8
1
 62
7
  6
CONTINUOUS
 10
1039.853226
 20
412.211105
 11
1040.682988
 21
413.040867
  0
LINE
  8
1
 62
7
  6
CONTINUOUS
 10
1039.854875
 20
412.198612
 11
1040.697130
 21
413.040867
  0
LINE
  8
1
 62
7
  6
CONTINUOUS
 10
1039.856525
 20
412.186119
 11
1040.711272
 21
413.040867
  0
LINE
  8
1
 62
7
  6
CONTINUOUS
 10
1040.225414
 20
412.540867
 11
1040.725414
 21
413.040867
  0
LINE
  8
1
 62
7
  6
CONTINUOUS
 10
1039.858174
 20
412.173627
 11
1040.216972
 21
412.532425
  0
LINE
  8
1
 62
7
  6
CONTINUOUS
 10
1040.239557
 20
412.540867
 11
1040.739557
 21
413.040867
  0
LINE
  8
1
 62
7
  6
CONTINUOUS
 10
1039.859823
 20
412.161134
 11
1040.218622
 21
412.519932
  0
LINE
  8
1
 62
7
  6
CONTINUOUS
 10
1040.253699
 20
412.540867
 11
1040.753699
 21
413.040867
  0
LINE
  8
1
 62
7
  6
CONTINUOUS
 10
1039.861473
 20
412.148641
 11
1040.220271
 21
412.507439
  0
LINE
  8
1
 62
7
  6
CONTINUOUS
 10
1040.267841
 20
412.540867
 11
1040.767841
 21
413.040867
  0
LINE
  8
1
 62
7
  6
CONTINUOUS
 10
1039.863122
 20
412.136148
 11
1040.221921
 21
412.494947
  0
LINE
  8
1
 62
7
  6
CONTINUOUS
 10
1040.281983
 20
412.540867
 11
1040.781983
 21
413.040867
  0
LINE
  8
1
 62
7
  6
CONTINUOUS
 10
1039.864772
 20
412.123656
 11
1040.223570
 21
412.482454
  0
LINE
  8
1
 62
7
  6
CONTINUOUS
 10
1040.296125
 20
412.540867
 11
1040.796125
 21
413.040867
  0
LINE
  8
1
 62
7
  6
CONTINUOUS
 10
1039.866421
 20
412.111163
 11
1040.225219
 21
412.469961
  0
LINE
  8
1
 62
7
  6
CONTINUOUS
 10
1040.310267
 20
412.540867
 11
1040.810267
 21
413.040867
  0
LINE
  8
1
 62
7
  6
CONTINUOUS
 10
1039.868071
 20
412.098670
 11
1040.226869
 21
412.457468
  0
LINE
  8
1
 62
7
  6
CONTINUOUS
 10
1040.324409
 20
412.540867
 11
1040.824409
 21
413.040867
  0
LINE
  8
1
 62
7
  6
CONTINUOUS
 10
1039.869720
 20
412.086178
 11
1040.228518
 21
412.444976
  0
LINE
  8
1
 62
7
  6
CONTINUOUS
 10
1040.338552
 20
412.540867
 11
1040.838552
 21
413.040867
  0
LINE
  8
1
 62
7
  6
CONTINUOUS
 10
1039.871369
 20
412.073685
 11
1040.230168
 21
412.432483
  0
LINE
  8
1
 62
7
  6
CONTINUOUS
 10
1040.352694
 20
412.540867
 11
1040.852694
 21
413.040867
  0
LINE
  8
1
 62
7
  6
CONTINUOUS
 10
1039.873019
 20
412.061192
 11
1040.231817
 21
412.419990
  0
LINE
  8
1
 62
7
  6
CONTINUOUS
 10
1040.366836
 20
412.540867
 11
1040.866836
 21
413.040867
  0
LINE
  8
1
 62
7
  6
CONTINUOUS
 10
1039.874668
 20
412.048699
 11
1040.233466
 21
412.407498
  0
LINE
  8
1
 62
7
  6
CONTINUOUS
 10
1040.380978
 20
412.540867
 11
1040.880978
 21
413.040867
  0
LINE
  8
1
 62
7
  6
CONTINUOUS
 10
1039.876318
 20
412.036207
 11
1040.235116
 21
412.395005
  0
LINE
  8
1
 62
7
  6
CONTINUOUS
 10
1040.395120
 20
412.540867
 11
1040.895120
 21
413.040867
  0
LINE
  8
1
 62
7
  6
CONTINUOUS
 10
1039.877967
 20
412.023714
 11
1040.236765
 21
412.382512
  0
LINE
  8
1
 62
7
  6
CONTINUOUS
 10
1040.409262
 20
412.540867
 11
1040.909262
 21
413.040867
  0
LINE
  8
1
 62
7
  6
CONTINUOUS
 10
1039.879617
 20
412.011221
 11
1040.238415
 21
412.370019
  0
LINE
  8
1
 62
7
  6
CONTINUOUS
 10
1040.423404
 20
412.540867
 11
1040.923404
 21
413.040867
  0
LINE
  8
1
 62
7
  6
CONTINUOUS
 10
1039.881266
 20
411.998729
 11
1040.240064
 21
412.357527
  0
LINE
  8
1
 62
7
  6
CONTINUOUS
 10
1040.437546
 20
412.540867
 11
1040.937546
 21
413.040867
  0
LINE
  8
1
 62
7
  6
CONTINUOUS
 10
1039.882915
 20
411.986236
 11
1040.241714
 21
412.345034
  0
LINE
  8
1
 62
7
  6
CONTINUOUS
 10
1040.451689
 20
412.540867
 11
1040.951689
 21
413.040867
  0
LINE
  8
1
 62
7
  6
CONTINUOUS
 10
1039.884565
 20
411.973743
 11
1040.243363
 21
412.332541
  0
LINE
  8
1
 62
7
  6
CONTINUOUS
 10
1040.465831
 20
412.540867
 11
1040.965831
 21
413.040867
  0
LINE
  8
1
 62
7
  6
CONTINUOUS
 10
1039.886214
 20
411.961250
 11
1040.245012
 21
412.320049
  0
LINE
  8
1
 62
7
  6
CONTINUOUS
 10
1040.479973
 20
412.540867
 11
1040.979973
 21
413.040867
  0
LINE
  8
1
 62
7
  6
CONTINUOUS
 10
1039.887864
 20
411.948758
 11
1040.246662
 21
412.307556
  0
LINE
  8
1
 62
7
  6
CONTINUOUS
 10
1040.494115
 20
412.540867
 11
1040.994115
 21
413.040867
  0
LINE
  8
1
 62
7
  6
CONTINUOUS
 10
1039.889513
 20
411.936265
 11
1040.248311
 21
412.295063
  0
LINE
  8
1
 62
7
  6
CONTINUOUS
 10
1040.508257
 20
412.540867
 11
1041.008257
 21
413.040867
  0
LINE
  8
1
 62
7
  6
CONTINUOUS
 10
1039.891163
 20
411.923772
 11
1040.249961
 21
412.282570
  0
LINE
  8
1
 62
7
  6
CONTINUOUS
 10
1040.522399
 20
412.540867
 11
1041.022399
 21
413.040867
  0
LINE
  8
1
 62
7
  6
CONTINUOUS
 10
1039.892812
 20
411.911280
 11
1040.251610
 21
412.270078
  0
LINE
  8
1
 62
7
  6
CONTINUOUS
 10
1040.536541
 20
412.540867
 11
1041.036541
 21
413.040867
  0
LINE
  8
1
 62
7
  6
CONTINUOUS
 10
1039.894461
 20
411.898787
 11
1040.253260
 21
412.257585
  0
LINE
  8
1
 62
7
  6
CONTINUOUS
 10
1040.550684
 20
412.540867
 11
1041.050684
 21
413.040867
  0
LINE
  8
1
 62
7
  6
CONTINUOUS
 10
1039.896111
 20
411.886294
 11
1040.254909
 21
412.245092
  0
LINE
  8
1
 62
7
  6
CONTINUOUS
 10
1040.564826
 20
412.540867
 11
1041.064826
 21
413.040867
  0
LINE
  8
1
 62
7
  6
CONTINUOUS
 10
1039.897760
 20
411.873801
 11
1040.256558
 21
412.232600
  0
LINE
  8
1
 62
7
  6
CONTINUOUS
 10
1040.578968
 20
412.540867
 11
1041.078968
 21
413.040867
  0
LINE
  8
1
 62
7
  6
CONTINUOUS
 10
1039.899410
 20
411.861309
 11
1040.258208
 21
412.220107
  0
LINE
  8
1
 62
7
  6
CONTINUOUS
 10
1040.593110
 20
412.540867
 11
1041.093110
 21
413.040867
  0
LINE
  8
1
 62
7
  6
CONTINUOUS
 10
1039.901059
 20
411.848816
 11
1040.259857
 21
412.207614
  0
LINE
  8
1
 62
7
  6
CONTINUOUS
 10
1040.607252
 20
412.540867
 11
1041.107252
 21
413.040867
  0
LINE
  8
1
 62
7
  6
CONTINUOUS
 10
1039.902708
 20
411.836323
 11
1040.261507
 21
412.195121
  0
LINE
  8
1
 62
7
  6
CONTINUOUS
 10
1040.621394
 20
412.540867
 11
1041.121394
 21
413.040867
  0
LINE
  8
1
 62
7
  6
CONTINUOUS
 10
1039.904358
 20
411.823831
 11
1040.263156
 21
412.182629
  0
LINE
  8
1
 62
7
  6
CONTINUOUS
 10
1040.635536
 20
412.540867
 11
1041.135536
 21
413.040867
  0
LINE
  8
1
 62
7
  6
CONTINUOUS
 10
1039.906007
 20
411.811338
 11
1040.264806
 21
412.170136
  0
LINE
  8
1
 62
7
  6
CONTINUOUS
 10
1040.649679
 20
412.540867
 11
1041.149679
 21
413.040867
  0
LINE
  8
1
 62
7
  6
CONTINUOUS
 10
1039.907657
 20
411.798845
 11
1040.266455
 21
412.157643
  0
LINE
  8
1
 62
7
  6
CONTINUOUS
 10
1040.663821
 20
412.540867
 11
1041.163821
 21
413.040867
  0
LINE
  8
1
 62
7
  6
CONTINUOUS
 10
1039.909306
 20
411.786352
 11
1040.268104
 21
412.145151
  0
LINE
  8
1
 62
7
  6
CONTINUOUS
 10
1040.677963
 20
412.540867
 11
1041.177963
 21
413.040867
  0
LINE
  8
1
 62
7
  6
CONTINUOUS
 10
1039.910956
 20
411.773860
 11
1040.269754
 21
412.132658
  0
LINE
  8
1
 62
7
  6
CONTINUOUS
 10
1040.692105
 20
412.540867
 11
1041.192105
 21
413.040867
  0
LINE
  8
1
 62
7
  6
CONTINUOUS
 10
1039.912605
 20
411.761367
 11
1040.271403
 21
412.120165
  0
LINE
  8
1
 62
7
  6
CONTINUOUS
 10
1040.706247
 20
412.540867
 11
1041.206247
 21
413.040867
  0
LINE
  8
1
 62
7
  6
CONTINUOUS
 10
1039.914254
 20
411.748874
 11
1040.273053
 21
412.107673
  0
LINE
  8
1
 62
7
  6
CONTINUOUS
 10
1040.720389
 20
412.540867
 11
1041.220389
 21
413.040867
  0
LINE
  8
1
 62
7
  6
CONTINUOUS
 10
1039.915904
 20
411.736382
 11
1040.274702
 21
412.095180
  0
LINE
  8
1
 62
7
  6
CONTINUOUS
 10
1040.734531
 20
412.540867
 11
1041.234531
 21
413.040867
  0
LINE
  8
1
 62
7
  6
CONTINUOUS
 10
1039.917553
 20
411.723889
 11
1040.276352
 21
412.082687
  0
LINE
  8
1
 62
7
  6
CONTINUOUS
 10
1040.748673
 20
412.540867
 11
1041.248673
 21
413.040867
  0
LINE
  8
1
 62
7
  6
CONTINUOUS
 10
1039.919203
 20
411.711396
 11
1040.278001
 21
412.070194
  0
LINE
  8
1
 62
7
  6
CONTINUOUS
 10
1040.762816
 20
412.540867
 11
1041.262816
 21
413.040867
  0
LINE
  8
1
 62
7
  6
CONTINUOUS
 10
1039.920852
 20
411.698903
 11
1040.279650
 21
412.057702
  0
LINE
  8
1
 62
7
  6
CONTINUOUS
 10
1040.776958
 20
412.540867
 11
1041.276958
 21
413.040867
  0
LINE
  8
1
 62
7
  6
CONTINUOUS
 10
1039.922502
 20
411.686411
 11
1040.281300
 21
412.045209
  0
LINE
  8
1
 62
7
  6
CONTINUOUS
 10
1040.791100
 20
412.540867
 11
1041.291100
 21
413.040867
  0
LINE
  8
1
 62
7
  6
CONTINUOUS
 10
1039.924151
 20
411.673918
 11
1040.282949
 21
412.032716
  0
LINE
  8
1
 62
7
  6
CONTINUOUS
 10
1040.805242
 20
412.540867
 11
1041.305242
 21
413.040867
  0
LINE
  8
1
 62
7
  6
CONTINUOUS
 10
1039.925800
 20
411.661425
 11
1040.284599
 21
412.020224
  0
LINE
  8
1
 62
7
  6
CONTINUOUS
 10
1040.819384
 20
412.540867
 11
1041.319384
 21
413.040867
  0
LINE
  8
1
 62
7
  6
CONTINUOUS
 10
1039.927450
 20
411.648933
 11
1040.286248
 21
412.007731
  0
LINE
  8
1
 62
7
  6
CONTINUOUS
 10
1040.833526
 20
412.540867
 11
1041.333526
 21
413.040867
  0
LINE
  8
1
 62
7
  6
CONTINUOUS
 10
1039.929099
 20
411.636440
 11
1040.287897
 21
411.995238
  0
LINE
  8
1
 62
7
  6
CONTINUOUS
 10
1040.847668
 20
412.540867
 11
1041.347668
 21
413.040867
  0
LINE
  8
1
 62
7
  6
CONTINUOUS
 10
1039.930749
 20
411.623947
 11
1040.289547
 21
411.982745
  0
LINE
  8
1
 62
7
  6
CONTINUOUS
 10
1040.861811
 20
412.540867
 11
1041.361811
 21
413.040867
  0
LINE
  8
1
 62
7
  6
CONTINUOUS
 10
1039.932398
 20
411.611454
 11
1040.291196
 21
411.970253
  0
LINE
  8
1
 62
7
  6
CONTINUOUS
 10
1040.875953
 20
412.540867
 11
1041.375953
 21
413.040867
  0
LINE
  8
1
 62
7
  6
CONTINUOUS
 10
1039.934048
 20
411.598962
 11
1040.292846
 21
411.957760
  0
LINE
  8
1
 62
7
  6
CONTINUOUS
 10
1040.890095
 20
412.540867
 11
1041.390095
 21
413.040867
  0
LINE
  8
1
 62
7
  6
CONTINUOUS
 10
1039.935697
 20
411.586469
 11
1040.294495
 21
411.945267
  0
LINE
  8
1
 62
7
  6
CONTINUOUS
 10
1040.904237
 20
412.540867
 11
1041.404237
 21
413.040867
  0
LINE
  8
1
 62
7
  6
CONTINUOUS
 10
1039.937346
 20
411.573976
 11
1040.296145
 21
411.932775
  0
LINE
  8
1
 62
7
  6
CONTINUOUS
 10
1040.918379
 20
412.540867
 11
1041.418379
 21
413.040867
  0
LINE
  8
1
 62
7
  6
CONTINUOUS
 10
1039.938996
 20
411.561484
 11
1040.297794
 21
411.920282
  0
LINE
  8
1
 62
7
  6
CONTINUOUS
 10
1040.932521
 20
412.540867
 11
1041.432521
 21
413.040867
  0
LINE
  8
1
 62
7
  6
CONTINUOUS
 10
1039.940645
 20
411.548991
 11
1040.299443
 21
411.907789
  0
LINE
  8
1
 62
7
  6
CONTINUOUS
 10
1040.946663
 20
412.540867
 11
1041.446663
 21
413.040867
  0
LINE
  8
1
 62
7
  6
CONTINUOUS
 10
1039.942295
 20
411.536498
 11
1040.301093
 21
411.895296
  0
LINE
  8
1
 62
7
  6
CONTINUOUS
 10
1040.960806
 20
412.540867
 11
1041.460806
 21
413.040867
  0
LINE
  8
1
 62
7
  6
CONTINUOUS
 10
1039.943944
 20
411.524006
 11
1040.302742
 21
411.882804
  0
LINE
  8
1
 62
7
  6
CONTINUOUS
 10
1040.974948
 20
412.540867
 11
1041.474948
 21
413.040867
  0
LINE
  8
1
 62
7
  6
CONTINUOUS
 10
1039.945594
 20
411.511513
 11
1040.304392
 21
411.870311
  0
LINE
  8
1
 62
7
  6
CONTINUOUS
 10
1040.989090
 20
412.540867
 11
1041.489090
 21
413.040867
  0
LINE
  8
1
 62
7
  6
CONTINUOUS
 10
1039.947243
 20
411.499020
 11
1040.306041
 21
411.857818
  0
LINE
  8
1
 62
7
  6
CONTINUOUS
 10
1041.003232
 20
412.540867
 11
1041.503232
 21
413.040867
  0
LINE
  8
1
 62
7
  6
CONTINUOUS
 10
1039.948892
 20
411.486527
 11
1040.307691
 21
411.845326
  0
LINE
  8
1
 62
7
  6
CONTINUOUS
 10
1041.017374
 20
412.540867
 11
1041.517374
 21
413.040867
  0
LINE
  8
1
 62
7
  6
CONTINUOUS
 10
1039.950542
 20
411.474035
 11
1040.309340
 21
411.832833
  0
LINE
  8
1
 62
7
  6
CONTINUOUS
 10
1041.031516
 20
412.540867
 11
1041.531516
 21
413.040867
  0
LINE
  8
1
 62
7
  6
CONTINUOUS
 10
1039.952191
 20
411.461542
 11
1040.310989
 21
411.820340
  0
LINE
  8
1
 62
7
  6
CONTINUOUS
 10
1041.045658
 20
412.540867
 11
1041.545658
 21
413.040867
  0
LINE
  8
1
 62
7
  6
CONTINUOUS
 10
1039.953841
 20
411.449049
 11
1040.312639
 21
411.807847
  0
LINE
  8
1
 62
7
  6
CONTINUOUS
 10
1041.059800
 20
412.540867
 11
1041.559800
 21
413.040867
  0
LINE
  8
1
 62
7
  6
CONTINUOUS
 10
1039.955490
 20
411.436557
 11
1040.314288
 21
411.795355
  0
LINE
  8
1
 62
7
  6
CONTINUOUS
 10
1041.073943
 20
412.540867
 11
1041.573943
 21
413.040867
  0
LINE
  8
1
 62
7
  6
CONTINUOUS
 10
1039.957139
 20
411.424064
 11
1040.315938
 21
411.782862
  0
LINE
  8
1
 62
7
  6
CONTINUOUS
 10
1041.088085
 20
412.540867
 11
1041.588085
 21
413.040867
  0
LINE
  8
1
 62
7
  6
CONTINUOUS
 10
1039.958789
 20
411.411571
 11
1040.317587
 21
411.770369
  0
LINE
  8
1
 62
7
  6
CONTINUOUS
 10
1041.102227
 20
412.540867
 11
1041.602227
 21
413.040867
  0
LINE
  8
1
 62
7
  6
CONTINUOUS
 10
1039.960438
 20
411.399078
 11
1040.319237
 21
411.757877
  0
LINE
  8
1
 62
7
  6
CONTINUOUS
 10
1041.116369
 20
412.540867
 11
1041.616369
 21
413.040867
  0
LINE
  8
1
 62
7
  6
CONTINUOUS
 10
1039.962088
 20
411.386586
 11
1040.320886
 21
411.745384
  0
LINE
  8
1
 62
7
  6
CONTINUOUS
 10
1041.130511
 20
412.540867
 11
1041.630511
 21
413.040867
  0
LINE
  8
1
 62
7
  6
CONTINUOUS
 10
1039.963737
 20
411.374093
 11
1040.322535
 21
411.732891
  0
LINE
  8
1
 62
7
  6
CONTINUOUS
 10
1041.144653
 20
412.540867
 11
1041.644653
 21
413.040867
  0
LINE
  8
1
 62
7
  6
CONTINUOUS
 10
1039.965387
 20
411.361600
 11
1040.324185
 21
411.720398
  0
LINE
  8
1
 62
7
  6
CONTINUOUS
 10
1041.158795
 20
412.540867
 11
1041.658795
 21
413.040867
  0
LINE
  8
1
 62
7
  6
CONTINUOUS
 10
1039.967036
 20
411.349108
 11
1040.325834
 21
411.707906
  0
LINE
  8
1
 62
7
  6
CONTINUOUS
 10
1041.172938
 20
412.540867
 11
1041.672938
 21
413.040867
  0
LINE
  8
1
 62
7
  6
CONTINUOUS
 10
1039.968685
 20
411.336615
 11
1040.327484
 21
411.695413
  0
LINE
  8
1
 62
7
  6
CONTINUOUS
 10
1041.187080
 20
412.540867
 11
1041.687080
 21
413.040867
  0
LINE
  8
1
 62
7
  6
CONTINUOUS
 10
1039.970335
 20
411.324122
 11
1040.329133
 21
411.682920
  0
LINE
  8
1
 62
7
  6
CONTINUOUS
 10
1041.201222
 20
412.540867
 11
1041.701222
 21
413.040867
  0
LINE
  8
1
 62
7
  6
CONTINUOUS
 10
1039.971984
 20
411.311629
 11
1040.330782
 21
411.670428
  0
LINE
  8
1
 62
7
  6
CONTINUOUS
 10
1041.215364
 20
412.540867
 11
1041.715364
 21
413.040867
  0
LINE
  8
1
 62
7
  6
CONTINUOUS
 10
1039.973634
 20
411.299137
 11
1040.332432
 21
411.657935
  0
LINE
  8
1
 62
7
  6
CONTINUOUS
 10
1041.229506
 20
412.540867
 11
1041.729506
 21
413.040867
  0
LINE
  8
1
 62
7
  6
CONTINUOUS
 10
1039.975283
 20
411.286644
 11
1040.334081
 21
411.645442
  0
LINE
  8
1
 62
7
  6
CONTINUOUS
 10
1041.243648
 20
412.540867
 11
1041.743648
 21
413.040867
  0
LINE
  8
1
 62
7
  6
CONTINUOUS
 10
1039.976933
 20
411.274151
 11
1040.335731
 21
411.632949
  0
LINE
  8
1
 62
7
  6
CONTINUOUS
 10
1041.257790
 20
412.540867
 11
1041.757790
 21
413.040867
  0
LINE
  8
1
 62
7
  6
CONTINUOUS
 10
1039.978582
 20
411.261659
 11
1040.337380
 21
411.620457
  0
LINE
  8
1
 62
7
  6
CONTINUOUS
 10
1041.271933
 20
412.540867
 11
1041.771933
 21
413.040867
  0
LINE
  8
1
 62
7
  6
CONTINUOUS
 10
1039.980231
 20
411.249166
 11
1040.339030
 21
411.607964
  0
LINE
  8
1
 62
7
  6
CONTINUOUS
 10
1041.286075
 20
412.540867
 11
1041.786075
 21
413.040867
  0
LINE
  8
1
 62
7
  6
CONTINUOUS
 10
1039.981881
 20
411.236673
 11
1040.340679
 21
411.595471
  0
LINE
  8
1
 62
7
  6
CONTINUOUS
 10
1041.300217
 20
412.540867
 11
1041.800217
 21
413.040867
  0
LINE
  8
1
 62
7
  6
CONTINUOUS
 10
1039.983530
 20
411.224180
 11
1040.342328
 21
411.582979
  0
LINE
  8
1
 62
7
  6
CONTINUOUS
 10
1041.314359
 20
412.540867
 11
1041.814359
 21
413.040867
  0
LINE
  8
1
 62
7
  6
CONTINUOUS
 10
1039.985180
 20
411.211688
 11
1040.343978
 21
411.570486
  0
LINE
  8
1
 62
7
  6
CONTINUOUS
 10
1041.328501
 20
412.540867
 11
1041.828501
 21
413.040867
  0
LINE
  8
1
 62
7
  6
CONTINUOUS
 10
1039.986829
 20
411.199195
 11
1040.345627
 21
411.557993
  0
LINE
  8
1
 62
7
  6
CONTINUOUS
 10
1041.342643
 20
412.540867
 11
1041.842643
 21
413.040867
  0
LINE
  8
1
 62
7
  6
CONTINUOUS
 10
1039.988479
 20
411.186702
 11
1040.347277
 21
411.545500
  0
LINE
  8
1
 62
7
  6
CONTINUOUS
 10
1041.356785
 20
412.540867
 11
1041.856785
 21
413.040867
  0
LINE
  8
1
 62
7
  6
CONTINUOUS
 10
1039.990128
 20
411.174210
 11
1040.348926
 21
411.533008
  0
LINE
  8
1
 62
7
  6
CONTINUOUS
 10
1041.370927
 20
412.540867
 11
1041.870927
 21
413.040867
  0
LINE
  8
1
 62
7
  6
CONTINUOUS
 10
1039.991777
 20
411.161717
 11
1040.350576
 21
411.520515
  0
LINE
  8
1
 62
7
  6
CONTINUOUS
 10
1041.385070
 20
412.540867
 11
1041.885070
 21
413.040867
  0
LINE
  8
1
 62
7
  6
CONTINUOUS
 10
1039.993427
 20
411.149224
 11
1040.352225
 21
411.508022
  0
LINE
  8
1
 62
7
  6
CONTINUOUS
 10
1041.399212
 20
412.540867
 11
1041.899212
 21
413.040867
  0
LINE
  8
1
 62
7
  6
CONTINUOUS
 10
1039.995076
 20
411.136731
 11
1040.353874
 21
411.495530
  0
LINE
  8
1
 62
7
  6
CONTINUOUS
 10
1041.413354
 20
412.540867
 11
1041.913354
 21
413.040867
  0
LINE
  8
1
 62
7
  6
CONTINUOUS
 10
1039.996726
 20
411.124239
 11
1040.355524
 21
411.483037
  0
LINE
  8
1
 62
7
  6
CONTINUOUS
 10
1041.427496
 20
412.540867
 11
1041.927496
 21
413.040867
  0
LINE
  8
1
 62
7
  6
CONTINUOUS
 10
1039.998375
 20
411.111746
 11
1040.357173
 21
411.470544
  0
LINE
  8
1
 62
7
  6
CONTINUOUS
 10
1041.427533
 20
412.526762
 11
1041.941638
 21
413.040867
  0
LINE
  8
1
 62
7
  6
CONTINUOUS
 10
1040.000025
 20
411.099253
 11
1040.358823
 21
411.458052
  0
LINE
  8
1
 62
7
  6
CONTINUOUS
 10
1041.414231
 20
412.499318
 11
1041.955780
 21
413.040867
  0
LINE
  8
1
 62
7
  6
CONTINUOUS
 10
1040.001674
 20
411.086761
 11
1040.360472
 21
411.445559
  0
LINE
  8
1
 62
7
  6
CONTINUOUS
 10
1041.400930
 20
412.471874
 11
1041.969922
 21
413.040867
  0
LINE
  8
1
 62
7
  6
CONTINUOUS
 10
1040.003323
 20
411.074268
 11
1040.362122
 21
411.433066
  0
LINE
  8
1
 62
7
  6
CONTINUOUS
 10
1041.387628
 20
412.444431
 11
1041.984065
 21
413.040867
  0
LINE
  8
1
 62
7
  6
CONTINUOUS
 10
1040.004973
 20
411.061775
 11
1040.363771
 21
411.420573
  0
LINE
  8
1
 62
7
  6
CONTINUOUS
 10
1041.374327
 20
412.416987
 11
1041.998207
 21
413.040867
  0
LINE
  8
1
 62
7
  6
CONTINUOUS
 10
1040.006622
 20
411.049282
 11
1040.365420
 21
411.408081
  0
LINE
  8
1
 62
7
  6
CONTINUOUS
 10
1041.361025
 20
412.389543
 11
1042.012349
 21
413.040867
  0
LINE
  8
1
 62
7
  6
CONTINUOUS
 10
1040.008272
 20
411.036790
 11
1040.367070
 21
411.395588
  0
LINE
  8
1
 62
7
  6
CONTINUOUS
 10
1041.347724
 20
412.362100
 11
1042.026491
 21
413.040867
  0
LINE
  8
1
 62
7
  6
CONTINUOUS
 10
1040.009921
 20
411.024297
 11
1040.368719
 21
411.383095
  0
LINE
  8
1
 62
7
  6
CONTINUOUS
 10
1041.334422
 20
412.334656
 11
1042.040633
 21
413.040867
  0
LINE
  8
1
 62
7
  6
CONTINUOUS
 10
1040.011570
 20
411.011804
 11
1040.370369
 21
411.370603
  0
LINE
  8
1
 62
7
  6
CONTINUOUS
 10
1041.321121
 20
412.307212
 11
1042.054775
 21
413.040867
  0
LINE
  8
1
 62
7
  6
CONTINUOUS
 10
1040.013220
 20
410.999312
 11
1040.372018
 21
411.358110
  0
LINE
  8
1
 62
7
  6
CONTINUOUS
 10
1041.307819
 20
412.279769
 11
1042.068917
 21
413.040867
  0
LINE
  8
1
 62
7
  6
CONTINUOUS
 10
1040.014869
 20
410.986819
 11
1040.373668
 21
411.345617
  0
LINE
  8
1
 62
7
  6
CONTINUOUS
 10
1041.294518
 20
412.252325
 11
1042.083059
 21
413.040867
  0
LINE
  8
1
 62
7
  6
CONTINUOUS
 10
1040.016519
 20
410.974326
 11
1040.375317
 21
411.333124
  0
LINE
  8
1
 62
7
  6
CONTINUOUS
 10
1041.281216
 20
412.224881
 11
1042.097202
 21
413.040867
  0
LINE
  8
1
 62
7
  6
CONTINUOUS
 10
1040.018168
 20
410.961833
 11
1040.376966
 21
411.320632
  0
LINE
  8
1
 62
7
  6
CONTINUOUS
 10
1041.267915
 20
412.197438
 11
1042.111344
 21
413.040867
  0
LINE
  8
1
 62
7
  6
CONTINUOUS
 10
1040.019818
 20
410.949341
 11
1040.378616
 21
411.308139
  0
LINE
  8
1
 62
7
  6
CONTINUOUS
 10
1041.254613
 20
412.169994
 11
1042.125486
 21
413.040867
  0
LINE
  8
1
 62
7
  6
CONTINUOUS
 10
1040.021467
 20
410.936848
 11
1040.380265
 21
411.295646
  0
LINE
  8
1
 62
7
  6
CONTINUOUS
 10
1041.241312
 20
412.142550
 11
1042.139628
 21
413.040867
  0
LINE
  8
1
 62
7
  6
CONTINUOUS
 10
1040.023116
 20
410.924355
 11
1040.381915
 21
411.283154
  0
LINE
  8
1
 62
7
  6
CONTINUOUS
 10
1041.228010
 20
412.115107
 11
1042.153770
 21
413.040867
  0
LINE
  8
1
 62
7
  6
CONTINUOUS
 10
1040.024766
 20
410.911863
 11
1040.383564
 21
411.270661
  0
LINE
  8
1
 62
7
  6
CONTINUOUS
 10
1041.214709
 20
412.087663
 11
1042.167912
 21
413.040867
  0
LINE
  8
1
 62
7
  6
CONTINUOUS
 10
1040.026415
 20
410.899370
 11
1040.385213
 21
411.258168
  0
LINE
  8
1
 62
7
  6
CONTINUOUS
 10
1041.201407
 20
412.060220
 11
1042.182054
 21
413.040867
  0
LINE
  8
1
 62
7
  6
CONTINUOUS
 10
1040.028065
 20
410.886877
 11
1040.386863
 21
411.245675
  0
LINE
  8
1
 62
7
  6
CONTINUOUS
 10
1041.188105
 20
412.032776
 11
1042.196197
 21
413.040867
  0
LINE
  8
1
 62
7
  6
CONTINUOUS
 10
1040.029714
 20
410.874385
 11
1040.388512
 21
411.233183
  0
LINE
  8
1
 62
7
  6
CONTINUOUS
 10
1041.174804
 20
412.005332
 11
1042.210339
 21
413.040867
  0
LINE
  8
1
 62
7
  6
CONTINUOUS
 10
1040.031364
 20
410.861892
 11
1040.390162
 21
411.220690
  0
LINE
  8
1
 62
7
  6
CONTINUOUS
 10
1041.161502
 20
411.977889
 11
1042.224481
 21
413.040867
  0
LINE
  8
1
 62
7
  6
CONTINUOUS
 10
1040.033013
 20
410.849399
 11
1040.391811
 21
411.208197
  0
LINE
  8
1
 62
7
  6
CONTINUOUS
 10
1041.148201
 20
411.950445
 11
1042.232199
 21
413.034443
  0
LINE
  8
1
 62
7
  6
CONTINUOUS
 10
1040.034662
 20
410.836906
 11
1040.393461
 21
411.195705
  0
LINE
  8
1
 62
7
  6
CONTINUOUS
 10
1041.134899
 20
411.923001
 11
1042.229171
 21
413.017273
  0
LINE
  8
1
 62
7
  6
CONTINUOUS
 10
1040.036312
 20
410.824414
 11
1040.395110
 21
411.183212
  0
LINE
  8
1
 62
7
  6
CONTINUOUS
 10
1041.121598
 20
411.895558
 11
1042.226144
 21
413.000104
  0
LINE
  8
1
 62
7
  6
CONTINUOUS
 10
1040.037961
 20
410.811921
 11
1040.396759
 21
411.170719
  0
LINE
  8
1
 62
7
  6
CONTINUOUS
 10
1041.108296
 20
411.868114
 11
1042.223117
 21
412.982934
  0
LINE
  8
1
 62
7
  6
CONTINUOUS
 10
1040.039611
 20
410.799428
 11
1040.398409
 21
411.158226
  0
LINE
  8
1
 62
7
  6
CONTINUOUS
 10
1041.094995
 20
411.840670
 11
1042.220089
 21
412.965764
  0
LINE
  8
1
 62
7
  6
CONTINUOUS
 10
1040.041260
 20
410.786936
 11
1040.400058
 21
411.145734
  0
LINE
  8
1
 62
7
  6
CONTINUOUS
 10
1041.081693
 20
411.813227
 11
1042.217062
 21
412.948595
  0
LINE
  8
1
 62
7
  6
CONTINUOUS
 10
1040.042910
 20
410.774443
 11
1040.401708
 21
411.133241
  0
LINE
  8
1
 62
7
  6
CONTINUOUS
 10
1041.068392
 20
411.785783
 11
1042.214034
 21
412.931425
  0
LINE
  8
1
 62
7
  6
CONTINUOUS
 10
1040.044559
 20
410.761950
 11
1040.403357
 21
411.120748
  0
LINE
  8
1
 62
7
  6
CONTINUOUS
 10
1041.055090
 20
411.758339
 11
1042.211007
 21
412.914256
  0
LINE
  8
1
 62
7
  6
CONTINUOUS
 10
1040.046208
 20
410.749457
 11
1040.405007
 21
411.108256
  0
LINE
  8
1
 62
7
  6
CONTINUOUS
 10
1041.851760
 20
412.540867
 11
1042.207979
 21
412.897086
  0
LINE
  8
1
 62
7
  6
CONTINUOUS
 10
1041.041789
 20
411.730896
 11
1041.829987
 21
412.519094
  0
LINE
  8
1
 62
7
  6
CONTINUOUS
 10
1040.047858
 20
410.736965
 11
1040.406656
 21
411.095763
  0
LINE
  8
1
 62
7
  6
CONTINUOUS
 10
1041.865902
 20
412.540867
 11
1042.204952
 21
412.879916
  0
LINE
  8
1
 62
7
  6
CONTINUOUS
 10
1041.028487
 20
411.703452
 11
1041.816686
 21
412.491650
  0
LINE
  8
1
 62
7
  6
CONTINUOUS
 10
1040.049507
 20
410.724472
 11
1040.408305
 21
411.083270
  0
LINE
  8
1
 62
7
  6
CONTINUOUS
 10
1041.880044
 20
412.540867
 11
1042.201924
 21
412.862747
  0
LINE
  8
1
 62
7
  6
CONTINUOUS
 10
1041.015186
 20
411.676008
 11
1041.803384
 21
412.464207
  0
LINE
  8
1
 62
7
  6
CONTINUOUS
 10
1040.051157
 20
410.711979
 11
1040.409955
 21
411.070777
  0
LINE
  8
1
 62
7
  6
CONTINUOUS
 10
1041.894186
 20
412.540867
 11
1042.198897
 21
412.845577
  0
LINE
  8
1
 62
7
  6
CONTINUOUS
 10
1041.001884
 20
411.648565
 11
1041.790083
 21
412.436763
  0
LINE
  8
1
 62
7
  6
CONTINUOUS
 10
1040.052806
 20
410.699487
 11
1040.411604
 21
411.058285
  0
LINE
  8
1
 62
7
  6
CONTINUOUS
 10
1041.908329
 20
412.540867
 11
1042.195869
 21
412.828408
  0
LINE
  8
1
 62
7
  6
CONTINUOUS
 10
1040.988583
 20
411.621121
 11
1041.776781
 21
412.409319
  0
LINE
  8
1
 62
7
  6
CONTINUOUS
 10
1040.054456
 20
410.686994
 11
1040.413254
 21
411.045792
  0
LINE
  8
1
 62
7
  6
CONTINUOUS
 10
1041.922471
 20
412.540867
 11
1042.192842
 21
412.811238
  0
LINE
  8
1
 62
7
  6
CONTINUOUS
 10
1040.975281
 20
411.593677
 11
1041.763480
 21
412.381876
  0
LINE
  8
1
 62
7
  6
CONTINUOUS
 10
1040.056105
 20
410.674501
 11
1040.414903
 21
411.033299
  0
LINE
  8
1
 62
7
  6
CONTINUOUS
 10
1041.936613
 20
412.540867
 11
1042.189814
 21
412.794068
  0
LINE
  8
1
 62
7
  6
CONTINUOUS
 10
1040.961979
 20
411.566234
 11
1041.750178
 21
412.354432
  0
LINE
  8
1
 62
7
  6
CONTINUOUS
 10
1040.057754
 20
410.662008
 11
1040.416553
 21
411.020807
  0
LINE
  8
1
 62
7
  6
CONTINUOUS
 10
1041.950755
 20
412.540867
 11
1042.186787
 21
412.776899
  0
LINE
  8
1
 62
7
  6
CONTINUOUS
 10
1040.948678
 20
411.538790
 11
1041.736877
 21
412.326988
  0
LINE
  8
1
 62
7
  6
CONTINUOUS
 10
1040.059404
 20
410.649516
 11
1040.418202
 21
411.008314
  0
LINE
  8
1
 62
7
  6
CONTINUOUS
 10
1041.964897
 20
412.540867
 11
1042.183760
 21
412.759729
  0
LINE
  8
1
 62
7
  6
CONTINUOUS
 10
1040.935376
 20
411.511346
 11
1041.723575
 21
412.299545
  0
LINE
  8
1
 62
7
  6
CONTINUOUS
 10
1040.061053
 20
410.637023
 11
1040.419851
 21
410.995821
  0
LINE
  8
1
 62
7
  6
CONTINUOUS
 10
1041.979039
 20
412.540867
 11
1042.180732
 21
412.742560
  0
LINE
  8
1
 62
7
  6
CONTINUOUS
 10
1040.922075
 20
411.483903
 11
1041.710273
 21
412.272101
  0
LINE
  8
1
 62
7
  6
CONTINUOUS
 10
1040.062703
 20
410.624530
 11
1040.421501
 21
410.983328
  0
LINE
  8
1
 62
7
  6
CONTINUOUS
 10
1041.993181
 20
412.540867
 11
1042.177705
 21
412.725390
  0
LINE
  8
1
 62
7
  6
CONTINUOUS
 10
1040.908773
 20
411.456459
 11
1041.696972
 21
412.244657
  0
LINE
  8
1
 62
7
  6
CONTINUOUS
 10
1040.064352
 20
410.612038
 11
1040.423150
 21
410.970836
  0
LINE
  8
1
 62
7
  6
CONTINUOUS
 10
1042.007324
 20
412.540867
 11
1042.174677
 21
412.708220
  0
LINE
  8
1
 62
7
  6
CONTINUOUS
 10
1040.895472
 20
411.429015
 11
1041.683670
 21
412.217214
  0
LINE
  8
1
 62
7
  6
CONTINUOUS
 10
1040.066001
 20
410.599545
 11
1040.424800
 21
410.958343
  0
LINE
  8
1
 62
7
  6
CONTINUOUS
 10
1042.021466
 20
412.540867
 11
1042.171650
 21
412.691051
  0
LINE
  8
1
 62
7
  6
CONTINUOUS
 10
1040.882170
 20
411.401572
 11
1041.670369
 21
412.189770
  0
LINE
  8
1
 62
7
  6
CONTINUOUS
 10
1040.067651
 20
410.587052
 11
1040.426449
 21
410.945850
  0
LINE
  8
1
 62
7
  6
CONTINUOUS
 10
1042.035608
 20
412.540867
 11
1042.168622
 21
412.673881
  0
LINE
  8
1
 62
7
  6
CONTINUOUS
 10
1040.868869
 20
411.374128
 11
1041.657067
 21
412.162326
  0
LINE
  8
1
 62
7
  6
CONTINUOUS
 10
1040.069300
 20
410.574559
 11
1040.428099
 21
410.933358
  0
LINE
  8
1
 62
7
  6
CONTINUOUS
 10
1042.049750
 20
412.540867
 11
1042.165595
 21
412.656712
  0
LINE
  8
1
 62
7
  6
CONTINUOUS
 10
1040.855567
 20
411.346684
 11
1041.643766
 21
412.134883
  0
LINE
  8
1
 62
7
  6
CONTINUOUS
 10
1040.070950
 20
410.562067
 11
1040.429748
 21
410.920865
  0
LINE
  8
1
 62
7
  6
CONTINUOUS
 10
1042.063892
 20
412.540867
 11
1042.162567
 21
412.639542
  0
LINE
  8
1
 62
7
  6
CONTINUOUS
 10
1040.842266
 20
411.319241
 11
1041.630464
 21
412.107439
  0
LINE
  8
1
 62
7
  6
CONTINUOUS
 10
1040.072599
 20
410.549574
 11
1040.431397
 21
410.908372
  0
LINE
  8
1
 62
7
  6
CONTINUOUS
 10
1042.078034
 20
412.540867
 11
1042.159540
 21
412.622373
  0
LINE
  8
1
 62
7
  6
CONTINUOUS
 10
1040.828964
 20
411.291797
 11
1041.617163
 21
412.079995
  0
LINE
  8
1
 62
7
  6
CONTINUOUS
 10
1040.074249
 20
410.537081
 11
1040.433047
 21
410.895879
  0
LINE
  8
1
 62
7
  6
CONTINUOUS
 10
1042.092176
 20
412.540867
 11
1042.156512
 21
412.605203
  0
LINE
  8
1
 62
7
  6
CONTINUOUS
 10
1040.815663
 20
411.264353
 11
1041.603861
 21
412.052552
  0
LINE
  8
1
 62
7
  6
CONTINUOUS
 10
1040.075898
 20
410.524589
 11
1040.434696
 21
410.883387
  0
LINE
  8
1
 62
7
  6
CONTINUOUS
 10
1042.106319
 20
412.540867
 11
1042.153485
 21
412.588033
  0
LINE
  8
1
 62
7
  6
CONTINUOUS
 10
1040.802361
 20
411.236910
 11
1041.590560
 21
412.025108
  0
LINE
  8
1
 62
7
  6
CONTINUOUS
 10
1040.077547
 20
410.512096
 11
1040.436346
 21
410.870894
  0
LINE
  8
1
 62
7
  6
CONTINUOUS
 10
1042.120461
 20
412.540867
 11
1042.150457
 21
412.570864
  0
LINE
  8
1
 62
7
  6
CONTINUOUS
 10
1040.789060
 20
411.209466
 11
1041.577258
 21
411.997664
  0
LINE
  8
1
 62
7
  6
CONTINUOUS
 10
1040.079197
 20
410.499603
 11
1040.437995
 21
410.858401
  0
LINE
  8
1
 62
7
  6
CONTINUOUS
 10
1042.134603
 20
412.540867
 11
1042.147430
 21
412.553694
  0
LINE
  8
1
 62
7
  6
CONTINUOUS
 10
1040.775758
 20
411.182022
 11
1041.563957
 21
411.970221
  0
LINE
  8
1
 62
7
  6
CONTINUOUS
 10
1040.080846
 20
410.487110
 11
1040.439644
 21
410.845909
  0
LINE
  8
1
 62
7
  6
CONTINUOUS
 10
1040.762457
 20
411.154579
 11
1041.550655
 21
411.942777
  0
LINE
  8
1
 62
7
  6
CONTINUOUS
 10
1040.082496
 20
410.474618
 11
1040.441294
 21
410.833416
  0
LINE
  8
1
 62
7
  6
CONTINUOUS
 10
1040.749155
 20
411.127135
 11
1041.537354
 21
411.915333
  0
LINE
  8
1
 62
7
  6
CONTINUOUS
 10
1040.084145
 20
410.462125
 11
1040.442943
 21
410.820923
  0
LINE
  8
1
 62
7
  6
CONTINUOUS
 10
1040.735853
 20
411.099691
 11
1041.524052
 21
411.887890
  0
LINE
  8
1
 62
7
  6
CONTINUOUS
 10
1040.085795
 20
410.449632
 11
1040.444593
 21
410.808431
  0
LINE
  8
1
 62
7
  6
CONTINUOUS
 10
1040.722552
 20
411.072248
 11
1041.510751
 21
411.860446
  0
LINE
  8
1
 62
7
  6
CONTINUOUS
 10
1040.087444
 20
410.437140
 11
1040.446242
 21
410.795938
  0
LINE
  8
1
 62
7
  6
CONTINUOUS
 10
1040.709250
 20
411.044804
 11
1041.497449
 21
411.833002
  0
LINE
  8
1
 62
7
  6
CONTINUOUS
 10
1040.089093
 20
410.424647
 11
1040.447892
 21
410.783445
  0
LINE
  8
1
 62
7
  6
CONTINUOUS
 10
1040.695949
 20
411.017360
 11
1041.484147
 21
411.805559
  0
LINE
  8
1
 62
7
  6
CONTINUOUS
 10
1040.090743
 20
410.412154
 11
1040.449541
 21
410.770952
  0
LINE
  8
1
 62
7
  6
CONTINUOUS
 10
1040.682647
 20
410.989917
 11
1041.470846
 21
411.778115
  0
LINE
  8
1
 62
7
  6
CONTINUOUS
 10
1040.092392
 20
410.399661
 11
1040.451190
 21
410.758460
  0
LINE
  8
1
 62
7
  6
CONTINUOUS
 10
1040.669346
 20
410.962473
 11
1041.457544
 21
411.750671
  0
LINE
  8
1
 62
7
  6
CONTINUOUS
 10
1040.094042
 20
410.387169
 11
1040.452840
 21
410.745967
  0
LINE
  8
1
 62
7
  6
CONTINUOUS
 10
1040.656044
 20
410.935029
 11
1041.444243
 21
411.723228
  0
LINE
  8
1
 62
7
  6
CONTINUOUS
 10
1040.095691
 20
410.374676
 11
1040.454489
 21
410.733474
  0
LINE
  8
1
 62
7
  6
CONTINUOUS
 10
1040.642743
 20
410.907586
 11
1041.430941
 21
411.695784
  0
LINE
  8
1
 62
7
  6
CONTINUOUS
 10
1040.097341
 20
410.362183
 11
1040.456139
 21
410.720982
  0
LINE
  8
1
 62
7
  6
CONTINUOUS
 10
1040.629441
 20
410.880142
 11
1041.417640
 21
411.668340
  0
LINE
  8
1
 62
7
  6
CONTINUOUS
 10
1040.098990
 20
410.349691
 11
1040.457788
 21
410.708489
  0
LINE
  8
1
 62
7
  6
CONTINUOUS
 10
1040.616140
 20
410.852698
 11
1041.404338
 21
411.640897
  0
LINE
  8
1
 62
7
  6
CONTINUOUS
 10
1040.100639
 20
410.337198
 11
1040.459438
 21
410.695996
  0
LINE
  8
1
 62
7
  6
CONTINUOUS
 10
1040.602838
 20
410.825255
 11
1041.391037
 21
411.613453
  0
LINE
  8
1
 62
7
  6
CONTINUOUS
 10
1040.102289
 20
410.324705
 11
1040.461087
 21
410.683503
  0
LINE
  8
1
 62
7
  6
CONTINUOUS
 10
1040.589537
 20
410.797811
 11
1041.377735
 21
411.586009
  0
LINE
  8
1
 62
7
  6
CONTINUOUS
 10
1040.103938
 20
410.312212
 11
1040.462736
 21
410.671011
  0
LINE
  8
1
 62
7
  6
CONTINUOUS
 10
1040.576235
 20
410.770367
 11
1041.364434
 21
411.558566
  0
LINE
  8
1
 62
7
  6
CONTINUOUS
 10
1040.105588
 20
410.299720
 11
1040.464386
 21
410.658518
  0
LINE
  8
1
 62
7
  6
CONTINUOUS
 10
1040.562934
 20
410.742924
 11
1041.351132
 21
411.531122
  0
LINE
  8
1
 62
7
  6
CONTINUOUS
 10
1040.107237
 20
410.287227
 11
1040.466035
 21
410.646025
  0
LINE
  8
1
 62
7
  6
CONTINUOUS
 10
1040.549632
 20
410.715480
 11
1041.337831
 21
411.503678
  0
LINE
  8
1
 62
7
  6
CONTINUOUS
 10
1040.108886
 20
410.274734
 11
1040.467685
 21
410.633533
  0
LINE
  8
1
 62
7
  6
CONTINUOUS
 10
1040.536331
 20
410.688036
 11
1041.324529
 21
411.476235
  0
LINE
  8
1
 62
7
  6
CONTINUOUS
 10
1040.110536
 20
410.262242
 11
1040.469334
 21
410.621040
  0
LINE
  8
1
 62
7
  6
CONTINUOUS
 10
1040.523029
 20
410.660593
 11
1041.311228
 21
411.448791
  0
LINE
  8
1
 62
7
  6
CONTINUOUS
 10
1040.112185
 20
410.249749
 11
1040.470984
 21
410.608547
  0
LINE
  8
1
 62
7
  6
CONTINUOUS
 10
1040.509727
 20
410.633149
 11
1041.297926
 21
411.421348
  0
LINE
  8
1
 62
7
  6
CONTINUOUS
 10
1040.113835
 20
410.237256
 11
1040.472633
 21
410.596054
  0
LINE
  8
1
 62
7
  6
CONTINUOUS
 10
1040.496426
 20
410.605705
 11
1041.284625
 21
411.393904
  0
LINE
  8
1
 62
7
  6
CONTINUOUS
 10
1040.115484
 20
410.224764
 11
1040.474282
 21
410.583562
  0
LINE
  8
1
 62
7
  6
CONTINUOUS
 10
1040.483124
 20
410.578262
 11
1041.271323
 21
411.366460
  0
LINE
  8
1
 62
7
  6
CONTINUOUS
 10
1040.117134
 20
410.212271
 11
1040.475932
 21
410.571069
  0
LINE
  8
1
 62
7
  6
CONTINUOUS
 10
1040.118783
 20
410.199778
 11
1041.258021
 21
411.339017
  0
LINE
  8
1
 62
7
  6
CONTINUOUS
 10
1040.120432
 20
410.187285
 11
1041.244720
 21
411.311573
  0
LINE
  8
1
 62
7
  6
CONTINUOUS
 10
1040.122082
 20
410.174793
 11
1041.231418
 21
411.284129
  0
LINE
  8
1
 62
7
  6
CONTINUOUS
 10
1040.123731
 20
410.162300
 11
1041.218117
 21
411.256686
  0
LINE
  8
1
 62
7
  6
CONTINUOUS
 10
1040.125381
 20
410.149807
 11
1041.204815
 21
411.229242
  0
LINE
  8
1
 62
7
  6
CONTINUOUS
 10
1040.127030
 20
410.137315
 11
1041.191514
 21
411.201798
  0
LINE
  8
1
 62
7
  6
CONTINUOUS
 10
1040.128680
 20
410.124822
 11
1041.178212
 21
411.174355
  0
LINE
  8
1
 62
7
  6
CONTINUOUS
 10
1040.130329
 20
410.112329
 11
1041.164911
 21
411.146911
  0
LINE
  8
1
 62
7
  6
CONTINUOUS
 10
1040.131978
 20
410.099836
 11
1041.151609
 21
411.119467
  0
LINE
  8
1
 62
7
  6
CONTINUOUS
 10
1040.133628
 20
410.087344
 11
1041.138308
 21
411.092024
  0
LINE
  8
1
 62
7
  6
CONTINUOUS
 10
1040.135277
 20
410.074851
 11
1041.125006
 21
411.064580
  0
LINE
  8
1
 62
7
  6
CONTINUOUS
 10
1040.136927
 20
410.062358
 11
1041.111705
 21
411.037136
  0
LINE
  8
1
 62
7
  6
CONTINUOUS
 10
1040.138576
 20
410.049866
 11
1041.098403
 21
411.009693
  0
LINE
  8
1
 62
7
  6
CONTINUOUS
 10
1040.140226
 20
410.037373
 11
1041.085102
 21
410.982249
  0
LINE
  8
1
 62
7
  6
CONTINUOUS
 10
1040.141875
 20
410.024880
 11
1041.071800
 21
410.954805
  0
LINE
  8
1
 62
7
  6
CONTINUOUS
 10
1040.143524
 20
410.012387
 11
1041.058499
 21
410.927362
  0
LINE
  8
1
 62
7
  6
CONTINUOUS
 10
1040.145174
 20
409.999895
 11
1041.045197
 21
410.899918
  0
LINE
  8
1
 62
7
  6
CONTINUOUS
 10
1040.146823
 20
409.987402
 11
1041.031895
 21
410.872474
  0
LINE
  8
1
 62
7
  6
CONTINUOUS
 10
1040.148473
 20
409.974909
 11
1041.018594
 21
410.845031
  0
LINE
  8
1
 62
7
  6
CONTINUOUS
 10
1040.150122
 20
409.962417
 11
1041.005292
 21
410.817587
  0
LINE
  8
1
 62
7
  6
CONTINUOUS
 10
1040.151772
 20
409.949924
 11
1040.991991
 21
410.790143
  0
LINE
  8
1
 62
7
  6
CONTINUOUS
 10
1040.153421
 20
409.937431
 11
1040.978689
 21
410.762700
  0
LINE
  8
1
 62
7
  6
CONTINUOUS
 10
1040.155070
 20
409.924938
 11
1040.965388
 21
410.735256
  0
LINE
  8
1
 62
7
  6
CONTINUOUS
 10
1040.156720
 20
409.912446
 11
1040.952086
 21
410.707812
  0
LINE
  8
1
 62
7
  6
CONTINUOUS
 10
1040.164873
 20
409.906456
 11
1040.938785
 21
410.680369
  0
LINE
  8
1
 62
7
  6
CONTINUOUS
 10
1040.179015
 20
409.906456
 11
1040.925483
 21
410.652925
  0
LINE
  8
1
 62
7
  6
CONTINUOUS
 10
1040.193157
 20
409.906456
 11
1040.912182
 21
410.625481
  0
LINE
  8
1
 62
7
  6
CONTINUOUS
 10
1040.207299
 20
409.906456
 11
1040.898880
 21
410.598038
  0
LINE
  8
1
 62
7
  6
CONTINUOUS
 10
1040.221441
 20
409.906456
 11
1040.885579
 21
410.570594
  0
LINE
  8
1
 62
7
  6
CONTINUOUS
 10
1040.235583
 20
409.906456
 11
1040.872277
 21
410.543150
  0
LINE
  8
1
 62
7
  6
CONTINUOUS
 10
1040.249725
 20
409.906456
 11
1040.858976
 21
410.515707
  0
LINE
  8
1
 62
7
  6
CONTINUOUS
 10
1040.263867
 20
409.906456
 11
1040.845674
 21
410.488263
  0
LINE
  8
1
 62
7
  6
CONTINUOUS
 10
1040.278010
 20
409.906456
 11
1040.832373
 21
410.460819
  0
LINE
  8
1
 62
7
  6
CONTINUOUS
 10
1040.292152
 20
409.906456
 11
1040.819071
 21
410.433376
  0
LINE
  8
1
 62
7
  6
CONTINUOUS
 10
1040.306294
 20
409.906456
 11
1040.805769
 21
410.405932
  0
LINE
  8
1
 62
7
  6
CONTINUOUS
 10
1040.320436
 20
409.906456
 11
1040.792468
 21
410.378488
  0
LINE
  8
1
 62
7
  6
CONTINUOUS
 10
1040.334578
 20
409.906456
 11
1040.779166
 21
410.351045
  0
LINE
  8
1
 62
7
  6
CONTINUOUS
 10
1040.348720
 20
409.906456
 11
1040.765865
 21
410.323601
  0
LINE
  8
1
 62
7
  6
CONTINUOUS
 10
1040.362862
 20
409.906456
 11
1040.752563
 21
410.296157
  0
LINE
  8
1
 62
7
  6
CONTINUOUS
 10
1040.377005
 20
409.906456
 11
1040.739262
 21
410.268714
  0
LINE
  8
1
 62
7
  6
CONTINUOUS
 10
1040.391147
 20
409.906456
 11
1040.725960
 21
410.241270
  0
LINE
  8
1
 62
7
  6
CONTINUOUS
 10
1040.405289
 20
409.906456
 11
1040.712659
 21
410.213826
  0
LINE
  8
1
 62
7
  6
CONTINUOUS
 10
1040.419431
 20
409.906456
 11
1040.699357
 21
410.186383
  0
LINE
  8
1
 62
7
  6
CONTINUOUS
 10
1040.433573
 20
409.906456
 11
1040.686056
 21
410.158939
  0
LINE
  8
1
 62
7
  6
CONTINUOUS
 10
1040.447715
 20
409.906456
 11
1040.672754
 21
410.131495
  0
LINE
  8
1
 62
7
  6
CONTINUOUS
 10
1040.461857
 20
409.906456
 11
1040.659453
 21
410.104052
  0
LINE
  8
1
 62
7
  6
CONTINUOUS
 10
1040.476000
 20
409.906456
 11
1040.646151
 21
410.076608
  0
LINE
  8
1
 62
7
  6
CONTINUOUS
 10
1040.490142
 20
409.906456
 11
1040.632850
 21
410.049164
  0
LINE
  8
1
 62
7
  6
CONTINUOUS
 10
1040.504284
 20
409.906456
 11
1040.619548
 21
410.021721
  0
LINE
  8
1
 62
7
  6
CONTINUOUS
 10
1040.518426
 20
409.906456
 11
1040.606247
 21
409.994277
  0
LINE
  8
1
 62
7
  6
CONTINUOUS
 10
1040.532568
 20
409.906456
 11
1040.592945
 21
409.966833
  0
LINE
  8
1
 62
7
  6
CONTINUOUS
 10
1040.546710
 20
409.906456
 11
1040.579643
 21
409.939390
  0
LINE
  8
1
 62
7
  6
CONTINUOUS
 10
1040.560852
 20
409.906456
 11
1040.566342
 21
409.911946
  0
LINE
  8
1
 62
7
  6
CONTINUOUS
 10
1093.167560
 20
396.535031
 11
1118.739322
 21
396.535031
  0
LINE
  8
1
 62
7
  6
CONTINUOUS
 10
1184.784083
 20
429.518788
 11
1184.784083
 21
405.407048
  0
LINE
  8
1
 62
7
  6
CONTINUOUS
 10
1173.284083
 20
436.158316
 11
1173.284083
 21
438.971881
  0
LINE
  8
1
 62
7
  6
CONTINUOUS
 10
1173.284083
 20
436.158316
 11
1184.784083
 21
429.518788
  0
LINE
  8
1
 62
7
  6
CONTINUOUS
 10
1184.784083
 20
437.601692
 11
1184.784083
 21
429.518788
  0
LINE
  8
1
 62
7
  6
CONTINUOUS
 10
1178.383256
 20
441.297211
 11
1184.784083
 21
437.601692
  0
LINE
  8
1
 62
7
  6
CONTINUOUS
 10
1173.284083
 20
444.241220
 11
1173.284083
 21
445.407048
  0
LINE
  8
1
 62
7
  6
CONTINUOUS
 10
1176.192633
 20
442.561968
 11
1173.284083
 21
444.241220
  0
LINE
  8
1
 62
7
  6
CONTINUOUS
 10
1183.806316
 20
449.429649
 11
1199.784083
 21
449.429649
  0
LINE
  8
1
 62
7
  6
CONTINUOUS
 10
1182.199929
 20
444.867156
 11
1184.319981
 21
443.643143
  0
LINE
  8
1
 62
7
  6
CONTINUOUS
 10
1173.284083
 20
440.853019
 11
1173.284083
 21
444.241220
  0
LINE
  8
1
 62
7
  6
CONTINUOUS
 10
1173.284083
 20
438.971881
 11
1173.284083
 21
439.257048
  0
LINE
  8
1
 62
7
  6
CONTINUOUS
 10
1173.284083
 20
439.946282
 11
1173.284083
 21
440.258939
  0
LINE
  8
1
 62
7
  6
CONTINUOUS
 10
1173.284083
 20
451.429649
 11
1173.284083
 21
445.407048
  0
LINE
  8
1
 62
7
  6
CONTINUOUS
 10
1180.762615
 20
451.429649
 11
1173.284083
 21
451.429649
  0
LINE
  8
1
 62
7
  6
CONTINUOUS
 10
1184.784083
 20
451.429649
 11
1184.038450
 21
451.429649
  0
LINE
  8
1
 62
7
  6
CONTINUOUS
 10
1173.284083
 20
440.258939
 11
1173.284083
 21
440.853019
  0
LINE
  8
1
 62
7
  6
CONTINUOUS
 10
1168.284083
 20
439.257048
 11
1168.284083
 21
342.407048
  0
LINE
  8
1
 62
7
  6
CONTINUOUS
 10
1173.284083
 20
439.257048
 11
1173.284083
 21
439.946282
  0
LINE
  8
1
 62
7
  6
CONTINUOUS
 10
1168.284083
 20
439.257048
 11
1173.284083
 21
439.257048
  0
LINE
  8
1
 62
7
  6
CONTINUOUS
 10
1051.762653
 20
408.681928
 11
1048.493151
 21
407.805867
  0
LINE
  8
1
 62
7
  6
CONTINUOUS
 10
1050.072530
 20
411.334889
 11
1047.716694
 21
410.703645
  0
LINE
  8
1
 62
7
  6
CONTINUOUS
 10
1062.724852
 20
423.517055
 11
1075.878216
 21
439.192623
  0
LINE
  8
1
 62
7
  6
CONTINUOUS
 10
1059.696527
 20
422.241624
 11
1051.086981
 21
411.981166
  0
LINE
  8
1
 62
7
  6
CONTINUOUS
 10
1061.945556
 20
420.254740
 11
1052.777104
 21
409.328204
  0
LINE
  8
1
 62
7
  6
CONTINUOUS
 10
1059.800632
 20
422.054546
 11
1061.945556
 21
420.254740
  0
LINE
  8
1
 62
7
  6
CONTINUOUS
 10
1061.306345
 20
424.315702
 11
1059.763655
 21
422.477195
  0
LINE
  8
1
 62
7
  6
CONTINUOUS
 10
1063.873919
 20
422.552874
 11
1061.728995
 21
424.352679
  0
LINE
  8
128
 62
7
  6
CONTINUOUS
 10
1060.659981
 20
418.722652
 11
1061.809048
 21
417.758470
  0
LINE
  8
128
 62
7
  6
CONTINUOUS
 10
1065.159494
 20
424.084963
 11
1066.308561
 21
423.120781
  0
LINE
  8
128
 62
7
  6
CONTINUOUS
 10
1061.945556
 20
420.254740
 11
1062.328578
 21
419.933347
  0
LINE
  8
1
 62
7
  6
CONTINUOUS
 10
1082.548927
 20
439.907048
 11
1082.548927
 21
440.557048
  0
LINE
  8
1
 62
7
  6
CONTINUOUS
 10
1077.410305
 20
439.907048
 11
1082.548927
 21
439.907048
  0
LINE
  8
1
 62
7
  6
CONTINUOUS
 10
1051.932042
 20
410.654685
 11
1060.796490
 21
421.218922
  0
LINE
  8
1
 62
7
  6
CONTINUOUS
 10
1075.178754
 20
440.692623
 11
1061.526681
 21
424.422716
  0
LINE
  8
128
 62
7
  6
CONTINUOUS
 10
1076.048927
 20
437.062484
 11
1076.048927
 21
435.092868
  0
LINE
  8
1
 62
7
  6
CONTINUOUS
 10
1076.048927
 20
437.062484
 11
1063.873919
 21
422.552874
  0
LINE
  8
1
 62
7
  6
CONTINUOUS
 10
1080.948927
 20
438.407048
 11
1078.109766
 21
438.407048
  0
LINE
  8
1
 62
7
  6
CONTINUOUS
 10
1080.948927
 20
441.407048
 11
1076.710843
 21
441.407048
  0
LINE
  8
1
 62
7
  6
CONTINUOUS
 10
1109.448069
 20
441.407048
 11
1082.537613
 21
441.407048
  0
LINE
  8
1
 62
7
  6
CONTINUOUS
 10
1109.539899
 20
439.907048
 11
1082.548927
 21
439.907048
  0
LINE
  8
1
 62
7
  6
CONTINUOUS
 10
1109.448069
 20
438.407048
 11
1082.537613
 21
438.407048
  0
LINE
  8
1
 62
7
  6
CONTINUOUS
 10
1144.424689
 20
439.467048
 11
1144.424689
 21
438.847048
  0
LINE
  8
1
 62
7
  6
CONTINUOUS
 10
1144.424689
 20
440.967048
 11
1144.424689
 21
440.347048
  0
LINE
  8
1
 62
7
  6
CONTINUOUS
 10
1134.424689
 20
440.347048
 11
1134.424689
 21
438.407048
  0
LINE
  8
1
 62
7
  6
CONTINUOUS
 10
1144.424689
 20
440.347048
 11
1134.424689
 21
440.347048
  0
LINE
  8
1
 62
7
  6
CONTINUOUS
 10
1134.424689
 20
441.407048
 11
1134.424689
 21
440.347048
  0
LINE
  8
1
 62
7
  6
CONTINUOUS
 10
1144.424689
 20
438.847048
 11
1134.424689
 21
438.847048
  0
LINE
  8
1
 62
7
  6
CONTINUOUS
 10
1134.424689
 20
439.467048
 11
1144.424689
 21
439.467048
  0
LINE
  8
1
 62
7
  6
CONTINUOUS
 10
1134.424689
 20
440.967048
 11
1144.424689
 21
440.967048
  0
LINE
  8
1
 62
7
  6
CONTINUOUS
 10
1134.424689
 20
438.407048
 11
1111.448069
 21
438.407048
  0
LINE
  8
1
 62
7
  6
CONTINUOUS
 10
1134.424689
 20
439.907048
 11
1111.539899
 21
439.907048
  0
LINE
  8
1
 62
7
  6
CONTINUOUS
 10
1134.424689
 20
441.407048
 11
1111.448069
 21
441.407048
  0
LINE
  8
1
 62
7
  6
CONTINUOUS
 10
1041.434370
 20
412.540867
 11
1040.215858
 21
412.540867
  0
LINE
  8
1
 62
7
  6
CONTINUOUS
 10
1041.434370
 20
412.540867
 11
1040.476725
 21
410.565059
  0
LINE
  8
1
 62
7
  6
CONTINUOUS
 10
1040.476725
 20
410.565059
 11
1040.215858
 21
412.540867
  0
LINE
  8
1
 62
7
  6
CONTINUOUS
 10
1040.157511
 20
409.906456
 11
1040.563681
 21
409.906456
  0
LINE
  8
1
 62
7
  6
CONTINUOUS
 10
1040.157511
 20
409.906456
 11
1039.809687
 21
412.540867
  0
LINE
  8
1
 62
7
  6
CONTINUOUS
 10
1040.563681
 20
409.906456
 11
1041.840540
 21
412.540867
  0
LINE
  8
1
 62
7
  6
CONTINUOUS
 10
1039.593222
 20
413.040867
 11
1039.505059
 21
412.540867
  0
LINE
  8
1
 62
7
  6
CONTINUOUS
 10
1039.505059
 20
412.540867
 11
1039.809687
 21
412.540867
  0
LINE
  8
1
 62
7
  6
CONTINUOUS
 10
1041.840540
 20
412.540867
 11
1042.145168
 21
412.540867
  0
LINE
  8
1
 62
7
  6
CONTINUOUS
 10
1042.145168
 20
412.540867
 11
1042.233332
 21
413.040867
  0
LINE
  8
1
 62
7
  6
CONTINUOUS
 10
1042.233332
 20
413.040867
 11
1039.593222
 21
413.040867
  0
LINE
  8
1
 62
7
  6
CONTINUOUS
 10
1002.084438
 20
414.917048
 11
1007.084438
 21
414.917048
  0
LINE
  8
1
 62
7
  6
CONTINUOUS
 10
1006.861984
 20
413.655444
 11
1007.084438
 21
414.917048
  0
LINE
  8
1
 62
7
  6
CONTINUOUS
 10
1001.861984
 20
413.655444
 11
1002.084438
 21
414.917048
  0
LINE
  8
1
 62
7
  6
CONTINUOUS
 10
1001.202803
 20
409.917048
 11
1005.701040
 21
409.917048
  0
LINE
  8
1
 62
7
  6
CONTINUOUS
 10
1001.202803
 20
409.917048
 11
1001.695637
 21
412.712048
  0
LINE
  8
1
 62
7
  6
CONTINUOUS
 10
1006.361984
 20
413.655444
 11
1005.701040
 21
409.907048
  0
LINE
  8
1
 62
7
  6
CONTINUOUS
 10
1006.861984
 20
413.655444
 11
1006.361984
 21
413.655444
  0
LINE
  8
1
 62
7
  6
CONTINUOUS
 10
1002.973095
 20
413.655444
 11
1001.861984
 21
413.655444
  0
LINE
  8
1
 62
7
  6
CONTINUOUS
 10
1002.806748
 20
412.712048
 11
1002.973095
 21
413.655444
  0
LINE
  8
1
 62
7
  6
CONTINUOUS
 10
1001.695637
 20
412.712048
 11
1002.806748
 21
412.712048
  0
LINE
  8
1
 62
7
  6
CONTINUOUS
 10
1201.784083
 20
356.803411
 11
1201.784083
 21
353.384447
  0
LINE
  8
1
 62
7
  6
CONTINUOUS
 10
1201.784083
 20
381.407048
 11
1201.784083
 21
356.803411
  0
LINE
  8
1
 62
7
  6
CONTINUOUS
 10
1184.784083
 20
399.407048
 11
1184.784083
 21
361.365768
  0
LINE
  8
1
 62
7
  6
CONTINUOUS
 10
1197.784083
 20
405.407048
 11
1197.784083
 21
443.375194
  0
LINE
  8
1
 62
7
  6
DASHDOT
 10
1210.784083
 20
402.407048
 11
1162.675266
 21
402.407048
  0
LINE
  8
1
 62
7
  6
DASHDOT
 10
1199.784083
 20
350.007048
 11
1208.754386
 21
350.007048
  0
LINE
  8
1
 62
7
  6
DASHDOT
 10
1166.284083
 20
350.007048
 11
1175.284083
 21
350.007048
  0
LINE
  8
1
 62
7
  6
DASHDOT
 10
1199.784083
 20
454.807048
 11
1208.784083
 21
454.807048
  0
LINE
  8
1
 62
7
  6
DASHDOT
 10
1166.284083
 20
454.807048
 11
1175.284083
 21
454.807048
  0
LINE
  8
1
 62
7
  6
CONTINUOUS
 10
1168.284083
 20
462.407048
 11
1168.284083
 21
439.257048
  0
LINE
  8
1
 62
7
  6
CONTINUOUS
 10
1206.784083
 20
342.407048
 11
1206.784083
 21
462.407048
  0
LINE
  8
1
 62
7
  6
CONTINUOUS
 10
1168.284083
 20
462.407048
 11
1184.784083
 21
462.407048
  0
LINE
  8
1
 62
7
  6
CONTINUOUS
 10
1173.284083
 20
440.557048
 11
1168.284083
 21
440.557048
  0
LINE
  8
1
 62
7
  6
CONTINUOUS
 10
1206.784083
 20
342.407048
 11
1197.784083
 21
342.407048
  0
LINE
  8
1
 62
7
  6
CONTINUOUS
 10
1173.284083
 20
462.407048
 11
1173.284083
 21
451.429649
  0
LINE
  8
1
 62
7
  6
CONTINUOUS
 10
1173.284083
 20
374.407048
 11
1173.284083
 21
354.799374
  0
LINE
  8
1
 62
7
  6
CONTINUOUS
 10
1173.284083
 20
430.407048
 11
1173.284083
 21
436.158316
  0
LINE
  8
1
 62
7
  6
CONTINUOUS
 10
1201.784083
 20
353.384447
 11
1197.784083
 21
353.384447
  0
LINE
  8
1
 62
7
  6
CONTINUOUS
 10
1201.784083
 20
353.384447
 11
1201.784083
 21
342.407048
  0
LINE
  8
1
 62
7
  6
CONTINUOUS
 10
1173.284083
 20
353.384447
 11
1173.284083
 21
342.407048
  0
LINE
  8
1
 62
7
  6
CONTINUOUS
 10
1201.784083
 20
357.438902
 11
1201.784083
 21
356.803411
  0
LINE
  8
1
 62
7
  6
CONTINUOUS
 10
1197.784083
 20
361.438902
 11
1185.319981
 21
361.438902
  0
LINE
  8
1
 62
7
  6
CONTINUOUS
 10
1184.319981
 20
361.170952
 11
1173.284083
 21
354.799374
  0
LINE
  8
1
 62
7
  6
CONTINUOUS
 10
1173.284083
 20
354.799374
 11
1173.284083
 21
353.384447
  0
LINE
  8
1
 62
7
  6
CONTINUOUS
 10
1173.284083
 20
450.014722
 11
1179.432774
 21
446.464774
  0
LINE
  8
1
 62
7
  6
CONTINUOUS
 10
1185.319981
 20
443.375194
 11
1197.784083
 21
443.375194
  0
LINE
  8
1
 62
7
  6
CONTINUOUS
 10
1184.784083
 20
443.448328
 11
1184.784083
 21
437.601692
  0
LINE
  8
1
 62
7
  6
CONTINUOUS
 10
1201.784083
 20
462.407048
 11
1201.784083
 21
423.407048
  0
LINE
  8
1
 62
7
  6
CONTINUOUS
 10
1184.784083
 20
451.429649
 11
1184.784083
 21
462.407048
  0
LINE
  8
1
 62
7
  6
CONTINUOUS
 10
1184.784083
 20
451.429649
 11
1197.784083
 21
451.429649
  0
LINE
  8
1
 62
7
  6
CONTINUOUS
 10
1184.784083
 20
462.407048
 11
1197.784083
 21
462.407048
  0
LINE
  8
1
 62
7
  6
CONTINUOUS
 10
1184.784083
 20
353.384447
 11
1184.784083
 21
342.407048
  0
LINE
  8
1
 62
7
  6
CONTINUOUS
 10
1184.784083
 20
353.384447
 11
1173.284083
 21
353.384447
  0
LINE
  8
1
 62
7
  6
CONTINUOUS
 10
1184.784083
 20
342.407048
 11
1168.284083
 21
342.407048
  0
LINE
  8
1
 62
7
  6
CONTINUOUS
 10
1197.784083
 20
342.407048
 11
1197.784083
 21
353.384447
  0
LINE
  8
1
 62
7
  6
CONTINUOUS
 10
1197.784083
 20
342.407048
 11
1184.784083
 21
342.407048
  0
LINE
  8
1
 62
7
  6
CONTINUOUS
 10
1197.784083
 20
353.384447
 11
1184.784083
 21
353.384447
  0
LINE
  8
1
 62
7
  6
CONTINUOUS
 10
1197.784083
 20
361.438902
 11
1197.784083
 21
399.407048
  0
LINE
  8
1
 62
7
  6
CONTINUOUS
 10
1197.784083
 20
451.429649
 11
1197.784083
 21
462.407048
  0
LINE
  8
1
 62
7
  6
CONTINUOUS
 10
1197.784083
 20
451.429649
 11
1201.784083
 21
451.429649
  0
LINE
  8
1
 62
7
  6
CONTINUOUS
 10
1197.784083
 20
462.407048
 11
1206.784083
 21
462.407048
  0
LINE
  8
1
 62
7
  6
CONTINUOUS
 10
1176.284083
 20
449.429649
 11
1180.468243
 21
449.429649
  0
LINE
  8
1
 62
7
  6
CONTINUOUS
 10
1176.284083
 20
355.384447
 11
1199.784083
 21
355.384447
  0
LINE
  8
1
 62
7
  6
DASHDOT
 10
955.086802
 20
402.407048
 11
1089.967988
 21
402.407048
  0
LINE
  8
1
 62
7
  6
DASHDOT
 10
1022.548927
 20
470.060340
 11
1022.548927
 21
333.782456
  0
LINE
  8
1
 62
7
  6
HIDDEN
 10
1066.407281
 20
443.436974
 11
1070.886855
 21
447.916549
  0
LINE
  8
1
 62
7
  6
CONTINUOUS
 10
1082.548927
 20
438.257048
 11
1082.548927
 21
439.257048
  0
LINE
  8
1
 62
7
  6
CONTINUOUS
 10
1082.548927
 20
439.257048
 11
1082.548927
 21
440.557048
  0
LINE
  8
1
 62
7
  6
CONTINUOUS
 10
1082.548927
 20
440.557048
 11
1082.548927
 21
441.557048
  0
LINE
  8
1
 62
7
  6
CONTINUOUS
 10
1082.548927
 20
346.407048
 11
1082.548927
 21
438.257048
  0
LINE
  8
1
 62
7
  6
HIDDEN
 10
1074.068710
 20
442.394928
 11
1069.705201
 21
438.031419
  0
LINE
  8
1
 62
7
  6
HIDDEN
 10
1078.189418
 20
435.717195
 11
1073.984981
 21
431.512758
  0
LINE
  8
1
 62
7
  6
CONTINUOUS
 10
1082.548927
 20
430.141683
 11
1082.548927
 21
439.257048
  0
LINE
  8
1
 62
7
  6
HIDDEN
 10
1070.886855
 20
447.916549
 11
1070.985742
 21
448.015435
  0
LINE
  8
1
 62
7
  6
CONTINUOUS
 10
1019.976242
 20
345.276613
 11
1020.676449
 21
345.276613
  0
LINE
  8
1
 62
7
  6
CONTINUOUS
 10
1019.758121
 20
345.875894
 11
1019.976242
 21
345.276613
  0
LINE
  8
1
 62
7
  6
CONTINUOUS
 10
989.802387
 20
345.276613
 11
1019.976242
 21
345.276613
  0
LINE
  8
1
 62
7
  6
CONTINUOUS
 10
1030.085931
 20
345.276613
 11
1029.007886
 21
345.276613
  0
LINE
  8
1
 62
7
  6
CONTINUOUS
 10
1029.726551
 20
346.264001
 11
1030.085931
 21
345.276613
  0
LINE
  8
128
 62
7
  6
CONTINUOUS
 10
1080.548927
 20
438.207048
 11
1077.048927
 21
438.207048
  0
LINE
  8
128
 62
7
  6
CONTINUOUS
 10
1073.987937
 20
441.607048
 11
1080.548927
 21
441.607048
  0
LINE
  8
1
 62
7
  6
CONTINUOUS
 10
1065.361397
 20
431.326339
 11
1070.307087
 21
437.220382
  0
LINE
  8
1
 62
7
  6
HIDDEN
 10
1063.578853
 20
358.548695
 11
1068.157315
 21
353.970233
  0
LINE
  8
1
 62
7
  6
HIDDEN
 10
978.690574
 20
361.377122
 11
974.112113
 21
356.798661
  0
LINE
  8
1
 62
7
  6
HIDDEN
 10
981.519001
 20
446.265401
 11
976.940540
 21
450.843862
  0
LINE
  8
1
 62
7
  6
HIDDEN
 10
1066.407281
 20
361.377122
 11
1070.985742
 21
356.798661
  0
LINE
  8
1
 62
7
  6
HIDDEN
 10
981.519001
 20
358.548695
 11
976.940540
 21
353.970233
  0
LINE
  8
1
 62
7
  6
HIDDEN
 10
978.690574
 20
443.436974
 11
974.112113
 21
448.015435
  0
LINE
  8
1
 62
7
  6
CONTINUOUS
 10
1073.025165
 20
428.013871
 11
1077.913318
 21
433.839344
  0
LINE
  8
1
 62
7
  6
CONTINUOUS
 10
1067.425785
 20
436.898027
 11
1051.394969
 21
417.793245
  0
LINE
  8
128
 62
7
  6
CONTINUOUS
 10
1077.003955
 20
443.607048
 11
1079.548927
 21
443.607048
  0
LINE
  8
128
 62
7
  6
CONTINUOUS
 10
1080.548927
 20
448.307048
 11
1080.548927
 21
444.607048
  0
LINE
  8
1
 62
7
  6
CONTINUOUS
 10
1075.814972
 20
434.450080
 11
1073.727784
 21
431.962667
  0
LINE
  8
128
 62
7
  6
CONTINUOUS
 10
1076.048927
 20
437.207048
 11
1076.048927
 21
437.062484
  0
LINE
  8
1
 62
7
  6
CONTINUOUS
 10
1082.548927
 20
439.257048
 11
1082.548927
 21
439.907048
  0
LINE
  8
128
 62
7
  6
CONTINUOUS
 10
1081.048927
 20
439.257048
 11
1081.548927
 21
439.257048
  0
LINE
  8
128
 62
7
  6
CONTINUOUS
 10
1081.048927
 20
438.707048
 11
1081.048927
 21
439.257048
  0
LINE
  8
1
 62
7
  6
CONTINUOUS
 10
1082.548927
 20
440.557048
 11
1082.548927
 21
443.820091
  0
LINE
  8
128
 62
7
  6
CONTINUOUS
 10
1081.048927
 20
440.557048
 11
1081.548927
 21
440.557048
  0
LINE
  8
128
 62
7
  6
CONTINUOUS
 10
1081.048927
 20
441.107048
 11
1081.048927
 21
440.557048
  0
LINE
  8
128
 62
7
  6
CONTINUOUS
 10
1072.981017
 20
440.407048
 11
1073.987937
 21
441.607048
  0
LINE
  8
1
 62
7
  6
CONTINUOUS
 10
1062.451835
 20
418.524515
 11
1053.264502
 21
407.575478
  0
LINE
  8
128
 62
7
  6
CONTINUOUS
 10
1064.256941
 20
422.231480
 11
1063.873919
 21
422.552874
  0
LINE
  8
1
 62
7
  6
CONTINUOUS
 10
1053.520890
 20
417.215371
 11
1065.361397
 21
431.326339
  0
LINE
  8
128
 62
7
  6
CONTINUOUS
 10
1057.212781
 20
421.615196
 11
1058.361848
 21
420.651014
  0
LINE
  8
128
 62
7
  6
CONTINUOUS
 10
1061.712294
 20
426.977507
 11
1062.861361
 21
426.013326
  0
LINE
  8
1
 62
7
  6
CONTINUOUS
 10
975.648927
 20
345.407048
 11
975.648927
 21
351.290710
  0
LINE
  8
1
 62
7
  6
CONTINUOUS
 10
984.199351
 20
344.407048
 11
976.648927
 21
344.407048
  0
LINE
  8
1
 62
7
  6
CONTINUOUS
 10
965.548927
 20
449.307048
 11
971.432589
 21
449.307048
  0
LINE
  8
1
 62
7
  6
CONTINUOUS
 10
964.548927
 20
440.756624
 11
964.548927
 21
448.307048
  0
LINE
  8
1
 62
7
  6
CONTINUOUS
 10
1069.448927
 20
459.407048
 11
1069.448927
 21
453.523386
  0
LINE
  8
1
 62
7
  6
CONTINUOUS
 10
1060.898503
 20
460.407048
 11
1068.448927
 21
460.407048
  0
LINE
  8
1
 62
7
  6
CONTINUOUS
 10
971.432589
 20
355.507048
 11
965.548927
 21
355.507048
  0
LINE
  8
1
 62
7
  6
CONTINUOUS
 10
964.548927
 20
356.507048
 11
964.548927
 21
364.057472
  0
LINE
  8
1
 62
7
  6
CONTINUOUS
 10
975.648927
 20
453.523386
 11
975.648927
 21
459.407048
  0
LINE
  8
1
 62
7
  6
CONTINUOUS
 10
976.648927
 20
460.407048
 11
984.199351
 21
460.407048
  0
LINE
  8
1
 62
7
  6
CONTINUOUS
 10
1073.665265
 20
449.307048
 11
1079.548927
 21
449.307048
  0
LINE
  8
1
 62
7
  6
CONTINUOUS
 10
1069.448927
 20
351.290710
 11
1069.448927
 21
345.407048
  0
LINE
  8
1
 62
7
  6
CONTINUOUS
 10
1068.448927
 20
344.407048
 11
1060.898503
 21
344.407048
  0
LINE
  8
1
 62
7
  6
CONTINUOUS
 10
1079.548927
 20
355.507048
 11
1073.665265
 21
355.507048
  0
LINE
  8
1
 62
7
  6
CONTINUOUS
 10
1080.548927
 20
364.057472
 11
1080.548927
 21
356.507048
  0
LINE
  8
1
 62
7
  6
CONTINUOUS
 10
965.612588
 20
426.111354
 11
970.744069
 21
425.206536
  0
LINE
  8
1
 62
7
  6
CONTINUOUS
 10
965.438940
 20
433.757673
 11
969.924362
 21
432.966772
  0
LINE
  8
1
 62
7
  6
CONTINUOUS
 10
1072.830018
 20
444.894266
 11
1066.795641
 21
437.702775
  0
LINE
  8
1
 62
7
  6
CONTINUOUS
 10
1073.509665
 20
427.035552
 11
1079.322150
 21
433.962601
  0
LINE
  8
1
 62
7
  6
CONTINUOUS
 10
1082.548927
 20
429.540468
 11
1082.548927
 21
430.141683
  0
LINE
  8
1
 62
7
  6
CONTINUOUS
 10
1072.687024
 20
443.168128
 11
1067.425785
 21
436.898027
  0
LINE
  8
1
 62
7
  6
CONTINUOUS
 10
965.418492
 20
369.660507
 11
965.418492
 21
425.373375
  0
LINE
  8
1
 62
7
  6
CONTINUOUS
 10
1055.295468
 20
345.276613
 11
1030.085931
 21
345.276613
  0
LINE
  8
1
 62
7
  6
CONTINUOUS
 10
989.802387
 20
459.537483
 11
1055.295468
 21
459.537483
  0
LINE
  8
1
 62
7
  6
CONTINUOUS
 10
1027.598347
 20
346.263583
 11
1019.044793
 21
369.764281
  0
LINE
  8
1
 62
7
  6
CONTINUOUS
 10
1011.903051
 20
373.305131
 11
1021.616142
 21
346.618633
  0
LINE
  8
1
 62
7
  6
CONTINUOUS
 10
996.031529
 20
421.763101
 11
967.178965
 21
426.850586
  0
LINE
  8
1
 62
7
  6
CONTINUOUS
 10
965.418492
 20
434.004501
 11
965.418492
 21
435.153589
  0
LINE
  8
1
 62
7
  6
CONTINUOUS
 10
966.658020
 20
432.527289
 11
969.750713
 21
431.981964
  0
LINE
  8
1
 62
7
  6
CONTINUOUS
 10
1079.679362
 20
433.196556
 11
1079.679362
 21
369.660507
  0
LINE
  8
1
 62
7
  6
CONTINUOUS
 10
962.548927
 20
457.841831
 11
962.548927
 21
346.972265
  0
LINE
  8
1
 62
7
  6
CONTINUOUS
 10
967.114145
 20
342.407048
 11
1077.983710
 21
342.407048
  0
LINE
  8
1
 62
7
  6
CONTINUOUS
 10
1082.548927
 20
346.972265
 11
1082.548927
 21
429.540468
  0
LINE
  8
1
 62
7
  6
CONTINUOUS
 10
1082.548927
 20
457.841831
 11
1082.548927
 21
443.882683
  0
LINE
  8
1
 62
7
  6
CONTINUOUS
 10
1077.983710
 20
462.407048
 11
967.114145
 21
462.407048
  0
LINE
  8
1
 62
7
  6
CONTINUOUS
 10
1049.138133
 20
413.166256
 11
1049.511980
 21
413.268436
  0
LINE
  8
1
 62
7
  6
CONTINUOUS
 10
1051.019162
 20
414.233928
 11
1053.520890
 21
417.215371
  0
LINE
  8
1
 62
7
  6
CONTINUOUS
 10
1050.949005
 20
406.393359
 11
1051.742826
 21
406.606063
  0
LINE
  8
1
 62
7
  6
HIDDEN
 10
1063.578853
 20
446.265401
 11
1068.157315
 21
450.843862
  0
LINE
  8
1
 62
7
  6
DASHDOT
 10
1074.948927
 20
353.391737
 11
1074.948927
 21
346.516448
  0
LINE
  8
1
 62
7
  6
DASHDOT
 10
1070.748833
 20
350.007048
 11
1078.411052
 21
350.007048
  0
LINE
  8
1
 62
7
  6
DASHDOT
 10
1074.948927
 20
457.987297
 11
1074.948927
 21
451.622196
  0
LINE
  8
1
 62
7
  6
DASHDOT
 10
1071.977549
 20
454.807048
 11
1077.888000
 21
454.807048
  0
LINE
  8
1
 62
7
  6
DASHDOT
 10
970.148927
 20
353.055063
 11
970.148927
 21
347.010633
  0
LINE
  8
1
 62
7
  6
DASHDOT
 10
966.865055
 20
350.007048
 11
973.296048
 21
350.007048
  0
LINE
  8
1
 62
7
  6
DASHDOT
 10
970.148927
 20
457.771911
 11
970.148927
 21
451.640175
  0
LINE
  8
1
 62
7
  6
DASHDOT
 10
967.018711
 20
454.807048
 11
973.447743
 21
454.807048
  0
LINE
  8
1
 62
7
  6
CONTINUOUS
 10
962.548927
 20
458.407048
 11
962.548927
 21
442.907749
  0
LINE
  8
1
 62
7
  6
CONTINUOUS
 10
1078.548927
 20
462.407048
 11
986.358740
 21
462.407048
  0
LINE
  8
1
 62
7
  6
CONTINUOUS
 10
1082.548927
 20
441.557048
 11
1082.548927
 21
441.983856
  0
LINE
  8
1
 62
7
  6
CONTINUOUS
 10
966.548927
 20
342.407048
 11
1078.548927
 21
342.407048
  0
LINE
  8
1
 62
7
  6
CONTINUOUS
 10
986.358740
 20
462.407048
 11
966.548927
 21
462.407048
  0
LINE
  8
1
 62
7
  6
CONTINUOUS
 10
962.548927
 20
442.907749
 11
962.548927
 21
346.407048
  0
LINE
  8
1
 62
7
  6
CONTINUOUS
 10
1082.548927
 20
445.862919
 11
1082.548927
 21
458.407048
  0
LINE
  8
1
 62
7
  6
CONTINUOUS
 10
965.548927
 20
449.307048
 11
969.450886
 21
449.307048
  0
LINE
  8
1
 62
7
  6
CONTINUOUS
 10
969.450886
 20
449.307048
 11
971.432589
 21
449.307048
  0
LINE
  8
1
 62
7
  6
CONTINUOUS
 10
969.450886
 20
449.307048
 11
970.323646
 21
449.307048
  0
LINE
  8
1
 62
7
  6
CONTINUOUS
 10
971.775427
 20
432.640379
 11
974.409783
 21
432.175871
  0
LINE
  8
1
 62
7
  6
CONTINUOUS
 10
969.924362
 20
432.966772
 11
971.775427
 21
432.640379
  0
LINE
  8
1
 62
7
  6
CONTINUOUS
 10
969.750713
 20
431.981964
 11
971.601779
 21
431.655571
  0
LINE
  8
1
 62
7
  6
CONTINUOUS
 10
971.601779
 20
431.655571
 11
1002.668866
 21
426.177606
  0
LINE
  8
1
 62
7
  6
CONTINUOUS
 10
1070.307087
 20
437.220382
 11
1072.981017
 21
440.407048
  0
LINE
  8
1
 62
7
  6
CONTINUOUS
 10
1073.727784
 20
431.962667
 11
1065.665773
 21
422.354737
  0
LINE
  8
1
 62
7
  6
CONTINUOUS
 10
1053.713173
 20
404.998735
 11
1073.025165
 21
428.013871
  0
LINE
  8
1
 62
7
  6
DASHDOT
 10
1002.314667
 20
389.421975
 11
1026.747212
 21
389.421975
  0
LINE
  8
1
 62
7
  6
DASHDOT
 10
1026.747212
 20
387.421975
 11
1002.314667
 21
387.421975
  0
LINE
  8
1
 62
7
  6
DASHDOT
 10
1002.314667
 20
387.421975
 11
1002.314667
 21
389.421975
  0
LINE
  8
1
 62
7
  6
DASHDOT
 10
1026.747212
 20
389.421975
 11
1026.747212
 21
387.421975
  0
LINE
  8
1
 62
7
  6
DASHDOT
 10
1030.027809
 20
383.907048
 11
1030.027809
 21
379.968082
  0
LINE
  8
1
 62
7
  6
DASHDOT
 10
1030.027809
 20
379.968082
 11
1015.048927
 21
379.968082
  0
LINE
  8
1
 62
7
  6
DASHDOT
 10
1015.048927
 20
379.968082
 11
1015.048927
 21
383.907048
  0
LINE
  8
1
 62
7
  6
DASHDOT
 10
1015.048927
 20
383.907048
 11
1030.027809
 21
383.907048
  0
LINE
  8
1
 62
7
  6
CONTINUOUS
 10
1007.292919
 20
424.075094
 11
1037.804935
 21
424.075094
  0
LINE
  8
1
 62
7
  6
CONTINUOUS
 10
996.166170
 20
399.917048
 11
1048.931685
 21
399.917048
  0
LINE
  8
1
 62
7
  6
CONTINUOUS
 10
1001.812486
 20
385.907048
 11
1043.285369
 21
385.907048
  0
LINE
  8
1
 62
7
  6
CONTINUOUS
 10
1045.851131
 20
415.026767
 11
1047.196619
 21
413.681279
  0
LINE
  8
1
 62
7
  6
CONTINUOUS
 10
1049.039087
 20
403.129152
 11
1049.534791
 21
404.979146
  0
LINE
  8
1
 62
7
  6
CONTINUOUS
 10
1048.145962
 20
409.265753
 11
1050.917591
 21
410.008409
  0
ARC
  8
1
 62
7
  6
CONTINUOUS
 10
1022.548927
 20
402.407048
 40
30.000000
 50
8.385664
 51
12.140942
  0
ARC
  8
1
 62
7
  6
CONTINUOUS
 10
1022.548927
 20
402.407048
 40
28.100000
 50
7.844932
 51
11.940052
  0
ARC
  8
1
 62
7
  6
CONTINUOUS
 10
1022.548927
 20
402.407048
 40
59.100000
 50
30.006290
 51
31.546419
  0
ARC
  8
1
 62
7
  6
CONTINUOUS
 10
1022.548927
 20
402.407048
 40
34.330000
 50
13.940925
 51
16.980426
  0
ARC
  8
1
 62
7
  6
CONTINUOUS
 10
1144.947126
 20
402.407048
 40
39.836957
 50
-44.657313
 51
-4.318860
  0
ARC
  8
1
 62
7
  6
CONTINUOUS
 10
980.326463
 20
463.175408
 40
225.000000
 50
-14.877203
 51
-10.180413
  0
ARC
  8
1
 62
7
  6
CONTINUOUS
 10
1144.947126
 20
402.407048
 40
39.836957
 50
4.318860
 51
44.657313
  0
ARC
  8
1
 62
7
  6
CONTINUOUS
 10
1197.784083
 20
357.438902
 40
4.000000
 50
0.000000
 51
90.000000
  0
ARC
  8
1
 62
7
  6
CONTINUOUS
 10
1185.319981
 20
359.438902
 40
2.000000
 50
90.000000
 51
120.000000
  0
ARC
  8
1
 62
7
  6
CONTINUOUS
 10
1185.319981
 20
445.375194
 40
2.000000
 50
-120.000000
 51
-90.000000
  0
ARC
  8
1
 62
7
  6
CONTINUOUS
 10
1197.784083
 20
447.375194
 40
4.000000
 50
-90.000000
 51
0.000000
  0
ARC
  8
1
 62
7
  6
CONTINUOUS
 10
980.326463
 20
341.638688
 40
225.000000
 50
10.180413
 51
14.877203
  0
ARC
  8
1
 62
7
  6
HIDDEN
 10
1022.548927
 20
402.407048
 40
59.100000
 50
37.069350
 51
37.618935
  0
ARC
  8
1
 62
7
  6
HIDDEN
 10
1022.548927
 20
402.407048
 40
66.100000
 50
38.690629
 51
43.014960
  0
ARC
  8
1
 62
7
  6
HIDDEN
 10
1022.548927
 20
402.407048
 40
59.100000
 50
29.503873
 51
30.006290
  0
ARC
  8
1
 62
7
  6
HIDDEN
 10
1022.548927
 20
402.407048
 40
59.100000
 50
36.090197
 51
37.069350
  0
ARC
  8
1
 62
7
  6
HIDDEN
 10
1022.548927
 20
402.407048
 40
66.100000
 50
24.808453
 51
30.053918
  0
ARC
  8
1
 62
7
  6
CONTINUOUS
 10
1022.548927
 20
402.407048
 40
56.600000
 50
-92.918698
 51
-92.826259
  0
ARC
  8
1
 62
7
  6
CONTINUOUS
 10
1022.548927
 20
402.407048
 40
56.600000
 50
-92.918698
 51
-92.826259
  0
ARC
  8
1
 62
7
  6
CONTINUOUS
 10
1022.548927
 20
402.407048
 40
56.600000
 50
-134.280424
 51
-92.918698
  0
ARC
  8
1
 62
7
  6
CONTINUOUS
 10
1022.548927
 20
402.407048
 40
56.600000
 50
-83.601030
 51
-82.714526
  0
ARC
  8
1
 62
7
  6
CONTINUOUS
 10
1022.548927
 20
402.407048
 40
56.600000
 50
-84.778260
 51
-82.714526
  0
ARC
  8
128
 62
7
  6
HIDDEN
 10
1022.548927
 20
402.407048
 40
59.100000
 50
-52.381065
 51
-47.861211
  0
ARC
  8
128
 62
7
  6
HIDDEN
 10
1022.548927
 20
402.407048
 40
59.100000
 50
-142.381065
 51
-137.861211
  0
ARC
  8
128
 62
7
  6
HIDDEN
 10
1022.548927
 20
402.407048
 40
59.100000
 50
127.618935
 51
132.138789
  0
ARC
  8
1
 62
7
  6
HIDDEN
 10
1069.571528
 20
355.384447
 40
2.000000
 50
-135.000000
 51
45.000000
  0
ARC
  8
1
 62
7
  6
HIDDEN
 10
975.526326
 20
355.384447
 40
2.000000
 50
135.000000
 51
-45.000000
  0
ARC
  8
1
 62
7
  6
HIDDEN
 10
975.526326
 20
449.429649
 40
2.000000
 50
45.000000
 51
-135.000000
  0
ARC
  8
128
 62
7
  6
HIDDEN
 10
1022.548927
 20
402.407048
 40
59.100000
 50
-42.138789
 51
-36.409402
  0
ARC
  8
128
 62
7
  6
HIDDEN
 10
1022.548927
 20
402.407048
 40
59.100000
 50
-132.138789
 51
-126.409402
  0
ARC
  8
128
 62
7
  6
HIDDEN
 10
1022.548927
 20
402.407048
 40
59.100000
 50
137.861211
 51
143.590598
  0
ARC
  8
128
 62
7
  6
HIDDEN
 10
1022.548927
 20
402.407048
 40
59.100000
 50
37.618935
 51
42.138789
  0
ARC
  8
128
 62
7
  6
HIDDEN
 10
1022.548927
 20
402.407048
 40
59.100000
 50
47.861211
 51
53.590598
  0
ARC
  8
128
 62
7
  6
CONTINUOUS
 10
1022.548927
 20
402.407048
 40
56.600000
 50
25.793730
 51
26.898886
  0
ARC
  8
128
 62
7
  6
CONTINUOUS
 10
1022.548927
 20
402.407048
 40
56.600000
 50
37.544778
 51
38.579462
  0
ARC
  8
1
 62
7
  6
CONTINUOUS
 10
1022.548927
 20
402.407048
 40
67.700000
 50
-131.922306
 51
-123.932650
  0
ARC
  8
1
 62
7
  6
CONTINUOUS
 10
1022.548927
 20
402.407048
 40
67.700000
 50
138.077694
 51
146.067350
  0
ARC
  8
1
 62
7
  6
CONTINUOUS
 10
1022.548927
 20
402.407048
 40
67.700000
 50
48.077694
 51
56.067350
  0
ARC
  8
1
 62
7
  6
CONTINUOUS
 10
1022.548927
 20
402.407048
 40
67.700000
 50
-146.067350
 51
-138.077694
  0
ARC
  8
1
 62
7
  6
CONTINUOUS
 10
1022.548927
 20
402.407048
 40
67.700000
 50
123.932650
 51
131.922306
  0
ARC
  8
1
 62
7
  6
CONTINUOUS
 10
1022.548927
 20
402.407048
 40
67.700000
 50
38.101176
 51
41.922306
  0
ARC
  8
1
 62
7
  6
CONTINUOUS
 10
1022.548927
 20
402.407048
 40
67.700000
 50
-56.067350
 51
-48.077694
  0
ARC
  8
1
 62
7
  6
CONTINUOUS
 10
1022.548927
 20
402.407048
 40
67.700000
 50
-41.922306
 51
-33.932650
  0
ARC
  8
1
 62
7
  6
CONTINUOUS
 10
1022.548927
 20
402.407048
 40
56.600000
 50
38.579462
 51
148.267718
  0
ARC
  8
1
 62
7
  6
CONTINUOUS
 10
1022.548927
 20
402.407048
 40
56.600000
 50
156.245548
 51
-92.918698
  0
ARC
  8
1
 62
7
  6
CONTINUOUS
 10
1022.548927
 20
402.407048
 40
56.600000
 50
-84.778260
 51
-83.601030
  0
ARC
  8
1
 62
7
  6
CONTINUOUS
 10
1022.548927
 20
402.407048
 40
56.600000
 50
-92.826259
 51
-90.997234
  0
ARC
  8
1
 62
7
  6
CONTINUOUS
 10
1022.548927
 20
402.407048
 40
56.600000
 50
-82.714526
 51
25.793730
  0
ARC
  8
1
 62
7
  6
CONTINUOUS
 10
1022.548927
 20
402.407048
 40
65.850000
 50
119.820863
 51
150.179137
  0
ARC
  8
1
 62
7
  6
CONTINUOUS
 10
1022.548927
 20
402.407048
 40
65.850000
 50
-60.179137
 51
-29.820863
  0
ARC
  8
1
 62
7
  6
CONTINUOUS
 10
1022.548927
 20
402.407048
 40
65.850000
 50
-150.179137
 51
-119.820863
  0
ARC
  8
1
 62
7
  6
CONTINUOUS
 10
1022.548927
 20
402.407048
 40
65.850000
 50
40.421921
 51
60.179137
  0
ARC
  8
1
 62
7
  6
CONTINUOUS
 10
1022.548927
 20
402.407048
 40
30.000000
 50
56.224837
 51
56.764758
  0
ARC
  8
1
 62
7
  6
CONTINUOUS
 10
1022.548927
 20
402.407048
 40
30.000000
 50
60.547072
 51
61.600080
  0
ARC
  8
1
 62
7
  6
CONTINUOUS
 10
1022.548927
 20
402.407048
 40
30.000000
 50
-92.910354
 51
-1.018692
  0
ARC
  8
1
 62
7
  6
HIDDEN
 10
1069.571528
 20
449.429649
 40
2.000000
 50
-45.000000
 51
135.000000
  0
ARC
  8
1
 62
7
  6
CONTINUOUS
 10
1022.548927
 20
402.407048
 40
30.000000
 50
162.004803
 51
180.000000
  0
ARC
  8
1
 62
7
  6
CONTINUOUS
 10
1022.548927
 20
402.407048
 40
56.600000
 50
155.200981
 51
-140.005611
  0
ARC
  8
1
 62
7
  6
CONTINUOUS
 10
1022.548927
 20
402.407048
 40
56.600000
 50
51.956943
 51
128.170347
  0
ARC
  8
1
 62
7
  6
CONTINUOUS
 10
1022.548927
 20
402.407048
 40
56.600000
 50
-82.714526
 51
-50.005611
  0
ARC
  8
1
 62
7
  6
CONTINUOUS
 10
1022.548927
 20
402.407048
 40
30.000000
 50
77.549863
 51
125.918926
  0
ARC
  8
1
 62
7
  6
CONTINUOUS
 10
1022.548927
 20
402.407048
 40
30.000000
 50
147.089646
 51
-114.081074
  0
ARC
  8
1
 62
7
  6
CONTINUOUS
 10
1022.548927
 20
402.407048
 40
30.000000
 50
31.398876
 51
125.918926
  0
ARC
  8
1
 62
7
  6
CONTINUOUS
 10
1022.548927
 20
402.407048
 40
56.600000
 50
148.267718
 51
149.353431
  0
ARC
  8
1
 62
7
  6
CONTINUOUS
 10
1022.548927
 20
402.407048
 40
56.600000
 50
143.996818
 51
149.353431
  0
ARC
  8
1
 62
7
  6
CONTINUOUS
 10
1022.548927
 20
402.407048
 40
56.600000
 50
-92.826259
 51
-90.997234
  0
ARC
  8
1
 62
7
  6
CONTINUOUS
 10
1022.548927
 20
402.407048
 40
59.100000
 50
34.587001
 51
36.090197
  0
ARC
  8
1
 62
7
  6
CONTINUOUS
 10
1022.548927
 20
402.407048
 40
28.100000
 50
18.059948
 51
22.359781
  0
ARC
  8
1
 62
7
  6
CONTINUOUS
 10
1022.548927
 20
402.407048
 40
30.000000
 50
18.427541
 51
22.011774
  0
ARC
  8
1
 62
7
  6
CONTINUOUS
 10
1022.548927
 20
402.407048
 40
34.330000
 50
22.771622
 51
25.553409
  0
ARC
  8
1
 62
7
  6
CONTINUOUS
 10
1022.548927
 20
402.407048
 40
26.500000
 50
-5.391595
 51
54.851442
  0
ARC
  8
1
 62
7
  6
CONTINUOUS
 10
1022.548927
 20
402.407048
 40
26.500000
 50
54.851442
 51
125.148558
  0
ARC
  8
1
 62
7
  6
CONTINUOUS
 10
1022.548927
 20
402.407048
 40
26.500000
 50
125.148558
 51
-174.608405
  0
ARC
  8
1
 62
7
  6
CONTINUOUS
 10
1022.548927
 20
402.407048
 40
26.500000
 50
-38.509289
 51
-5.391595
  0
ARC
  8
1
 62
7
  6
CONTINUOUS
 10
1022.548927
 20
402.407048
 40
26.500000
 50
-174.608405
 51
-141.490711
  0
ARC
  8
1
 62
7
  6
CONTINUOUS
 10
1022.548927
 20
402.407048
 40
26.500000
 50
-141.490711
 51
-38.509289
  0
ARC
  8
1
 62
7
  6
CONTINUOUS
 10
1038.839495
 20
440.640126
 40
28.634758
 50
151.772069
 51
-159.286328
  0
ARC
  8
1
 62
7
  6
CONTINUOUS
 10
1065.360621
 20
419.329194
 40
33.823229
 50
123.582341
 51
155.096425
  0
ARC
  8
1
 62
7
  6
CONTINUOUS
 10
1043.745545
 20
450.045462
 40
3.858750
 50
-41.134819
 51
65.712850
  0
ARC
  8
1
 62
7
  6
CONTINUOUS
 10
1065.360621
 20
419.329194
 40
33.823229
 50
155.096425
 51
160.932669
  0
ARC
  8
1
 62
7
  6
CONTINUOUS
 10
1021.726018
 20
448.481176
 40
9.919008
 50
90.399095
 51
144.906033
  0
ARC
  8
1
 62
7
  6
CONTINUOUS
 10
1022.548927
 20
402.407048
 40
56.000000
 50
65.992711
 51
90.912679
  0
ARC
  8
1
 62
7
  6
CONTINUOUS
 10
1023.359744
 20
341.767708
 40
24.854544
 50
-117.004457
 51
-62.995543
  0
ARC
  8
1
 62
7
  6
CONTINUOUS
 10
1036.011315
 20
446.429364
 40
33.823229
 50
175.010912
 51
-153.475003
  0
ARC
  8
1
 62
7
  6
CONTINUOUS
 10
996.524556
 20
440.379832
 40
33.823229
 50
-133.560516
 51
-102.046432
  0
ARC
  8
1
 62
7
  6
CONTINUOUS
 10
976.634679
 20
405.736019
 40
33.823229
 50
-82.131945
 51
-50.617860
  0
ARC
  8
1
 62
7
  6
CONTINUOUS
 10
991.319168
 20
368.585423
 40
33.823229
 50
-18.536929
 51
0.810711
  0
ARC
  8
1
 62
7
  6
CONTINUOUS
 10
1029.520302
 20
356.903200
 40
33.823229
 50
20.725198
 51
52.239282
  0
ARC
  8
1
 62
7
  6
CONTINUOUS
 10
1002.814106
 20
438.981461
 40
28.634758
 50
-150.705563
 51
-107.857757
  0
ARC
  8
1
 62
7
  6
CONTINUOUS
 10
981.649440
 20
409.781517
 40
28.634758
 50
-105.370788
 51
-56.429185
  0
ARC
  8
1
 62
7
  6
CONTINUOUS
 10
1024.460344
 20
360.892023
 40
28.634758
 50
-2.513645
 51
46.427958
  0
ARC
  8
1
 62
7
  6
CONTINUOUS
 10
1062.597754
 20
413.508503
 40
28.634758
 50
100.343498
 51
149.285100
  0
ARC
  8
1
 62
7
  6
CONTINUOUS
 10
977.813089
 20
391.352312
 40
9.919008
 50
-166.743762
 51
-112.236824
  0
ARC
  8
1
 62
7
  6
CONTINUOUS
 10
1003.299528
 20
360.538646
 40
9.919008
 50
-115.315191
 51
-60.808252
  0
ARC
  8
1
 62
7
  6
CONTINUOUS
 10
1043.281158
 20
361.252740
 40
9.919008
 50
-63.886619
 51
-9.379681
  0
ARC
  8
1
 62
7
  6
CONTINUOUS
 10
1067.650995
 20
392.956868
 40
9.919008
 50
-12.458048
 51
42.048890
  0
ARC
  8
1
 62
7
  6
CONTINUOUS
 10
1058.058055
 20
431.777173
 40
9.919008
 50
38.970523
 51
93.477462
  0
ARC
  8
1
 62
7
  6
CONTINUOUS
 10
1022.548927
 20
402.407048
 40
56.000000
 50
117.421282
 51
142.341250
  0
ARC
  8
1
 62
7
  6
CONTINUOUS
 10
1022.548927
 20
402.407048
 40
56.000000
 50
168.849854
 51
-166.230178
  0
ARC
  8
1
 62
7
  6
CONTINUOUS
 10
1022.548927
 20
402.407048
 40
56.000000
 50
-139.721575
 51
-114.801607
  0
ARC
  8
1
 62
7
  6
CONTINUOUS
 10
1022.548927
 20
402.407048
 40
56.000000
 50
-84.961264
 51
-63.373036
  0
ARC
  8
1
 62
7
  6
CONTINUOUS
 10
1022.548927
 20
402.407048
 40
56.000000
 50
-36.864432
 51
-11.944464
  0
ARC
  8
1
 62
7
  6
CONTINUOUS
 10
1022.548927
 20
402.407048
 40
56.000000
 50
37.409151
 51
39.484107
  0
ARC
  8
1
 62
7
  6
CONTINUOUS
 10
998.519591
 20
448.681296
 40
3.858750
 50
10.293752
 51
117.141421
  0
ARC
  8
1
 62
7
  6
CONTINUOUS
 10
971.388217
 20
412.471678
 40
3.858750
 50
61.722324
 51
168.569993
  0
ARC
  8
1
 62
7
  6
CONTINUOUS
 10
982.781901
 20
368.683188
 40
3.858750
 50
113.150895
 51
-140.001436
  0
ARC
  8
1
 62
7
  6
CONTINUOUS
 10
1064.276255
 20
371.141329
 40
3.858750
 50
-143.991962
 51
-37.144293
  0
ARC
  8
1
 62
7
  6
CONTINUOUS
 10
1073.010014
 20
415.536930
 40
3.858750
 50
-92.563391
 51
14.284278
  0
ARC
  8
1
 62
7
  6
CONTINUOUS
 10
1036.011315
 20
446.429364
 40
33.823229
 50
-153.475003
 51
-147.638760
  0
ARC
  8
1
 62
7
  6
CONTINUOUS
 10
996.524556
 20
440.379832
 40
33.823229
 50
-102.046432
 51
-96.210188
  0
ARC
  8
1
 62
7
  6
CONTINUOUS
 10
976.634679
 20
405.736019
 40
33.823229
 50
-50.617860
 51
-44.781617
  0
ARC
  8
1
 62
7
  6
CONTINUOUS
 10
991.319168
 20
368.585423
 40
33.823229
 50
0.810711
 51
6.646954
  0
ARC
  8
1
 62
7
  6
CONTINUOUS
 10
1029.520302
 20
356.903200
 40
33.823229
 50
52.239282
 51
58.075526
  0
ARC
  8
1
 62
7
  6
CONTINUOUS
 10
986.013648
 20
430.490420
 40
9.919008
 50
141.827666
 51
177.852364
  0
ARC
  8
1
 62
7
  6
CONTINUOUS
 10
1062.471849
 20
379.486303
 40
33.823229
 50
72.153769
 51
93.095556
  0
ARC
  8
1
 62
7
  6
CONTINUOUS
 10
1022.548927
 20
402.407048
 40
56.000000
 50
14.564139
 51
26.636772
  0
ARC
  8
1
 62
7
  6
CONTINUOUS
 10
1056.198429
 20
378.017259
 40
28.634758
 50
48.914926
 51
92.234093
  0
ARC
  8
1
 62
7
  6
CONTINUOUS
 10
991.282922
 20
375.028448
 40
28.634758
 50
-53.942217
 51
-28.997131
  0
ARC
  8
1
 62
7
  6
CONTINUOUS
 10
991.282922
 20
375.028448
 40
28.634758
 50
-11.986700
 51
-5.913375
  0
CIRCLE
  8
1
 62
7
  6
CONTINUOUS
 10
1074.948927
 20
350.007048
 40
2.250000
  0
CIRCLE
  8
1
 62
7
  6
CONTINUOUS
 10
1074.948927
 20
454.807048
 40
2.250000
  0
CIRCLE
  8
1
 62
7
  6
CONTINUOUS
 10
970.148927
 20
454.807048
 40
2.250000
  0
CIRCLE
  8
1
 62
7
  6
CONTINUOUS
 10
970.148927
 20
350.007048
 40
2.250000
  0
ARC
  8
1
 62
7
  6
CONTINUOUS
 10
1099.706532
 20
436.323365
 40
10.988237
 50
26.248898
 51
27.558091
  0
ARC
  8
1
 62
7
  6
CONTINUOUS
 10
1106.543408
 20
439.692284
 40
3.366396
 50
22.131572
 51
26.286937
  0
ARC
  8
1
 62
7
  6
CONTINUOUS
 10
1108.057214
 20
440.305606
 40
1.733067
 50
14.531044
 51
22.203293
  0
ARC
  8
1
 62
7
  6
CONTINUOUS
 10
1108.728271
 20
440.478433
 40
1.040113
 50
2.520717
 51
14.590179
  0
ARC
  8
1
 62
7
  6
CONTINUOUS
 10
1109.026455
 20
440.492979
 40
0.741580
 50
-14.045391
 51
2.411142
  0
ARC
  8
1
 62
7
  6
CONTINUOUS
 10
1108.802307
 20
440.571014
 40
0.978197
 50
-30.058834
 51
-15.293297
  0
ARC
  8
1
 62
7
  6
CONTINUOUS
 10
1107.304595
 20
441.424569
 40
2.702044
 50
-35.532650
 51
-29.816549
  0
ARC
  8
1
 62
7
  6
CONTINUOUS
 10
1118.951652
 20
433.122320
 40
11.601148
 50
144.529786
 51
145.881022
  0
ARC
  8
1
 62
7
  6
CONTINUOUS
 10
1110.756474
 20
438.674833
 40
1.702090
 50
145.881022
 51
154.633205
  0
ARC
  8
1
 62
7
  6
CONTINUOUS
 10
1109.847447
 20
439.105825
 40
0.696066
 50
154.633204
 51
174.326270
  0
ARC
  8
1
 62
7
  6
CONTINUOUS
 10
1109.650218
 20
439.125420
 40
0.497867
 50
174.326270
 51
-168.304771
  0
ARC
  8
1
 62
7
  6
CONTINUOUS
 10
1110.387660
 20
439.278073
 40
1.250943
 50
-168.304771
 51
-161.063011
  0
ARC
  8
1
 62
7
  6
CONTINUOUS
 10
1110.195470
 20
439.212133
 40
1.047755
 50
-161.063011
 51
-151.862653
  0
ARC
  8
1
 62
7
  6
CONTINUOUS
 10
1124.363987
 20
446.789289
 40
17.115119
 50
-151.862653
 51
-151.271797
  0
ARC
  8
1
 62
7
  6
CONTINUOUS
 10
1111.662435
 20
439.827264
 40
2.630672
 50
-151.271797
 51
-147.325328
  0
ARC
  8
1
 62
7
  6
CONTINUOUS
 10
1101.706532
 20
436.323365
 40
10.988237
 50
26.248898
 51
27.558091
  0
ARC
  8
1
 62
7
  6
CONTINUOUS
 10
1108.543408
 20
439.692284
 40
3.366396
 50
22.131572
 51
26.286937
  0
ARC
  8
1
 62
7
  6
CONTINUOUS
 10
1110.057214
 20
440.305606
 40
1.733067
 50
14.531044
 51
22.203293
  0
ARC
  8
1
 62
7
  6
CONTINUOUS
 10
1110.728271
 20
440.478433
 40
1.040113
 50
2.520717
 51
14.590179
  0
ARC
  8
1
 62
7
  6
CONTINUOUS
 10
1111.026455
 20
440.492979
 40
0.741580
 50
-14.045391
 51
2.411142
  0
ARC
  8
1
 62
7
  6
CONTINUOUS
 10
1110.802307
 20
440.571014
 40
0.978197
 50
-30.058834
 51
-15.293297
  0
ARC
  8
1
 62
7
  6
CONTINUOUS
 10
1109.304595
 20
441.424569
 40
2.702044
 50
-35.532650
 51
-29.816549
  0
ARC
  8
1
 62
7
  6
CONTINUOUS
 10
1120.951652
 20
433.122320
 40
11.601149
 50
144.529786
 51
145.881022
  0
ARC
  8
1
 62
7
  6
CONTINUOUS
 10
1112.756474
 20
438.674833
 40
1.702090
 50
145.881022
 51
154.633204
  0
ARC
  8
1
 62
7
  6
CONTINUOUS
 10
1111.847447
 20
439.105825
 40
0.696066
 50
154.633204
 51
174.326270
  0
ARC
  8
1
 62
7
  6
CONTINUOUS
 10
1111.650218
 20
439.125420
 40
0.497867
 50
174.326270
 51
-168.304771
  0
ARC
  8
1
 62
7
  6
CONTINUOUS
 10
1112.387660
 20
439.278073
 40
1.250943
 50
-168.304771
 51
-161.063011
  0
ARC
  8
1
 62
7
  6
CONTINUOUS
 10
1112.195470
 20
439.212133
 40
1.047755
 50
-161.063011
 51
-151.862654
  0
ARC
  8
1
 62
7
  6
CONTINUOUS
 10
1126.363988
 20
446.789289
 40
17.115119
 50
-151.862653
 51
-151.271797
  0
ARC
  8
1
 62
7
  6
CONTINUOUS
 10
1113.662435
 20
439.827264
 40
2.630672
 50
-151.271797
 51
-147.325328
  0
ARC
  8
1
 62
7
  6
CONTINUOUS
 10
1171.235132
 20
453.396441
 40
14.053008
 50
-59.425763
 51
-50.474446
  0
ARC
  8
1
 62
7
  6
CONTINUOUS
 10
1173.960759
 20
450.081857
 40
9.761687
 50
-50.432846
 51
-37.774689
  0
ARC
  8
1
 62
7
  6
CONTINUOUS
 10
1174.113759
 20
449.836803
 40
9.491169
 50
-37.171148
 51
-25.076622
  0
ARC
  8
1
 62
7
  6
CONTINUOUS
 10
1171.448993
 20
451.097001
 40
12.438874
 50
-25.131927
 51
-15.730130
  0
ARC
  8
1
 62
7
  6
CONTINUOUS
 10
1167.760648
 20
452.154931
 40
16.275910
 50
-15.794815
 51
-8.534597
  0
ARC
  8
1
 62
7
  6
CONTINUOUS
 10
1163.809726
 20
452.756294
 40
20.272329
 50
-8.558226
 51
-2.806020
  0
ARC
  8
1
 62
7
  6
CONTINUOUS
 10
1160.901719
 20
452.889775
 40
23.183386
 50
-2.783681
 51
2.011202
  0
ARC
  8
1
 62
7
  6
CONTINUOUS
 10
1168.621556
 20
452.261356
 40
12.304443
 50
-52.025379
 51
-42.230171
  0
ARC
  8
1
 62
7
  6
CONTINUOUS
 10
1169.400653
 20
451.554753
 40
11.252645
 50
-42.232384
 51
-31.556509
  0
ARC
  8
1
 62
7
  6
CONTINUOUS
 10
1169.197859
 20
451.619455
 40
11.459426
 50
-31.301534
 51
-20.377218
  0
ARC
  8
1
 62
7
  6
CONTINUOUS
 10
1167.436634
 20
452.277228
 40
13.339471
 50
-20.391616
 51
-10.954259
  0
ARC
  8
1
 62
7
  6
CONTINUOUS
 10
1165.682034
 20
452.623800
 40
15.127960
 50
-10.980163
 51
-2.650177
  0
ARC
  8
1
 62
7
  6
CONTINUOUS
 10
1164.691011
 20
452.671983
 40
16.120151
 50
-2.658380
 51
5.061845
  0
ARC
  8
1
 62
7
  6
CONTINUOUS
 10
1183.134801
 20
453.039234
 40
2.609317
 50
147.396467
 51
156.150364
  0
ARC
  8
1
 62
7
  6
CONTINUOUS
 10
1181.616895
 20
453.996608
 40
0.814829
 50
128.473863
 51
146.596829
  0
ARC
  8
1
 62
7
  6
CONTINUOUS
 10
1181.270941
 20
454.409504
 40
0.276691
 50
89.796820
 51
125.582103
  0
ARC
  8
1
 62
7
  6
CONTINUOUS
 10
1181.247711
 20
454.402888
 40
0.284337
 50
51.069486
 51
85.115484
  0
ARC
  8
1
 62
7
  6
CONTINUOUS
 10
1180.959610
 20
454.010469
 40
0.770967
 50
36.780105
 51
52.739675
  0
ARC
  8
1
 62
7
  6
CONTINUOUS
 10
1179.755342
 20
453.050808
 40
2.310595
 50
31.384271
 51
37.960029
  0
ARC
  8
1
 62
7
  6
CONTINUOUS
 10
1174.474029
 20
449.765509
 40
8.530295
 50
29.716543
 51
31.748739
  0
ARC
  8
1
 62
7
  6
CONTINUOUS
 10
1199.475724
 20
464.065514
 40
20.272052
 50
-150.210503
 51
-149.300207
  0
ARC
  8
1
 62
7
  6
CONTINUOUS
 10
1186.409715
 20
456.305333
 40
5.075309
 50
-149.321711
 51
-145.673295
  0
ARC
  8
1
 62
7
  6
CONTINUOUS
 10
1184.263567
 20
454.838313
 40
2.475676
 50
-145.702952
 51
-138.578285
  0
ARC
  8
1
 62
7
  6
CONTINUOUS
 10
1183.385064
 20
454.064683
 40
1.305091
 50
-138.529983
 51
-126.163673
  0
ARC
  8
1
 62
7
  6
CONTINUOUS
 10
1183.049766
 20
453.613058
 40
0.742633
 50
-125.839895
 51
-105.967572
  0
ARC
  8
1
 62
7
  6
CONTINUOUS
 10
1182.997358
 20
453.457696
 40
0.578898
 50
-105.210738
 51
-79.531137
  0
ARC
  8
1
 62
7
  6
CONTINUOUS
 10
1182.959781
 20
453.664279
 40
0.788871
 50
-79.573644
 51
-56.956122
  0
ARC
  8
1
 62
7
  6
CONTINUOUS
 10
1182.557635
 20
454.345622
 40
1.579667
 50
-58.204765
 51
-43.079381
  0
ARC
  8
1
 62
7
  6
CONTINUOUS
 10
1181.258405
 20
455.651672
 40
3.421328
 50
-44.194130
 51
-34.711942
  0
ARC
  8
1
 62
7
  6
CONTINUOUS
 10
1168.376419
 20
452.510162
 40
12.648088
 50
-67.168881
 51
-62.088997
  0
ARC
  8
1
 62
7
  6
CONTINUOUS
 10
1168.290797
 20
452.677889
 40
12.836385
 50
-62.101720
 51
-57.062906
  0
ARC
  8
1
 62
7
  6
CONTINUOUS
 10
1168.326411
 20
452.626460
 40
12.773859
 50
-57.071548
 51
-51.989473
  0
ARC
  8
1
 62
7
  6
CONTINUOUS
 10
-15656.198040
 20
30338.621460
 40
34309.525645
 50
-60.625285
 51
-60.621823
  0
ARC
  8
1
 62
7
  6
CONTINUOUS
 10
1159.230407
 20
469.440896
 40
32.323580
 50
-60.615355
 51
-56.807283
  0
ARC
  8
1
 62
7
  6
CONTINUOUS
 10
1168.320084
 20
455.564373
 40
15.735032
 50
-56.842797
 51
-49.036081
  0
ARC
  8
1
 62
7
  6
CONTINUOUS
 10
1172.282730
 20
450.994854
 40
9.686640
 50
-49.015858
 51
-36.551265
  0
ARC
  8
1
 62
7
  6
CONTINUOUS
 10
1172.662923
 20
450.563267
 40
9.124986
 50
-35.795982
 51
-21.788952
  0
ARC
  8
1
 62
7
  6
CONTINUOUS
 10
1170.010904
 20
451.640548
 40
11.987424
 50
-21.865033
 51
-11.012447
  0
ARC
  8
1
 62
7
  6
CONTINUOUS
 10
1167.007023
 20
452.245397
 40
15.051542
 50
-11.088212
 51
-2.432235
  0
ARC
  8
1
 62
7
  6
CONTINUOUS
 10
1165.356538
 20
452.318422
 40
16.703640
 50
-2.442236
 51
5.092544
  0
ARC
  8
1
 62
7
  6
CONTINUOUS
 10
1148.145885
 20
505.293692
 40
70.926100
 50
-69.241607
 51
-67.777352
  0
ARC
  8
1
 62
7
  6
CONTINUOUS
 10
1162.483892
 20
470.231248
 40
33.045324
 50
-67.798408
 51
-64.523766
  0
ARC
  8
1
 62
7
  6
CONTINUOUS
 10
1167.677288
 20
459.357736
 40
20.995245
 50
-64.554639
 51
-59.341269
  0
ARC
  8
1
 62
7
  6
CONTINUOUS
 10
1051.245015
 20
410.613780
 40
2.000000
 50
-75.000000
 51
-40.000000
  0
ARC
  8
1
 62
7
  6
CONTINUOUS
 10
1050.399953
 20
411.940260
 40
2.000000
 50
-75.000000
 51
-40.000000
  0
ARC
  8
1
 62
7
  6
CONTINUOUS
 10
1049.554892
 20
413.266741
 40
2.000000
 50
-75.000000
 51
-40.000000
  0
ARC
  8
1
 62
7
  6
CONTINUOUS
 10
1059.993468
 20
422.284359
 40
0.300000
 50
140.000000
 51
-130.000000
  0
ARC
  8
1
 62
7
  6
CONTINUOUS
 10
1061.536158
 20
424.122866
 40
0.300000
 50
50.000000
 51
140.000000
  0
ARC
  8
1
 62
7
  6
CONTINUOUS
 10
1078.109766
 20
436.407048
 40
2.000000
 50
90.000000
 51
115.841933
  0
ARC
  8
1
 62
7
  6
CONTINUOUS
 10
1077.410305
 20
437.907048
 40
2.000000
 50
90.000000
 51
140.000000
  0
ARC
  8
1
 62
7
  6
CONTINUOUS
 10
1076.710843
 20
439.407048
 40
2.000000
 50
90.000000
 51
140.000000
  0
ARC
  8
128
 62
7
  6
CONTINUOUS
 10
1077.048927
 20
437.207048
 40
1.000000
 50
90.000000
 51
92.308346
  0
ARC
  8
1
 62
7
  6
CONTINUOUS
 10
1080.548927
 20
438.707048
 40
0.500000
 50
-90.000000
 51
-36.869898
  0
ARC
  8
1
 62
7
  6
CONTINUOUS
 10
1080.548927
 20
441.107048
 40
0.500000
 50
0.000000
 51
36.869898
  0
ARC
  8
1
 62
7
  6
HIDDEN
 10
1071.098987
 20
447.704417
 40
0.300000
 50
135.000000
 51
-136.985040
  0
ARC
  8
1
 62
7
  6
CONTINUOUS
 10
1080.548927
 20
438.707048
 40
0.500000
 50
-36.869898
 51
0.000000
  0
ARC
  8
1
 62
7
  6
CONTINUOUS
 10
1080.548927
 20
441.107048
 40
0.500000
 50
36.869898
 51
90.000000
  0
ARC
  8
1
 62
7
  6
CONTINUOUS
 10
1081.548927
 20
438.257048
 40
1.000000
 50
0.000000
 51
90.000000
  0
ARC
  8
1
 62
7
  6
CONTINUOUS
 10
1081.548927
 20
441.557048
 40
1.000000
 50
-90.000000
 51
0.000000
  0
ARC
  8
1
 62
7
  6
HIDDEN
 10
1073.361603
 20
443.102035
 40
1.000000
 50
-45.000000
 51
38.690629
  0
ARC
  8
1
 62
7
  6
HIDDEN
 10
1078.896525
 20
435.010088
 40
1.000000
 50
30.053918
 51
135.000000
  0
ARC
  8
128
 62
7
  6
HIDDEN
 10
1062.871747
 20
357.841588
 40
1.000000
 50
45.000000
 51
132.138789
  0
ARC
  8
128
 62
7
  6
HIDDEN
 10
977.983467
 20
362.084229
 40
1.000000
 50
-45.000000
 51
42.138789
  0
ARC
  8
128
 62
7
  6
HIDDEN
 10
982.226108
 20
446.972508
 40
1.000000
 50
-135.000000
 51
-47.861211
  0
ARC
  8
128
 62
7
  6
HIDDEN
 10
1067.114387
 20
362.084229
 40
1.000000
 50
137.861211
 51
-135.000000
  0
ARC
  8
128
 62
7
  6
HIDDEN
 10
982.226108
 20
357.841588
 40
1.000000
 50
47.861211
 51
135.000000
  0
ARC
  8
128
 62
7
  6
HIDDEN
 10
977.983467
 20
442.729867
 40
1.000000
 50
-42.138789
 51
45.000000
  0
ARC
  8
128
 62
7
  6
HIDDEN
 10
1067.114387
 20
442.729867
 40
1.000000
 50
135.000000
 51
-137.861211
  0
ARC
  8
128
 62
7
  6
HIDDEN
 10
1062.871747
 20
446.972508
 40
1.000000
 50
-132.138789
 51
-45.000000
  0
ARC
  8
128
 62
7
  6
CONTINUOUS
 10
1075.048927
 20
435.092868
 40
1.000000
 50
-40.000000
 51
0.000000
  0
ARC
  8
128
 62
7
  6
CONTINUOUS
 10
1077.048927
 20
437.207048
 40
1.000000
 50
92.308346
 51
180.000000
  0
ARC
  8
128
 62
7
  6
CONTINUOUS
 10
1077.003955
 20
445.107048
 40
1.500000
 50
-141.898824
 51
-90.000000
  0
ARC
  8
128
 62
7
  6
CONTINUOUS
 10
1079.548927
 20
444.607048
 40
1.000000
 50
-90.000000
 51
0.000000
  0
ARC
  8
128
 62
7
  6
CONTINUOUS
 10
1061.685791
 20
419.167302
 40
1.000000
 50
-40.000000
 51
50.000000
  0
ARC
  8
128
 62
7
  6
CONTINUOUS
 10
1064.899729
 20
422.997524
 40
1.000000
 50
-130.000000
 51
-40.000000
  0
ARC
  8
1
 62
7
  6
CONTINUOUS
 10
1048.721029
 20
416.162291
 40
3.000000
 50
-56.836181
 51
-40.000000
  0
ARC
  8
1
 62
7
  6
CONTINUOUS
 10
1050.966369
 20
409.503840
 40
3.000000
 50
-65.127025
 51
-40.000000
  0
ARC
  8
1
 62
7
  6
CONTINUOUS
 10
976.648927
 20
345.407048
 40
1.000000
 50
180.000000
 51
-90.000000
  0
ARC
  8
1
 62
7
  6
CONTINUOUS
 10
976.648927
 20
351.290710
 40
1.000000
 50
48.077694
 51
180.000000
  0
ARC
  8
1
 62
7
  6
CONTINUOUS
 10
984.199351
 20
345.407048
 40
1.000000
 50
-90.000000
 51
56.067350
  0
ARC
  8
1
 62
7
  6
CONTINUOUS
 10
965.548927
 20
448.307048
 40
1.000000
 50
90.000000
 51
180.000000
  0
ARC
  8
1
 62
7
  6
CONTINUOUS
 10
971.432589
 20
448.307048
 40
1.000000
 50
-41.922306
 51
90.000000
  0
ARC
  8
1
 62
7
  6
CONTINUOUS
 10
965.548927
 20
440.756624
 40
1.000000
 50
180.000000
 51
-33.932650
  0
ARC
  8
1
 62
7
  6
CONTINUOUS
 10
1068.448927
 20
459.407048
 40
1.000000
 50
0.000000
 51
90.000000
  0
ARC
  8
1
 62
7
  6
CONTINUOUS
 10
1068.448927
 20
453.523386
 40
1.000000
 50
-131.922306
 51
0.000000
  0
ARC
  8
1
 62
7
  6
CONTINUOUS
 10
1060.898503
 20
459.407048
 40
1.000000
 50
90.000000
 51
-123.932650
  0
ARC
  8
1
 62
7
  6
CONTINUOUS
 10
971.432589
 20
356.507048
 40
1.000000
 50
-90.000000
 51
41.922306
  0
ARC
  8
1
 62
7
  6
CONTINUOUS
 10
965.548927
 20
356.507048
 40
1.000000
 50
180.000000
 51
-90.000000
  0
ARC
  8
1
 62
7
  6
CONTINUOUS
 10
965.548927
 20
364.057472
 40
1.000000
 50
33.932650
 51
180.000000
  0
ARC
  8
1
 62
7
  6
CONTINUOUS
 10
976.648927
 20
453.523386
 40
1.000000
 50
180.000000
 51
-48.077694
  0
ARC
  8
1
 62
7
  6
CONTINUOUS
 10
976.648927
 20
459.407048
 40
1.000000
 50
90.000000
 51
180.000000
  0
ARC
  8
1
 62
7
  6
CONTINUOUS
 10
984.199351
 20
459.407048
 40
1.000000
 50
-56.067350
 51
90.000000
  0
ARC
  8
1
 62
7
  6
CONTINUOUS
 10
1073.665265
 20
448.307048
 40
1.000000
 50
90.000000
 51
-138.077694
  0
ARC
  8
1
 62
7
  6
CONTINUOUS
 10
1079.548927
 20
448.307048
 40
1.000000
 50
0.000000
 51
90.000000
  0
ARC
  8
1
 62
7
  6
CONTINUOUS
 10
1068.448927
 20
351.290710
 40
1.000000
 50
0.000000
 51
131.922306
  0
ARC
  8
1
 62
7
  6
CONTINUOUS
 10
1068.448927
 20
345.407048
 40
1.000000
 50
-90.000000
 51
0.000000
  0
ARC
  8
1
 62
7
  6
CONTINUOUS
 10
1060.898503
 20
345.407048
 40
1.000000
 50
123.932650
 51
-90.000000
  0
ARC
  8
1
 62
7
  6
CONTINUOUS
 10
1079.548927
 20
356.507048
 40
1.000000
 50
-90.000000
 51
0.000000
  0
ARC
  8
1
 62
7
  6
CONTINUOUS
 10
1073.665265
 20
356.507048
 40
1.000000
 50
138.077694
 51
-90.000000
  0
ARC
  8
1
 62
7
  6
CONTINUOUS
 10
1079.548927
 20
364.057472
 40
1.000000
 50
0.000000
 51
146.067350
  0
ARC
  8
1
 62
7
  6
CONTINUOUS
 10
966.918492
 20
425.373375
 40
1.500000
 50
80.000000
 51
150.528779
  0
ARC
  8
1
 62
7
  6
CONTINUOUS
 10
966.918492
 20
434.004501
 40
1.500000
 50
180.000000
 51
-170.528779
  0
ARC
  8
1
 62
7
  6
CONTINUOUS
 10
1029.007886
 20
346.776613
 40
1.500000
 50
-160.000000
 51
-150.673802
  0
ARC
  8
1
 62
7
  6
CONTINUOUS
 10
1020.676449
 20
346.276613
 40
1.000000
 50
-90.000000
 51
-27.451163
  0
ARC
  8
1
 62
7
  6
CONTINUOUS
 10
1071.537957
 20
444.132309
 40
1.500000
 50
-40.000000
 51
30.528779
  0
ARC
  8
1
 62
7
  6
CONTINUOUS
 10
1078.679362
 20
433.196556
 40
1.000000
 50
0.000000
 51
50.000000
  0
ARC
  8
1
 62
7
  6
CONTINUOUS
 10
1071.537957
 20
444.132309
 40
1.500000
 50
30.528779
 51
40.421921
  0
ARC
  8
1
 62
7
  6
CONTINUOUS
 10
1078.679362
 20
433.196556
 40
1.000000
 50
50.000000
 51
140.000000
  0
ARC
  8
1
 62
7
  6
CONTINUOUS
 10
1020.676449
 20
346.276613
 40
1.000000
 50
-27.451163
 51
20.000000
  0
ARC
  8
1
 62
7
  6
CONTINUOUS
 10
1029.007886
 20
346.776613
 40
1.500000
 50
-150.673802
 51
-90.000000
  0
ARC
  8
1
 62
7
  6
CONTINUOUS
 10
966.918492
 20
434.004501
 40
1.500000
 50
-170.528779
 51
-100.000000
  0
ARC
  8
1
 62
7
  6
CONTINUOUS
 10
966.918492
 20
425.373375
 40
1.500000
 50
150.528779
 51
180.000000
  0
ARC
  8
1
 62
7
  6
CONTINUOUS
 10
1048.610832
 20
415.095493
 40
2.000000
 50
-92.139102
 51
-74.713216
  0
ARC
  8
1
 62
7
  6
CONTINUOUS
 10
1051.466643
 20
404.461507
 40
2.000000
 50
105.000000
 51
165.000000
  0
ARC
  8
1
 62
7
  6
CONTINUOUS
 10
1057.543395
 20
401.784797
 40
5.000000
 50
140.000000
 51
178.981308
  0
ARC
  8
1
 62
7
  6
CONTINUOUS
 10
1049.862880
 20
419.078820
 40
2.000000
 50
-148.601124
 51
-40.000000
  0
ARC
  8
1
 62
7
  6
CONTINUOUS
 10
1078.548927
 20
458.407048
 40
4.000000
 50
0.000000
 51
90.000000
  0
ARC
  8
1
 62
7
  6
CONTINUOUS
 10
1078.548927
 20
346.407048
 40
4.000000
 50
-90.000000
 51
0.000000
  0
ARC
  8
1
 62
7
  6
CONTINUOUS
 10
966.548927
 20
346.407048
 40
4.000000
 50
180.000000
 51
-90.000000
  0
ARC
  8
1
 62
7
  6
CONTINUOUS
 10
966.548927
 20
458.407048
 40
4.000000
 50
90.000000
 51
180.000000
  0
ARC
  8
1
 62
7
  6
CONTINUOUS
 10
971.432589
 20
448.307048
 40
1.000000
 50
-41.922306
 51
90.000000
  0
ARC
  8
1
 62
7
  6
CONTINUOUS
 10
995.684233
 20
419.793485
 40
2.000000
 50
-32.910354
 51
80.000000
  0
ARC
  8
1
 62
7
  6
CONTINUOUS
 10
1003.189811
 20
429.132029
 40
3.000000
 50
-100.000000
 51
-54.081074
  0
ARC
  8
1
 62
7
  6
CONTINUOUS
 10
1009.083973
 20
372.279071
 40
3.000000
 50
20.000000
 51
65.918926
  0
ARC
  8
1
 62
7
  6
CONTINUOUS
 10
1020.924178
 20
370.448322
 40
2.000000
 50
87.089646
 51
-160.000000
  0
ARC
  8
1
 62
7
  6
CONTINUOUS
 10
1048.610832
 20
415.095493
 40
2.000000
 50
-135.000000
 51
-92.139102
  0
ARC
  8
1
 62
7
  6
CONTINUOUS
 10
1048.721029
 20
416.162291
 40
3.000000
 50
-74.713216
 51
-56.836181
  0
ARC
  8
1
 62
7
  6
CONTINUOUS
 10
1050.966369
 20
409.503840
 40
3.000000
 50
-75.000000
 51
-65.127025
  0
LINE
  8
1
 62
7
  6
CONTINUOUS
 10
1093.167560
 20
396.535031
 11
1068.338695
 21
387.853583
  0
CIRCLE
  8
1
 62
7
  6
CONTINUOUS
 10
1068.338695
 20
387.853583
 40
1.000000
  0
LINE
  8
1
 62
7
  6
CONTINUOUS
 10
1205.188487
 20
319.443397
 11
1168.504123
 21
319.443397
  0
LINE
  8
1
 62
7
  6
CONTINUOUS
 10
1172.004123
 20
319.904181
 11
1172.004123
 21
318.982613
  0
LINE
  8
1
 62
7
  6
CONTINUOUS
 10
1172.004123
 20
318.982613
 11
1168.504123
 21
319.443397
  0
LINE
  8
1
 62
7
  6
CONTINUOUS
 10
1168.504123
 20
319.443397
 11
1172.004123
 21
319.904181
  0
LINE
  8
1
 62
7
  6
CONTINUOUS
 10
1012.074295
 20
319.623025
 11
1009.900076
 21
320.596196
  0
LINE
  8
1
 62
7
  6
CONTINUOUS
 10
1013.282917
 20
319.586885
 11
1012.906421
 21
318.745733
  0
LINE
  8
1
 62
7
  6
CONTINUOUS
 10
1012.906421
 20
318.745733
 11
1009.900076
 21
320.596196
  0
LINE
  8
1
 62
7
  6
CONTINUOUS
 10
1009.900076
 20
320.596196
 11
1013.282917
 21
319.586885
  0
TEXT
  8
1
 62
7
  6
CONTINUOUS
 10
1008.972201
 20
409.906456
 40
3.000000
 41
0.900000
  1
DC Centaur
  7
KANJI
 50
0.000000
 51
30.000000
  0
TEXT
  8
1
 62
7
  6
CONTINUOUS
 10
1001.547019
 20
410.201166
 40
2.000000
 41
0.675000
  1
S
  7
KANJI
 50
0.000000
 51
30.000000
  0
TEXT
  8
1
 62
7
  6
CONTINUOUS
 10
1002.902396
 20
410.201166
 40
1.200000
 41
0.540000
  1
ERVO
  7
KANJI
 50
0.000000
 51
30.000000
  0
TEXT
  8
1
 62
7
  6
CONTINUOUS
 10
1015.475735
 20
322.554863
 40
4.000000
 41
0.900000
  1
ë±ô]ò¹î³
  7
KANJI
 50
0.000000
 51
0.000000
  0
TEXT
  8
1
 62
7
  6
CONTINUOUS
 10
1182.349662
 20
322.914888
 40
4.000000
 41
0.900000
  1
òùü@î³
  7
KANJI
 50
0.000000
 51
0.000000
  0
TEXT
  8
1
 62
7
  6
CONTINUOUS
 10
1096.684379
 20
398.107336
 40
3.500000
 41
0.720000
  1
7-BLADES
  7
KANJI
 50
0.000000
 51
0.000000
  0
LINE
  8
1
 62
7
  6
CONTINUOUS
 10
1206.784083
 20
472.407048
 11
1225.591141
 21
472.407048
  0
LINE
  8
1
 62
7
  6
CONTINUOUS
 10
1201.784083
 20
472.407048
 11
1206.784083
 21
472.407048
  0
LINE
  8
1
 62
7
  6
CONTINUOUS
 10
1194.784083
 20
472.407048
 11
1201.784083
 21
472.407048
  0
LINE
  8
1
 62
7
  6
CONTINUOUS
 10
1206.784083
 20
462.407048
 11
1206.784083
 21
474.407048
  0
LINE
  8
1
 62
7
  6
CONTINUOUS
 10
1201.784083
 20
462.407048
 11
1201.784083
 21
474.407048
  0
LINE
  8
1
 62
7
  6
CONTINUOUS
 10
1201.784083
 20
472.407048
 11
1198.284083
 21
471.952048
  0
LINE
  8
1
 62
7
  6
CONTINUOUS
 10
1198.284083
 20
471.952048
 11
1198.284083
 21
472.862048
  0
LINE
  8
1
 62
7
  6
CONTINUOUS
 10
1198.284083
 20
472.862048
 11
1201.784083
 21
472.407048
  0
LINE
  8
1
 62
7
  6
CONTINUOUS
 10
1206.784083
 20
472.407048
 11
1210.284083
 21
472.862048
  0
LINE
  8
1
 62
7
  6
CONTINUOUS
 10
1210.284083
 20
472.862048
 11
1210.284083
 21
471.952048
  0
LINE
  8
1
 62
7
  6
CONTINUOUS
 10
1210.284083
 20
471.952048
 11
1206.784083
 21
472.407048
  0
TEXT
  8
1
 62
7
  6
CONTINUOUS
 10
1211.235994
 20
474.407048
 40
3.500000
 41
0.900000
  1
5
  7
KANJI
 50
0.000000
 51
0.000000
  0
TEXT
  8
1
 62
7
  6
CONTINUOUS
 10
1215.085994
 20
474.407048
 40
3.500000
 41
0.900000
  1
ü}0.5
  7
KANJI
 50
0.000000
 51
0.000000
  0
LINE
  8
1
 62
7
  6
CONTINUOUS
 10
1168.284083
 20
482.407048
 11
1206.784083
 21
482.407048
  0
LINE
  8
1
 62
7
  6
CONTINUOUS
 10
1206.784083
 20
462.407048
 11
1206.784083
 21
484.407048
  0
LINE
  8
1
 62
7
  6
CONTINUOUS
 10
1168.284083
 20
462.407048
 11
1168.284083
 21
484.407048
  0
LINE
  8
1
 62
7
  6
CONTINUOUS
 10
1168.284083
 20
482.407048
 11
1171.784083
 21
482.862048
  0
LINE
  8
1
 62
7
  6
CONTINUOUS
 10
1171.784083
 20
482.862048
 11
1171.784083
 21
481.952048
  0
LINE
  8
1
 62
7
  6
CONTINUOUS
 10
1171.784083
 20
481.952048
 11
1168.284083
 21
482.407048
  0
LINE
  8
1
 62
7
  6
CONTINUOUS
 10
1206.784083
 20
482.407048
 11
1203.284083
 21
481.952048
  0
LINE
  8
1
 62
7
  6
CONTINUOUS
 10
1203.284083
 20
481.952048
 11
1203.284083
 21
482.862048
  0
LINE
  8
1
 62
7
  6
CONTINUOUS
 10
1203.284083
 20
482.862048
 11
1206.784083
 21
482.407048
  0
TEXT
  8
1
 62
7
  6
CONTINUOUS
 10
1176.637759
 20
484.407048
 40
3.500000
 41
0.900000
  1
38.5
  7
KANJI
 50
0.000000
 51
0.000000
  0
TEXT
  8
1
 62
7
  6
CONTINUOUS
 10
1187.925259
 20
484.407048
 40
3.500000
 41
0.900000
  1
ü}0.5
  7
KANJI
 50
0.000000
 51
0.000000
  0
LINE
  8
1
 62
7
  6
CONTINUOUS
 10
1168.284083
 20
472.407048
 11
1148.727607
 21
472.407048
  0
LINE
  8
1
 62
7
  6
CONTINUOUS
 10
1168.284083
 20
472.407048
 11
1173.284083
 21
472.407048
  0
LINE
  8
1
 62
7
  6
CONTINUOUS
 10
1180.284083
 20
472.407048
 11
1173.284083
 21
472.407048
  0
LINE
  8
1
 62
7
  6
CONTINUOUS
 10
1173.284083
 20
462.407048
 11
1173.284083
 21
474.407048
  0
LINE
  8
1
 62
7
  6
CONTINUOUS
 10
1168.284083
 20
462.407048
 11
1168.284083
 21
474.407048
  0
LINE
  8
1
 62
7
  6
CONTINUOUS
 10
1168.284083
 20
472.407048
 11
1164.784083
 21
471.952048
  0
LINE
  8
1
 62
7
  6
CONTINUOUS
 10
1164.784083
 20
471.952048
 11
1164.784083
 21
472.862048
  0
LINE
  8
1
 62
7
  6
CONTINUOUS
 10
1164.784083
 20
472.862048
 11
1168.284083
 21
472.407048
  0
LINE
  8
1
 62
7
  6
CONTINUOUS
 10
1173.284083
 20
472.407048
 11
1176.784083
 21
472.862048
  0
LINE
  8
1
 62
7
  6
CONTINUOUS
 10
1176.784083
 20
472.862048
 11
1176.784083
 21
471.952048
  0
LINE
  8
1
 62
7
  6
CONTINUOUS
 10
1176.784083
 20
471.952048
 11
1173.284083
 21
472.407048
  0
TEXT
  8
1
 62
7
  6
CONTINUOUS
 10
1148.727607
 20
474.407048
 40
3.500000
 41
0.900000
  1
5
  7
KANJI
 50
0.000000
 51
0.000000
  0
TEXT
  8
1
 62
7
  6
CONTINUOUS
 10
1152.577607
 20
474.407048
 40
3.500000
 41
0.900000
  1
ü}0.5
  7
KANJI
 50
0.000000
 51
0.000000
  0
LINE
  8
1
 62
7
  6
CONTINUOUS
 10
962.548927
 20
482.407048
 11
1082.548927
 21
482.407048
  0
LINE
  8
1
 62
7
  6
CONTINUOUS
 10
1082.548927
 20
445.862919
 11
1082.548927
 21
483.407048
  0
LINE
  8
1
 62
7
  6
CONTINUOUS
 10
962.548927
 20
442.907749
 11
962.548927
 21
483.407048
  0
LINE
  8
1
 62
7
  6
CONTINUOUS
 10
962.548927
 20
482.407048
 11
966.048927
 21
482.862048
  0
LINE
  8
1
 62
7
  6
CONTINUOUS
 10
966.048927
 20
482.862048
 11
966.048927
 21
481.952048
  0
LINE
  8
1
 62
7
  6
CONTINUOUS
 10
966.048927
 20
481.952048
 11
962.548927
 21
482.407048
  0
LINE
  8
1
 62
7
  6
CONTINUOUS
 10
1082.548927
 20
482.407048
 11
1079.048927
 21
481.952048
  0
LINE
  8
1
 62
7
  6
CONTINUOUS
 10
1079.048927
 20
481.952048
 11
1079.048927
 21
482.862048
  0
LINE
  8
1
 62
7
  6
CONTINUOUS
 10
1079.048927
 20
482.862048
 11
1082.548927
 21
482.407048
  0
TEXT
  8
1
 62
7
  6
CONTINUOUS
 10
1014.464221
 20
483.407048
 40
3.200000
 41
0.900000
  1
üá120ü}1
  7
KANJI
 50
0.000000
 51
0.000000
  0
LINE
  8
1
 62
7
  6
CONTINUOUS
 10
970.148927
 20
472.407048
 11
1074.948927
 21
472.407048
  0
LINE
  8
1
 62
7
  6
CONTINUOUS
 10
1074.948927
 20
457.987297
 11
1074.948927
 21
473.407048
  0
LINE
  8
1
 62
7
  6
CONTINUOUS
 10
970.148927
 20
457.771911
 11
970.148927
 21
473.407048
  0
LINE
  8
1
 62
7
  6
CONTINUOUS
 10
970.148927
 20
472.407048
 11
973.648927
 21
472.862048
  0
LINE
  8
1
 62
7
  6
CONTINUOUS
 10
973.648927
 20
472.862048
 11
973.648927
 21
471.952048
  0
LINE
  8
1
 62
7
  6
CONTINUOUS
 10
973.648927
 20
471.952048
 11
970.148927
 21
472.407048
  0
LINE
  8
1
 62
7
  6
CONTINUOUS
 10
1074.948927
 20
472.407048
 11
1071.448927
 21
471.952048
  0
LINE
  8
1
 62
7
  6
CONTINUOUS
 10
1071.448927
 20
471.952048
 11
1071.448927
 21
472.862048
  0
LINE
  8
1
 62
7
  6
CONTINUOUS
 10
1071.448927
 20
472.862048
 11
1074.948927
 21
472.407048
  0
TEXT
  8
1
 62
7
  6
CONTINUOUS
 10
1010.064221
 20
473.407048
 40
3.200000
 41
0.900000
  1
üá104.8ü}0.3
  7
KANJI
 50
0.000000
 51
0.000000
  0
LINE
  8
1
 62
7
  6
CONTINUOUS
 10
1082.548927
 20
482.407048
 11
1144.424689
 21
482.407048
  0
LINE
  8
1
 62
7
  6
CONTINUOUS
 10
1144.424689
 20
440.967048
 11
1144.424689
 21
483.407048
  0
LINE
  8
1
 62
7
  6
CONTINUOUS
 10
1082.548927
 20
458.407048
 11
1082.548927
 21
483.407048
  0
LINE
  8
1
 62
7
  6
CONTINUOUS
 10
1082.548927
 20
482.407048
 11
1086.048927
 21
482.862048
  0
LINE
  8
1
 62
7
  6
CONTINUOUS
 10
1086.048927
 20
482.862048
 11
1086.048927
 21
481.952048
  0
LINE
  8
1
 62
7
  6
CONTINUOUS
 10
1086.048927
 20
481.952048
 11
1082.548927
 21
482.407048
  0
LINE
  8
1
 62
7
  6
CONTINUOUS
 10
1144.424689
 20
482.407048
 11
1140.924689
 21
481.952048
  0
LINE
  8
1
 62
7
  6
CONTINUOUS
 10
1140.924689
 20
481.952048
 11
1140.924689
 21
482.862048
  0
LINE
  8
1
 62
7
  6
CONTINUOUS
 10
1140.924689
 20
482.862048
 11
1144.424689
 21
482.407048
  0
TEXT
  8
1
 62
7
  6
CONTINUOUS
 10
1104.884455
 20
483.407048
 40
3.200000
 41
0.900000
  1
300ü}30
  7
KANJI
 50
0.000000
 51
0.000000
  0
LINE
  8
1
 62
7
  6
CONTINUOUS
 10
1134.424689
 20
451.850909
 11
1144.424689
 21
451.850909
  0
LINE
  8
1
 62
7
  6
CONTINUOUS
 10
1134.424689
 20
441.407048
 11
1134.424689
 21
452.850909
  0
LINE
  8
1
 62
7
  6
CONTINUOUS
 10
1144.424689
 20
440.967048
 11
1144.424689
 21
452.850909
  0
LINE
  8
1
 62
7
  6
CONTINUOUS
 10
1134.424689
 20
451.850909
 11
1137.924689
 21
452.305909
  0
LINE
  8
1
 62
7
  6
CONTINUOUS
 10
1137.924689
 20
452.305909
 11
1137.924689
 21
451.395909
  0
LINE
  8
1
 62
7
  6
CONTINUOUS
 10
1137.924689
 20
451.395909
 11
1134.424689
 21
451.850909
  0
LINE
  8
1
 62
7
  6
CONTINUOUS
 10
1144.424689
 20
451.850909
 11
1140.924689
 21
451.395909
  0
LINE
  8
1
 62
7
  6
CONTINUOUS
 10
1140.924689
 20
451.395909
 11
1140.924689
 21
452.305909
  0
LINE
  8
1
 62
7
  6
CONTINUOUS
 10
1140.924689
 20
452.305909
 11
1144.424689
 21
451.850909
  0
TEXT
  8
1
 62
7
  6
CONTINUOUS
 10
1136.064689
 20
452.850909
 40
3.200000
 41
0.900000
  1
(10)
  7
KANJI
 50
0.000000
 51
0.000000
  0
LINE
  8
1
 62
7
  6
CONTINUOUS
 10
1076.583478
 20
348.460845
 11
1090.661071
 21
335.144149
  0
LINE
  8
1
 62
7
  6
CONTINUOUS
 10
1090.661071
 20
335.144149
 11
1120.545777
 21
335.144149
  0
LINE
  8
1
 62
7
  6
CONTINUOUS
 10
1076.583478
 20
348.460845
 11
1079.438789
 21
346.386183
  0
LINE
  8
1
 62
7
  6
CONTINUOUS
 10
1079.438789
 20
346.386183
 11
1078.813436
 21
345.725098
  0
LINE
  8
1
 62
7
  6
CONTINUOUS
 10
1078.813436
 20
345.725098
 11
1076.583478
 21
348.460845
  0
TEXT
  8
1
 62
7
  6
CONTINUOUS
 10
1104.141071
 20
336.144149
 40
3.200000
 41
0.900000
  1
4.5ü}0.3
  7
KANJI
 50
0.000000
 51
0.000000
  0
TEXT
  8
1
 62
7
  6
CONTINUOUS
 10
1094.861071
 20
336.144149
 40
3.200000
 41
0.900000
  1
8-âË
  7
KANJI
 50
0.000000
 51
0.000000
  0
ENDSEC
  0
EOF
