  0
SECTION
  2
HEADER
  9
$ACADVER
  1
AC1009
  9
$INSBASE
 10
0
 20
0
  9
$EXTMIN
 10
-28.31440632197009
 20
381.004011572599
  9
$EXTMAX
 10
235.6445208514256
 20
597.8802484255288
  9
$LIMMIN
 10
-28.31440632197009
 20
381.004011572599
  9
$LIMMAX
 10
235.6445208514256
 20
597.8802484255288
  9
$VIEWCTR
 10
10
 20
10
  9
$VIEWSIZE
 40
10
  9
$SNAPMODE
 70
0
  9
$SNAPUNIT
 10
1
 20
1
  9
$SNAPBASE
 10
0
 20
0
  9
$SNAPANG
 50
0
  9
$SNAPSTYLE
 70
0
  9
$SNAPISOPAIR
 70
0
  9
$GRIDMODE
 70
0
  9
$GRIDUNIT
 10
0
 20
0
  9
$ORTHOMODE
 70
0
  9
$REGENMODE
 70
1
  9
$FILLMODE
 70
1
  9
$QTEXTMODE
 70
0
  9
$DRAGMODE
 70
2
  9
$LTSCALE
 40
1
  9
$OSMODE
 70
0
  9
$ATTMODE
 70
1
  9
$TEXTSIZE
 40
3.5
  9
$TRACEWID
 40
0.5
  9
$TEXTSTYLE
  7
STANDARD
  9
$CLAYER
  8
0
  9
$CELTYPE
  6
BYLAYER
  9
$CECOLOR
 62
256
  9
$DIMSCALE
 40
1
  9
$DIMASZ
 40
0.18
  9
$DIMEXO
 40
0.0625
  9
$DIMDLI
 40
0.38
  9
$DIMRND
 40
0
  9
$DIMDLE
 40
0
  9
$DIMEXE
 40
0.18
  9
$DIMTP
 40
0
  9
$DIMTM
 40
0
  9
$DIMTXT
 40
0.18
  9
$DIMCEN
 40
0.09
  9
$DIMTSZ
 40
0
  9
$DIMTOL
 70
0
  9
$DIMLIM
 70
0
  9
$DIMTIH
 70
1
  9
$DIMTOH
 70
1
  9
$DIMSE1
 70
0
  9
$DIMSE2
 70
0
  9
$DIMTAD
 70
0
  9
$DIMZIN
 70
0
  9
$DIMBLK
  1

  9
$DIMASO
 70
1
  9
$DIMSHO
 70
1
  9
$DIMPOST
  1

  9
$DIMAPOST
  1

  9
$DIMALT
 70
0
  9
$DIMALTD
 70
2
  9
$DIMALTF
 40
25.4
  9
$DIMLFAC
 40
1
  9
$DIMTOFL
 70
0
  9
$DIMTVP
 40
0
  9
$DIMTIX
 70
0
  9
$DIMSOXD
 70
0
  9
$DIMSAH
 70
0
  9
$DIMBLK1
  1

  9
$DIMBLK2
  1

  9
$DIMSTYLE
  2
*UNNAMED
  9
$DIMCLRD
 70
0
  9
$DIMCLRE
 70
0
  9
$DIMCLRT
 70
0
  9
$DIMTFAC
 40
1
  9
$DIMGAP
 40
0.09
  9
$LUNITS
 70
2
  9
$LUPREC
 70
4
  9
$AXISMODE
 70
0
  9
$AXISUNIT
 10
0
 20
0
  9
$SKETCHINC
 40
0.1
  9
$FILLETRAD
 40
2
  9
$AUNITS
 70
0
  9
$AUPREC
 70
0
  9
$MENU
  1
ACAD
  9
$ELEVATION
 40
0
  9
$THICKNESS
 40
0
  9
$VIEWDIR
 10
0
 20
0
 30
1
  9
$LIMCHECK
 70
0
  9
$BLIPMODE
 70
1
  9
$CHAMFERA
 40
0
  9
$CHAMFERB
 40
0
  9
$FASTZOOM
 70
1
  9
$SKPOLY
 70
0
  9
$ANGBASE
 50
0
  9
$ANGDIR
 70
0
  9
$PDMODE
 70
0
  9
$PDSIZE
 40
0
  9
$PLINEWID
 40
0
  9
$COORDS
 70
2
  0
ENDSEC
  0
SECTION
  2
TABLES
  0
TABLE
  2
DIMSTYLE
 70
0
  0
ENDTAB
  0
TABLE
  2
LTYPE
 70
9
  0
LTYPE
  2
CONTINUOUS
 70
64
  3
Solid line
 72
65
 73
0
 40
0
  0
LTYPE
  2
BORDER
 70
64
  3
__ __ . __ __ .
 72
65
 73
6
 40
12.15600322509059
 49
3.473143778597312
 49
-1.736571889298656
 49
3.473143778597312
 49
-1.736571889298656
 49
0
 49
-1.736571889298656
  0
LTYPE
  2
CENTER
 70
64
  3
____ _ ____ _
 72
65
 73
4
 40
13.89257511438925
 49
8.68285944649328
 49
-1.736571889298656
 49
1.736571889298656
 49
-1.736571889298656
  0
LTYPE
  2
DASHDOT
 70
64
  3
__ . __ . __ .
 72
65
 73
4
 40
6.946287557194624
 49
3.473143778597312
 49
-1.736571889298656
 49
0
 49
-1.736571889298656
  0
LTYPE
  2
DASHED
 70
64
  3
__ __ __ __ __
 72
65
 73
2
 40
5.209715667895968
 49
3.473143778597312
 49
-1.736571889298656
  0
LTYPE
  2
DIVIDE
 70
64
  3
__ . . __ . . 
 72
65
 73
6
 40
8.68285944649328
 49
3.473143778597312
 49
-1.736571889298656
 49
0
 49
-1.736571889298656
 49
0
 49
-1.736571889298656
  0
LTYPE
  2
DOT
 70
64
  3
..............
 72
65
 73
4
 40
3.473143778597312
 49
0
 49
-1.736571889298656
 49
0
 49
-1.736571889298656
  0
LTYPE
  2
HIDDEN
 70
64
  3
_ _ _ _ _ _ _
 72
65
 73
2
 40
2.604857833947984
 49
1.736571889298656
 49
-0.868285944649328
  0
LTYPE
  2
PHANTOM
 70
64
  3
_____ _ _ _____ _ _ 
 72
65
 73
6
 40
17.36571889298656
 49
8.68285944649328
 49
-1.736571889298656
 49
1.736571889298656
 49
-1.736571889298656
 49
1.736571889298656
 49
-1.736571889298656
  0
ENDTAB
  0
TABLE
  2
LAYER
 70
3
  0
LAYER
  2
1
 70
0
 62
7
  6
CONTINUOUS
  0
LAYER
  2
0
 70
0
 62
7
  6
CONTINUOUS
  0
ENDTAB
  0
TABLE
  2
STYLE
 70
4
  0
STYLE
  2
STANDARD
 70
0
 40
0
 41
1
 50
0
 71
0
 42
3.5
  3
txt
  4

  0
STYLE
  2
SIMPLEX
 70
0
 40
0
 41
1
 50
0
 71
0
 42
3.5
  3
simplex
  4

  0
STYLE
  2
COMPLEX
 70
0
 40
0
 41
1
 50
0
 71
0
 42
3.5
  3
complex
  4

  0
STYLE
  2
ITALIC
 70
0
 40
0
 41
1
 50
0
 71
0
 42
3.5
  3
italic
  4

  0
ENDTAB
  0
TABLE
  2
VIEW
 70
0
  0
ENDTAB
  0
ENDSEC
  0
SECTION
  2
BLOCKS
  0
BLOCK
  8
0
  2
____M4_________1
 70
0
 10
21.43559367802992
 20
472.6974802017518
 30
0
  0
LINE
  8
1
 62
3
 10
23.31216482475635
 20
471.5492290396475
 30
0
 11
22.35292633777856
 21
472.5084675266253
 31
0
  0
LINE
  8
1
 62
3
 10
23.31216482475635
 20
473.8457313638561
 30
0
 11
22.35292633777856
 21
472.8864928768783
 31
0
  0
LINE
  8
1
 62
3
 10
20.28734251592564
 20
470.8209090550254
 30
0
 11
21.24658100290341
 21
471.7801475420032
 31
0
  0
LINE
  8
1
 62
3
 10
22.5838448401342
 20
470.8209090550254
 30
0
 11
21.62460635315642
 21
471.7801475420032
 31
0
  0
LINE
  8
1
 62
3
 10
19.5590225313035
 20
473.8457313638561
 30
0
 11
20.51826101828127
 21
472.8864928768783
 31
0
  0
LINE
  8
1
 62
3
 10
19.5590225313035
 20
471.5492290396475
 30
0
 11
20.51826101828127
 21
472.5084675266253
 31
0
  0
LINE
  8
1
 62
3
 10
22.5838448401342
 20
474.5740513484782
 30
0
 11
21.62460635315642
 21
473.6148128615004
 31
0
  0
LINE
  8
1
 62
3
 10
20.28734251592564
 20
474.5740513484782
 30
0
 11
21.24658100290341
 21
473.6148128615004
 31
0
  0
LINE
  8
1
 62
1
 10
28.43559367802992
 20
472.6974802017518
 30
0
 11
14.43559367802992
 21
472.6974802017518
 31
0
  0
ARC
  8
1
 62
3
 10
21.43559367802992
 20
472.6974802017518
 30
0
 40
0.914999999999999
 50
350.8377712759703
 51
9.162228724033147
  0
ARC
  8
1
 62
3
 10
21.43559367802992
 20
472.6974802017518
 30
0
 40
2.199999999999926
 50
301.4619589546538
 51
328.5380410453478
  0
ARC
  8
1
 62
3
 10
21.43559367802992
 20
472.6974802017518
 30
0
 40
0.9149999999999907
 50
260.8377712759681
 51
279.1622287240319
  0
ARC
  8
1
 62
3
 10
21.43559367802992
 20
472.6974802017518
 30
0
 40
2.199999999999975
 50
211.4619589546523
 51
238.5380410453462
  0
ARC
  8
1
 62
3
 10
21.43559367802992
 20
472.6974802017518
 30
0
 40
0.915000000000008
 50
170.8377712759668
 51
189.1622287240297
  0
ARC
  8
1
 62
3
 10
21.43559367802992
 20
472.6974802017518
 30
0
 40
2.199999999999974
 50
121.461958954653
 51
148.5380410453464
  0
ARC
  8
1
 62
3
 10
21.43559367802992
 20
472.6974802017518
 30
0
 40
0.9150000000000469
 50
80.83777127596859
 51
99.16222872403073
  0
ARC
  8
1
 62
3
 10
21.43559367802992
 20
472.6974802017518
 30
0
 40
2.200000000000014
 50
31.46195895465343
 51
58.53804104534703
  0
CIRCLE
  8
1
 62
40
 10
21.43559367802992
 20
472.6974802017518
 30
0
 40
3.5
  0
ARC
  8
1
 62
3
 10
22.38828167683789
 20
472.5438228656845
 30
0
 40
0.05000000000001641
 50
170.8377712758112
 51
224.9999999998993
  0
ARC
  8
1
 62
3
 10
22.38828167683789
 20
472.851137537819
 30
0
 40
0.04999999999999991
 50
135.0000000000086
 51
189.1622287240602
  0
ARC
  8
1
 62
3
 10
21.28193634196275
 20
471.7447922029438
 30
0
 40
0.04999999999999615
 50
80.83777127598061
 51
134.9999999999683
  0
ARC
  8
1
 62
3
 10
21.5892510140971
 20
471.7447922029438
 30
0
 40
0.05000000000003004
 50
45.00000000004894
 51
99.16222872403144
  0
ARC
  8
1
 62
3
 10
20.48290567922196
 20
472.851137537819
 30
0
 40
0.04999999999998778
 50
350.8377712759378
 51
45.00000000001152
  0
ARC
  8
1
 62
3
 10
20.48290567922196
 20
472.5438228656845
 30
0
 40
0.04999999999990192
 50
315.0000000000806
 51
9.162228724190783
  0
ARC
  8
1
 62
3
 10
21.58925101409709
 20
473.6501682005597
 30
0
 40
0.04999999999988392
 50
260.8377712759599
 51
315.0000000000518
  0
ARC
  8
1
 62
3
 10
21.28193634196275
 20
473.6501682005597
 30
0
 40
0.04999999999996473
 50
224.9999999999395
 51
279.1622287240522
  0
ENDBLK
  8
0
  0
BLOCK
  8
0
  2
____M4_________2
 70
0
 10
51.93559367802992
 20
527.1974802017518
 30
0
  0
LINE
  8
1
 62
3
 10
50.78734251592563
 20
529.0740513484782
 30
0
 11
51.74658100290341
 21
528.1148128615004
 31
0
  0
LINE
  8
1
 62
3
 10
53.0838448401342
 20
529.0740513484782
 30
0
 11
52.12460635315641
 21
528.1148128615004
 31
0
  0
LINE
  8
1
 62
3
 10
50.05902253130348
 20
526.0492290396475
 30
0
 11
51.01826101828127
 21
527.0084675266253
 31
0
  0
LINE
  8
1
 62
3
 10
50.05902253130348
 20
528.3457313638561
 30
0
 11
51.01826101828127
 21
527.3864928768783
 31
0
  0
LINE
  8
1
 62
3
 10
53.0838448401342
 20
525.3209090550254
 30
0
 11
52.12460635315641
 21
526.2801475420032
 31
0
  0
LINE
  8
1
 62
3
 10
50.78734251592563
 20
525.3209090550254
 30
0
 11
51.74658100290341
 21
526.2801475420032
 31
0
  0
LINE
  8
1
 62
3
 10
53.81216482475635
 20
528.3457313638561
 30
0
 11
52.85292633777856
 21
527.3864928768783
 31
0
  0
LINE
  8
1
 62
3
 10
53.81216482475635
 20
526.0492290396475
 30
0
 11
52.85292633777856
 21
527.0084675266253
 31
0
  0
LINE
  8
1
 62
1
 10
58.93559367802992
 20
527.1974802017518
 30
0
 11
44.93559367802992
 21
527.1974802017518
 31
0
  0
LINE
  8
1
 62
1
 10
51.93559367802992
 20
534.1974802017518
 30
0
 11
51.93559367802992
 21
520.1974802017518
 31
0
  0
ARC
  8
1
 62
3
 10
51.93559367802992
 20
527.1974802017518
 30
0
 40
2.200000000000017
 50
31.46195895465338
 51
58.53804104534703
  0
ARC
  8
1
 62
3
 10
51.93559367802992
 20
527.1974802017518
 30
0
 40
0.9150000000000457
 50
80.83777127596903
 51
99.16222872403139
  0
ARC
  8
1
 62
3
 10
51.93559367802992
 20
527.1974802017518
 30
0
 40
2.199999999999978
 50
121.4619589546531
 51
148.5380410453467
  0
ARC
  8
1
 62
3
 10
51.93559367802992
 20
527.1974802017518
 30
0
 40
0.915000000000008
 50
170.8377712759668
 51
189.1622287240332
  0
ARC
  8
1
 62
3
 10
51.93559367802992
 20
527.1974802017518
 30
0
 40
2.200000000000023
 50
211.4619589546533
 51
238.5380410453469
  0
ARC
  8
1
 62
3
 10
51.93559367802992
 20
527.1974802017518
 30
0
 40
0.9150000000000469
 50
260.8377712759686
 51
279.162228724031
  0
ARC
  8
1
 62
3
 10
51.93559367802992
 20
527.1974802017518
 30
0
 40
2.199999999999974
 50
301.461958954653
 51
328.5380410453466
  0
ARC
  8
1
 62
3
 10
51.93559367802992
 20
527.1974802017518
 30
0
 40
0.915000000000008
 50
350.8377712759669
 51
9.162228724033147
  0
CIRCLE
  8
1
 62
40
 10
51.93559367802992
 20
527.1974802017518
 30
0
 40
3.5
  0
ARC
  8
1
 62
3
 10
51.78193634196275
 20
528.1501682005597
 30
0
 40
0.05000000000004262
 50
225.0000000000346
 51
279.1622287240298
  0
ARC
  8
1
 62
3
 10
52.08925101409709
 20
528.1501682005597
 30
0
 40
0.04999999999994116
 50
260.8377712759622
 51
314.999999999954
  0
ARC
  8
1
 62
3
 10
50.98290567922196
 20
527.0438228656846
 30
0
 40
0.04999999999994715
 50
315.0000000000403
 51
9.162228724062167
  0
ARC
  8
1
 62
3
 10
50.98290567922196
 20
527.351137537819
 30
0
 40
0.04999999999998778
 50
350.8377712759378
 51
44.99999999995971
  0
ARC
  8
1
 62
3
 10
52.0892510140971
 20
526.2447922029438
 30
0
 40
0.05000000000002251
 50
45.00000000005758
 51
99.16222872405388
  0
ARC
  8
1
 62
3
 10
51.78193634196275
 20
526.2447922029438
 30
0
 40
0.04999999999994002
 50
80.83777127597024
 51
134.9999999999654
  0
ARC
  8
1
 62
3
 10
52.88828167683789
 20
527.351137537819
 30
0
 40
0.04999999999995719
 50
135.0000000000518
 51
189.1622287240596
  0
ARC
  8
1
 62
3
 10
52.88828167683789
 20
527.0438228656846
 30
0
 40
0.0500000000000018
 50
170.8377712759404
 51
224.9999999999482
  0
ENDBLK
  8
0
  0
BLOCK
  8
0
  2
____M4_________3
 70
0
 10
-9.064406321970083
 20
527.1974802017518
 30
0
  0
LINE
  8
1
 62
3
 10
-7.187835175243649
 20
526.0492290396475
 30
0
 11
-8.147073662221445
 21
527.0084675266253
 31
0
  0
LINE
  8
1
 62
3
 10
-7.187835175243649
 20
528.3457313638561
 30
0
 11
-8.147073662221445
 21
527.3864928768783
 31
0
  0
LINE
  8
1
 62
3
 10
-10.21265748407437
 20
525.3209090550254
 30
0
 11
-9.253418997096588
 21
526.2801475420032
 31
0
  0
LINE
  8
1
 62
3
 10
-7.916155159865795
 20
525.3209090550254
 30
0
 11
-8.875393646843591
 21
526.2801475420032
 31
0
  0
LINE
  8
1
 62
3
 10
-10.94097746869652
 20
528.3457313638561
 30
0
 11
-9.981738981718735
 21
527.3864928768783
 31
0
  0
LINE
  8
1
 62
3
 10
-10.94097746869652
 20
526.0492290396475
 30
0
 11
-9.981738981718735
 21
527.0084675266253
 31
0
  0
LINE
  8
1
 62
3
 10
-7.916155159865795
 20
529.0740513484782
 30
0
 11
-8.875393646843591
 21
528.1148128615004
 31
0
  0
LINE
  8
1
 62
3
 10
-10.21265748407437
 20
529.0740513484782
 30
0
 11
-9.253418997096588
 21
528.1148128615004
 31
0
  0
LINE
  8
1
 62
1
 10
-2.064406321970083
 20
527.1974802017518
 30
0
 11
-16.06440632197008
 21
527.1974802017518
 31
0
  0
LINE
  8
1
 62
1
 10
-9.064406321970083
 20
534.1974802017518
 30
0
 11
-9.064406321970083
 21
520.1974802017518
 31
0
  0
ARC
  8
1
 62
3
 10
-9.064406321970083
 20
527.1974802017518
 30
0
 40
0.915000000000008
 50
350.8377712759669
 51
9.162228724033147
  0
ARC
  8
1
 62
3
 10
-9.064406321970083
 20
527.1974802017518
 30
0
 40
2.199999999999978
 50
301.4619589546531
 51
328.5380410453466
  0
ARC
  8
1
 62
3
 10
-9.064406321970083
 20
527.1974802017518
 30
0
 40
0.9150000000000457
 50
260.837771275969
 51
279.162228724031
  0
ARC
  8
1
 62
3
 10
-9.064406321970083
 20
527.1974802017518
 30
0
 40
2.20000000000002
 50
211.4619589546533
 51
238.5380410453469
  0
ARC
  8
1
 62
3
 10
-9.064406321970083
 20
527.1974802017518
 30
0
 40
0.915000000000008
 50
170.8377712759668
 51
189.1622287240332
  0
ARC
  8
1
 62
3
 10
-9.064406321970083
 20
527.1974802017518
 30
0
 40
2.199999999999978
 50
121.4619589546531
 51
148.5380410453467
  0
ARC
  8
1
 62
3
 10
-9.064406321970083
 20
527.1974802017518
 30
0
 40
0.9150000000000457
 50
80.83777127596903
 51
99.16222872403097
  0
ARC
  8
1
 62
3
 10
-9.064406321970083
 20
527.1974802017518
 30
0
 40
2.200000000000017
 50
31.46195895465338
 51
58.53804104534687
  0
CIRCLE
  8
1
 62
40
 10
-9.064406321970083
 20
527.1974802017518
 30
0
 40
3.499999999999996
  0
ARC
  8
1
 62
3
 10
-8.111718323162108
 20
527.0438228656846
 30
0
 40
0.0500000000000018
 50
170.8377712759404
 51
224.9999999999424
  0
ARC
  8
1
 62
3
 10
-8.111718323162108
 20
527.351137537819
 30
0
 40
0.04999999999996222
 50
135.0000000000576
 51
189.1622287240596
  0
ARC
  8
1
 62
3
 10
-9.218063658037252
 20
526.2447922029438
 30
0
 40
0.04999999999994116
 50
80.83777127596221
 51
134.9999999999654
  0
ARC
  8
1
 62
3
 10
-8.910748985902901
 20
526.2447922029438
 30
0
 40
0.05000000000002377
 50
45.00000000005614
 51
99.16222872405186
  0
ARC
  8
1
 62
3
 10
-10.01709432077804
 20
527.351137537819
 30
0
 40
0.04999999999998602
 50
350.8377712759375
 51
44.9999999999669
  0
ARC
  8
1
 62
3
 10
-10.01709432077804
 20
527.0438228656846
 30
0
 40
0.04999999999994086
 50
315.0000000000331
 51
9.162228724062492
  0
ARC
  8
1
 62
3
 10
-8.910748985902913
 20
528.1501682005597
 30
0
 40
0.04999999999994116
 50
260.8377712759622
 51
314.999999999954
  0
ARC
  8
1
 62
3
 10
-9.218063658037252
 20
528.1501682005597
 30
0
 40
0.05000000000004262
 50
225.0000000000346
 51
279.1622287240378
  0
ENDBLK
  8
0
  0
ENDSEC
  0
SECTION
  2
ENTITIES
  0
LINE
  8
1
 62
2
 10
-6.439879707079939
 20
381.0040115725991
 30
0
 11
181.56012029292
 21
381.0040115725991
 31
0
  0
LINE
  8
1
 62
2
 10
3.560120292920061
 20
423.004011572599
 30
0
 11
3.560120292920061
 21
381.004011572599
 31
0
  0
LINE
  8
1
 62
2
 10
23.56012029292
 20
423.004011572599
 30
0
 11
23.56012029292
 21
381.0040115725991
 31
0
  0
LINE
  8
1
 62
2
 10
117.56012029292
 20
423.004011572599
 30
0
 11
117.56012029292
 21
381.0040115725991
 31
0
  0
LINE
  8
1
 62
2
 10
142.56012029292
 20
423.004011572599
 30
0
 11
142.56012029292
 21
381.0040115725991
 31
0
  0
LINE
  8
1
 62
2
 10
-6.439879707079939
 20
430.004011572599
 30
0
 11
-6.439879707079939
 21
381.0040115725991
 31
0
  0
LINE
  8
1
 62
2
 10
181.56012029292
 20
430.004011572599
 30
0
 11
181.56012029292
 21
381.0040115725991
 31
0
  0
LINE
  8
1
 62
2
 10
-6.439879707079939
 20
395.004011572599
 30
0
 11
181.56012029292
 21
395.004011572599
 31
0
  0
LINE
  8
1
 62
2
 10
-6.439879707079939
 20
402.004011572599
 30
0
 11
181.56012029292
 21
402.004011572599
 31
0
  0
LINE
  8
1
 62
2
 10
-6.439879707079939
 20
409.004011572599
 30
0
 11
181.56012029292
 21
409.004011572599
 31
0
  0
LINE
  8
1
 62
2
 10
-6.439879707079939
 20
416.004011572599
 30
0
 11
181.56012029292
 21
416.004011572599
 31
0
  0
LINE
  8
1
 62
2
 10
-6.439879707079939
 20
423.004011572599
 30
0
 11
181.56012029292
 21
423.004011572599
 31
0
  0
LINE
  8
1
 62
2
 10
-6.439879707079939
 20
430.004011572599
 30
0
 11
181.56012029292
 21
430.004011572599
 31
0
  0
LINE
  8
1
 62
3
 10
153.4881493268623
 20
385.9757839502835
 30
0
 11
176.4881493268623
 21
385.9757839502835
 31
0
  0
LINE
  8
1
 62
3
 10
153.4881493268623
 20
389.9757839502835
 30
0
 11
153.4881493268623
 21
385.9757839502835
 31
0
  0
LINE
  8
1
 62
3
 10
176.4881493268623
 20
389.9757839502835
 30
0
 11
153.4881493268623
 21
389.9757839502835
 31
0
  0
LINE
  8
1
 62
3
 10
143.7491346966328
 20
385.9757839502835
 30
0
 11
143.7491346966328
 21
389.9757839502835
 31
0
  0
LINE
  8
1
 62
3
 10
147.7491346966328
 20
385.9757839502835
 30
0
 11
143.7491346966328
 21
385.9757839502835
 31
0
  0
LINE
  8
1
 62
3
 10
147.7491346966328
 20
389.9757839502835
 30
0
 11
147.7491346966328
 21
385.9757839502835
 31
0
  0
LINE
  8
1
 62
3
 10
143.7491346966328
 20
389.9757839502835
 30
0
 11
147.7491346966328
 21
389.9757839502835
 31
0
  0
LINE
  8
1
 62
3
 10
14.64877547037014
 20
516.333153664146
 30
0
 11
16.22415435709144
 21
517.5324300091947
 31
0
  0
LINE
  8
1
 62
3
 10
26.64703299896841
 20
517.5324300091947
 30
0
 11
28.2224118856897
 21
516.333153664146
 31
0
  0
LINE
  8
1
 62
1
 10
235.6445208514256
 20
467.6974802017518
 30
0
 11
224.6445208514255
 21
467.6974802017518
 31
0
  0
LINE
  8
1
 62
1
 10
235.6445208514256
 20
550.6974802017519
 30
0
 11
224.6445208514255
 21
550.6974802017519
 31
0
  0
LINE
  8
1
 62
3
 10
-23.06440632197008
 20
472.1974802017518
 30
0
 11
-23.06440632197008
 21
546.1974802017518
 31
0
  0
LINE
  8
1
 62
3
 10
58.43559367802992
 20
464.6974802017518
 30
0
 11
-15.56440632197008
 21
464.6974802017518
 31
0
  0
LINE
  8
1
 62
3
 10
65.93559367802992
 20
546.1974802017518
 30
0
 11
65.93559367802992
 21
472.1974802017518
 31
0
  0
LINE
  8
1
 62
3
 10
-15.56440632197008
 20
553.6974802017518
 30
0
 11
58.43559367802992
 21
553.6974802017518
 31
0
  0
LINE
  8
1
 62
1
 10
-15.06440632197008
 20
527.1974802017518
 30
0
 11
21.43559367802992
 21
527.1974802017518
 31
0
  0
LINE
  8
1
 62
1
 10
-15.31440632197008
 20
540.9474802017518
 30
0
 11
-15.31440632197008
 21
550.9474802017518
 31
0
  0
LINE
  8
1
 62
1
 10
-15.31440632197003
 20
467.4474802017518
 30
0
 11
-15.31440632197003
 21
477.4474802017518
 31
0
  0
LINE
  8
1
 62
1
 10
58.18559367802992
 20
477.4474802017518
 30
0
 11
58.18559367802992
 21
467.4474802017518
 31
0
  0
LINE
  8
1
 62
1
 10
58.18559367802992
 20
550.9474802017518
 30
0
 11
58.18559367802992
 21
540.9474802017518
 31
0
  0
LINE
  8
1
 62
1
 10
-20.31440632197008
 20
472.4474802017518
 30
0
 11
-10.31440632197003
 21
472.4474802017518
 31
0
  0
LINE
  8
1
 62
1
 10
53.18559367802992
 20
472.4474802017518
 30
0
 11
63.18559367802992
 21
472.4474802017518
 31
0
  0
LINE
  8
1
 62
1
 10
53.18559367802992
 20
545.9474802017518
 30
0
 11
63.18559367802992
 21
545.9474802017518
 31
0
  0
LINE
  8
1
 62
1
 10
-20.31440632197008
 20
545.9474802017518
 30
0
 11
-10.31440632197008
 21
545.9474802017518
 31
0
  0
LINE
  8
1
 62
1
 10
21.43559367802992
 20
558.6974802017518
 30
0
 11
21.43559367802992
 21
459.4474802017518
 31
0
  0
LINE
  8
1
 62
1
 10
-28.31440632197009
 20
509.1974802017518
 30
0
 11
21.43559367802992
 21
509.1974802017518
 31
0
  0
LINE
  8
1
 62
1
 10
21.43559367802992
 20
527.1974802017518
 30
0
 11
57.93559367802992
 21
527.1974802017518
 31
0
  0
LINE
  8
1
 62
1
 10
21.43559367802992
 20
509.1974802017518
 30
0
 11
71.18559367802992
 21
509.1974802017518
 31
0
  0
LINE
  8
1
 62
1
 10
130.6445208514256
 20
527.1974802017518
 30
0
 11
176.3445208514256
 21
527.1974802017518
 31
0
  0
LINE
  8
1
 62
3
 10
135.6445208514256
 20
533.1974802017518
 30
0
 11
165.6445208514256
 21
533.1974802017518
 31
0
  0
LINE
  8
1
 62
3
 10
135.6445208514256
 20
521.1974802017518
 30
0
 11
135.6445208514256
 21
533.1974802017518
 31
0
  0
LINE
  8
1
 62
3
 10
165.6445208514256
 20
521.1974802017518
 30
0
 11
135.6445208514256
 21
521.1974802017518
 31
0
  0
LINE
  8
1
 62
1
 10
178.1445208514256
 20
545.6974802017518
 30
0
 11
168.1445208514256
 21
545.6974802017518
 31
0
  0
LINE
  8
1
 62
3
 10
165.6445208514256
 20
545.6974802017518
 30
0
 11
165.6445208514256
 21
508.6974802017518
 31
0
  0
LINE
  8
1
 62
3
 10
171.3445208514256
 20
543.1974802017518
 30
0
 11
171.3445208514256
 21
538.9474802017517
 31
0
  0
LINE
  8
1
 62
3
 10
171.3445208514256
 20
479.4474802017518
 30
0
 11
171.3445208514256
 21
475.1974802017518
 31
0
  0
LINE
  8
1
 62
3
 10
170.6445208514256
 20
538.9474802017517
 30
0
 11
170.6445208514256
 21
546.1974802017518
 31
0
  0
LINE
  8
1
 62
3
 10
171.3445208514256
 20
507.6974802017518
 30
0
 11
171.3445208514256
 21
538.9474802017517
 31
0
  0
LINE
  8
1
 62
3
 10
170.6445208514256
 20
538.9474802017517
 30
0
 11
171.3445208514256
 21
538.9474802017517
 31
0
  0
LINE
  8
1
 62
3
 10
229.6445208514255
 20
553.4474802017518
 30
0
 11
229.6445208514255
 21
464.9474802017518
 31
0
  0
LINE
  8
1
 62
1
 10
160.6445208514256
 20
509.1974802017518
 30
0
 11
235.6445208514256
 21
509.1974802017518
 31
0
  0
LINE
  8
1
 62
3
 10
170.6445208514256
 20
464.6974802017518
 30
0
 11
171.3445208514256
 21
464.6974802017518
 31
0
  0
LINE
  8
1
 62
3
 10
170.6445208514256
 20
479.4474802017518
 30
0
 11
170.6445208514256
 21
464.6974802017518
 31
0
  0
LINE
  8
1
 62
3
 10
171.3445208514256
 20
479.4474802017518
 30
0
 11
170.6445208514256
 21
479.4474802017518
 31
0
  0
LINE
  8
1
 62
3
 10
170.6445208514256
 20
553.6974802017518
 30
0
 11
170.6445208514256
 21
546.1974802017518
 31
0
  0
LINE
  8
1
 62
3
 10
171.3445208514256
 20
553.6974802017518
 30
0
 11
170.6445208514256
 21
553.6974802017518
 31
0
  0
LINE
  8
1
 62
1
 10
168.1445208514256
 20
472.6974802017518
 30
0
 11
178.1445208514256
 21
472.6974802017518
 31
0
  0
LINE
  8
1
 62
3
 10
230.6445208514256
 20
550.6974802017518
 30
0
 11
230.6445208514256
 21
553.4474802017518
 31
0
  0
LINE
  8
1
 62
3
 10
230.6445208514256
 20
509.1974802017518
 30
0
 11
230.6445208514256
 21
467.6974802017518
 31
0
  0
LINE
  8
1
 62
3
 10
230.6445208514256
 20
509.1974802017518
 30
0
 11
230.6445208514256
 21
550.6974802017518
 31
0
  0
LINE
  8
1
 62
3
 10
230.6445208514256
 20
553.4474802017518
 30
0
 11
229.6445208514255
 21
553.4474802017518
 31
0
  0
LINE
  8
1
 62
3
 10
229.6445208514255
 20
553.4474802017518
 30
0
 11
229.6445208514255
 21
554.1974802017518
 31
0
  0
LINE
  8
1
 62
3
 10
229.6445208514255
 20
554.1974802017518
 30
0
 11
171.3445208514256
 21
553.6974802017518
 31
0
  0
LINE
  8
1
 62
3
 10
170.6445208514256
 20
546.1974802017518
 30
0
 11
166.1445208514256
 21
546.1974802017518
 31
0
  0
LINE
  8
1
 62
3
 10
166.1445208514256
 20
508.1974802017518
 30
0
 11
170.8445208514256
 21
508.1974802017518
 31
0
  0
LINE
  8
1
 62
3
 10
171.3445208514256
 20
507.6974802017518
 30
0
 11
171.3445208514256
 21
479.4474802017518
 31
0
  0
LINE
  8
1
 62
3
 10
171.3445208514256
 20
464.6974802017518
 30
0
 11
229.6445208514255
 21
464.1974802017518
 31
0
  0
LINE
  8
1
 62
3
 10
229.6445208514255
 20
464.1974802017518
 30
0
 11
229.6445208514255
 21
464.9474802017518
 31
0
  0
LINE
  8
1
 62
3
 10
229.6445208514255
 20
464.9474802017518
 30
0
 11
230.6445208514256
 21
464.9474802017518
 31
0
  0
LINE
  8
1
 62
3
 10
230.6445208514256
 20
464.9474802017518
 30
0
 11
230.6445208514256
 21
467.6974802017518
 31
0
  0
LINE
  8
1
 62
3
 10
27.09244792752235
 20
529.1974802017518
 30
0
 11
24.93559367802993
 21
529.1974802017518
 31
0
  0
LINE
  8
1
 62
3
 10
24.93559367802993
 20
529.1974802017518
 30
0
 11
24.93559367802993
 21
525.1974802017518
 31
0
  0
LINE
  8
1
 62
3
 10
24.93559367802993
 20
525.1974802017518
 30
0
 11
27.09244792752235
 21
525.1974802017518
 31
0
  0
LINE
  8
1
 62
3
 10
158.6445208514256
 20
529.1974802017518
 30
0
 11
135.6445208514256
 21
529.1974802017518
 31
0
  0
LINE
  8
1
 62
3
 10
135.6445208514256
 20
525.1974802017518
 30
0
 11
158.6445208514256
 21
525.1974802017518
 31
0
  0
ARC
  8
1
 62
3
 10
176.4881493268623
 20
387.9757839502835
 30
0
 40
2
 50
270
 51
0
  0
ARC
  8
1
 62
3
 10
176.4881493268623
 20
387.9757839502835
 30
0
 40
2
 50
0
 51
90
  0
ARC
  8
1
 62
3
 10
21.43559367802992
 20
526.1974802017518
 30
0
 40
12.69999999999995
 50
309.1860675849491
 51
230.8139324150509
  0
ARC
  8
1
 62
3
 10
7.746676886330491
 20
515.5053904647024
 30
0
 40
11.6970336274071
 50
349.4791838300998
 51
2.134608605292712
  0
ARC
  8
1
 62
3
 10
14.04305580990084
 20
517.128831798143
 30
0
 40
1.000000000000006
 50
230.8139324150545
 51
307.2806458971857
  0
ARC
  8
1
 62
3
 10
17.43559367802993
 20
515.9410737412007
 30
0
 40
1.99999999999994
 50
0
 51
127.2806458971813
  0
ARC
  8
1
 62
3
 10
35.12451046972935
 20
515.5053904647024
 30
0
 40
11.69703362740708
 50
177.8653913947073
 51
190.5208161699003
  0
ARC
  8
1
 62
3
 10
28.82813154615901
 20
517.128831798143
 30
0
 40
0.9999999999999584
 50
232.7193541028137
 51
309.186067584945
  0
ARC
  8
1
 62
3
 10
25.43559367802992
 20
515.9410737412007
 30
0
 40
1.999999999999925
 50
52.71935410281877
 51
180
  0
ARC
  8
1
 62
3
 10
58.43559367802992
 20
546.1974802017518
 30
0
 40
7.5
 50
90
 51
0
  0
ARC
  8
1
 62
3
 10
-15.56440632197008
 20
546.1974802017518
 30
0
 40
7.499999999999998
 50
180
 51
90
  0
ARC
  8
1
 62
3
 10
-15.56440632197008
 20
472.1974802017518
 30
0
 40
7.5
 50
270
 51
180
  0
ARC
  8
1
 62
3
 10
58.43559367802992
 20
472.1974802017518
 30
0
 40
7.5
 50
0
 51
270
  0
ARC
  8
1
 62
3
 10
158.6445208514256
 20
527.1974802017518
 30
0
 40
2
 50
0
 51
90
  0
ARC
  8
1
 62
3
 10
158.6445208514256
 20
527.1974802017518
 30
0
 40
2
 50
270
 51
0
  0
CIRCLE
  8
1
 62
3
 10
17.45218726291566
 20
516.1144434790699
 30
0
 40
1
  0
CIRCLE
  8
1
 62
3
 10
25.41900009314418
 20
516.1144434790699
 30
0
 40
1
  0
CIRCLE
  8
1
 62
3
 10
21.43559367802992
 20
527.1974802017518
 30
0
 40
14
  0
CIRCLE
  8
1
 62
3
 10
21.43559367802992
 20
527.1974802017518
 30
0
 40
19
  0
CIRCLE
  8
1
 62
40
 10
-9.064406321970083
 20
527.1974802017518
 30
0
 40
3.949999999999998
  0
CIRCLE
  8
1
 62
40
 10
51.93559367802992
 20
527.1974802017518
 30
0
 40
3.950000000000003
  0
CIRCLE
  8
1
 62
40
 10
21.43559367802992
 20
472.6974802017518
 30
0
 40
3.95000000000001
  0
CIRCLE
  8
1
 62
3
 10
-15.31440632197008
 20
545.9474802017518
 30
0
 40
3.249999999999972
  0
CIRCLE
  8
1
 62
3
 10
-15.31440632197008
 20
472.4474802017518
 30
0
 40
3.25000000000003
  0
CIRCLE
  8
1
 62
3
 10
58.18559367802992
 20
472.4474802017518
 30
0
 40
3.249999999999972
  0
CIRCLE
  8
1
 62
3
 10
58.18559367802992
 20
545.9474802017518
 30
0
 40
3.249999999999972
  0
CIRCLE
  8
1
 62
3
 10
21.43559367802992
 20
527.1974802017518
 30
0
 40
6
  0
ARC
  8
1
 62
3
 10
-15.56440632197008
 20
472.1974802017518
 30
0
 40
7.499999999999998
 50
180
 51
270
  0
ARC
  8
1
 62
3
 10
-15.56440632197008
 20
546.1974802017518
 30
0
 40
7.5
 50
90
 51
180
  0
ARC
  8
1
 62
3
 10
58.43559367802992
 20
546.1974802017518
 30
0
 40
7.5
 50
0
 51
90
  0
ARC
  8
1
 62
3
 10
58.43559367802992
 20
472.1974802017518
 30
0
 40
7.5
 50
270
 51
0
  0
ARC
  8
1
 62
3
 10
166.1445208514256
 20
545.6974802017518
 30
0
 40
0.5
 50
90
 51
180
  0
ARC
  8
1
 62
3
 10
166.1445208514256
 20
508.6974802017518
 30
0
 40
0.5
 50
180
 51
270
  0
ARC
  8
1
 62
3
 10
170.8445208514256
 20
507.6974802017518
 30
0
 40
0.5
 50
0
 51
90
  0
TEXT
  8
1
 62
2
 10
61.18805842150096
 20
593.3802484255288
 30
0
 40
4.5
  1
9H25FN(FBN)~180FN(FBN)
 41
0.9
  0
TEXT
  8
1
 62
2
 10
126.46012029292
 20
396.504011572599
 30
0
 40
4
  1
Ｓ
 41
0.9
 72
1
 73
2
 11
130.06012029292
 21
398.504011572599
 31
0
  0
TEXT
  8
1
 62
2
 10
25.06012029292
 20
396.504011572599
 30
0
 40
4
  1
バネ座金　　　　　　　　２号　６
 41
0.8100000000000001
 73
2
 11
25.06012029292
 21
398.504011572599
 31
0
  0
TEXT
  8
1
 62
2
 10
25.06012029292
 20
403.504011572599
 30
0
 40
4
  1
六角ナット　　　　　　　Ｍ６
 41
0.8100000000000001
 73
2
 11
25.06012029292
 21
405.504011572599
 31
0
  0
TEXT
  8
1
 62
2
 10
6.060120292920061
 20
396.504011572599
 30
0
 40
4
  1
座　金
 41
0.9
 73
2
 11
6.060120292920061
 21
398.504011572599
 31
0
  0
TEXT
  8
1
 62
2
 10
6.060120292920061
 20
403.504011572599
 30
0
 40
4
  1
ナット
 41
0.9
 73
2
 11
6.060120292920061
 21
405.504011572599
 31
0
  0
TEXT
  8
1
 62
2
 10
-5.039879707079939
 20
396.504011572599
 30
0
 40
4
  1
４
 41
0.9
 72
1
 73
2
 11
-1.439879707079939
 21
398.504011572599
 31
0
  0
TEXT
  8
1
 62
2
 10
-5.039879707079939
 20
403.504011572599
 30
0
 40
4
  1
４
 41
0.9
 72
1
 73
2
 11
-1.439879707079939
 21
405.504011572599
 31
0
  0
TEXT
  8
1
 62
2
 10
110.62012029292
 20
410.504011572599
 30
0
 40
4
  1
ＳＷＲＭ１２
 41
0.8100000000000001
 72
1
 73
2
 11
130.06012029292
 21
412.504011572599
 31
0
  0
TEXT
  8
1
 62
2
 10
25.06012029292
 20
410.504011572599
 30
0
 40
4
  1
十字穴付ナベ　小ネジ　　Ｍ６×８０
 41
0.8100000000000001
 73
2
 11
25.06012029292
 21
412.504011572599
 31
0
  0
TEXT
  8
1
 62
2
 10
6.060120292920061
 20
410.504011572599
 30
0
 40
4
  1
取付ネジ
 41
0.9
 73
2
 11
6.060120292920061
 21
412.504011572599
 31
0
  0
TEXT
  8
1
 62
2
 10
-5.039879707079939
 20
410.504011572599
 30
0
 40
4
  1
４
 41
0.9
 72
1
 73
2
 11
-1.439879707079939
 21
412.504011572599
 31
0
  0
TEXT
  8
1
 62
2
 10
147.66012029292
 20
417.504011572599
 30
0
 40
4
  1
備　　考
 41
0.9
 72
1
 73
2
 11
162.06012029292
 21
419.504011572599
 31
0
  0
TEXT
  8
1
 62
2
 10
113.16012029292
 20
417.504011572599
 30
0
 40
4
  1
坑　　質
 41
0.9
 72
1
 73
2
 11
127.56012029292
 21
419.504011572599
 31
0
  0
TEXT
  8
1
 62
2
 10
28.16012029292006
 20
417.504011572599
 30
0
 40
4
  1
呼　　　　　　　称
 41
0.9
 72
1
 73
2
 11
60.56012029292006
 21
419.504011572599
 31
0
  0
TEXT
  8
1
 62
2
 10
-0.8398797070800512
 20
417.504011572599
 30
0
 40
4
  1
品　　名
 41
0.9
 72
1
 73
2
 11
13.56012029291995
 21
419.504011572599
 31
0
  0
TEXT
  8
1
 62
2
 10
-8.639879707079938
 20
417.504011572599
 30
0
 40
4
  1
数量
 41
0.9
 72
1
 73
2
 11
-1.439879707079939
 21
419.504011572599
 31
0
  0
TEXT
  8
1
 62
2
 10
25.06012029292
 20
385.9268831514329
 30
0
 40
4
  1
　　　　　　　　　　　　４×４×２５
 41
0.8100000000000001
 73
2
 11
25.06012029292
 21
387.9268831514329
 31
0
  0
TEXT
  8
1
 62
2
 10
-5.039879707079939
 20
385.9268831514329
 30
0
 40
4
  1
１
 41
0.9
 72
1
 73
2
 11
-1.439879707079939
 21
387.9268831514329
 31
0
  0
TEXT
  8
1
 62
2
 10
115.66012029292
 20
385.9268831514329
 30
0
 40
4
  1
Ｓ４５Ｃ
 41
0.9
 72
1
 73
2
 11
130.06012029292
 21
387.9268831514329
 31
0
  0
TEXT
  8
1
 62
2
 10
143.5091252656027
 20
411.3793786226953
 30
0
 40
2.6
  1
Ｅｐ－Ｆｅ／Ｚｎ　８／ＣＭ　２
 41
0.63
 73
2
 11
143.5091252656027
 21
412.6793786226953
 31
0
  0
TEXT
  8
1
 62
2
 10
170.9787615327749
 20
411.1793786226951
 30
0
 40
2.6
  1
（黒）
 41
0.7200000000000001
 73
2
 11
170.9787615327749
 21
412.4793786226951
 31
0
  0
TEXT
  8
1
 62
2
 10
110.62012029292
 20
403.504011572599
 30
0
 40
4
  1
ＳＷＲＭ１２
 41
0.8100000000000001
 72
1
 73
2
 11
130.06012029292
 21
405.504011572599
 31
0
  0
TEXT
  8
1
 62
2
 10
143.5091252656027
 20
404.3793786226953
 30
0
 40
2.6
  1
Ｅｐ－Ｆｅ／Ｚｎ　８／ＣＭ　２
 41
0.63
 73
2
 11
143.5091252656027
 21
405.6793786226953
 31
0
  0
TEXT
  8
1
 62
2
 10
170.9787615327749
 20
404.1793786226951
 30
0
 40
2.6
  1
（黒）
 41
0.7200000000000001
 73
2
 11
170.9787615327749
 21
405.4793786226951
 31
0
  0
TEXT
  8
1
 62
2
 10
143.5091252656027
 20
397.3793786226953
 30
0
 40
2.6
  1
Ｅｐ－Ｆｅ／Ｚｎ　８／ＣＭ　２
 41
0.63
 73
2
 11
143.5091252656027
 21
398.6793786226953
 31
0
  0
TEXT
  8
1
 62
2
 10
170.9787615327749
 20
397.1793786226951
 30
0
 40
2.6
  1
（黒）
 41
0.7200000000000001
 73
2
 11
170.9787615327749
 21
398.4793786226951
 31
0
  0
TEXT
  8
1
 62
2
 10
6.041682574790031
 20
386.0834988839714
 30
0
 40
4
  1
キー
 41
0.9
 73
2
 11
6.041682574790031
 21
388.0834988839714
 31
0
  0
TEXT
  8
1
 62
2
 10
50.72601080293124
 20
424.2437379164484
 30
0
 40
4
  1
付　　属　　品
 41
0.9
 72
1
 73
2
 11
75.92601080293125
 21
426.2437379164484
 31
0
  0
INSERT
  8
0
  2
____M4_________1
 10
21.43559367802992
 20
472.6974802017518
 30
0
  0
INSERT
  8
0
  2
____M4_________2
 10
51.93559367802992
 20
527.1974802017518
 30
0
  0
INSERT
  8
0
  2
____M4_________3
 10
-9.064406321970083
 20
527.1974802017518
 30
0
  0
ENDSEC
  0
EOF
