  0
SECTION
  2
HEADER
  9
$ACADVER
  1
AC1009
  9
$INSBASE
 10
0
 20
0
  9
$EXTMIN
 10
-145.4909600006122
 20
-84.71911866562168
  9
$EXTMAX
 10
125.4990690841394
 20
49.61284614873679
  9
$LIMMIN
 10
-145.4909600006122
 20
-84.71911866562168
  9
$LIMMAX
 10
125.4990690841394
 20
49.61284614873679
  9
$VIEWCTR
 10
10
 20
10
  9
$VIEWSIZE
 40
10
  9
$SNAPMODE
 70
0
  9
$SNAPUNIT
 10
1
 20
1
  9
$SNAPBASE
 10
0
 20
0
  9
$SNAPANG
 50
0
  9
$SNAPSTYLE
 70
0
  9
$SNAPISOPAIR
 70
0
  9
$GRIDMODE
 70
0
  9
$GRIDUNIT
 10
0
 20
0
  9
$ORTHOMODE
 70
0
  9
$REGENMODE
 70
1
  9
$FILLMODE
 70
1
  9
$QTEXTMODE
 70
0
  9
$DRAGMODE
 70
2
  9
$LTSCALE
 40
1
  9
$OSMODE
 70
0
  9
$ATTMODE
 70
1
  9
$TEXTSIZE
 40
3.5
  9
$TRACEWID
 40
0.5
  9
$TEXTSTYLE
  7
STANDARD
  9
$CLAYER
  8
0
  9
$CELTYPE
  6
BYLAYER
  9
$CECOLOR
 62
256
  9
$DIMSCALE
 40
1
  9
$DIMASZ
 40
0.18
  9
$DIMEXO
 40
0.0625
  9
$DIMDLI
 40
0.38
  9
$DIMRND
 40
0
  9
$DIMDLE
 40
0
  9
$DIMEXE
 40
0.18
  9
$DIMTP
 40
0
  9
$DIMTM
 40
0
  9
$DIMTXT
 40
0.18
  9
$DIMCEN
 40
0.09
  9
$DIMTSZ
 40
0
  9
$DIMTOL
 70
0
  9
$DIMLIM
 70
0
  9
$DIMTIH
 70
1
  9
$DIMTOH
 70
1
  9
$DIMSE1
 70
0
  9
$DIMSE2
 70
0
  9
$DIMTAD
 70
0
  9
$DIMZIN
 70
0
  9
$DIMBLK
  1

  9
$DIMASO
 70
1
  9
$DIMSHO
 70
1
  9
$DIMPOST
  1

  9
$DIMAPOST
  1

  9
$DIMALT
 70
0
  9
$DIMALTD
 70
2
  9
$DIMALTF
 40
25.4
  9
$DIMLFAC
 40
1
  9
$DIMTOFL
 70
0
  9
$DIMTVP
 40
0
  9
$DIMTIX
 70
0
  9
$DIMSOXD
 70
0
  9
$DIMSAH
 70
0
  9
$DIMBLK1
  1

  9
$DIMBLK2
  1

  9
$DIMSTYLE
  2
*UNNAMED
  9
$DIMCLRD
 70
0
  9
$DIMCLRE
 70
0
  9
$DIMCLRT
 70
0
  9
$DIMTFAC
 40
1
  9
$DIMGAP
 40
0.09
  9
$LUNITS
 70
2
  9
$LUPREC
 70
4
  9
$AXISMODE
 70
0
  9
$AXISUNIT
 10
0
 20
0
  9
$SKETCHINC
 40
0.1
  9
$FILLETRAD
 40
2
  9
$AUNITS
 70
0
  9
$AUPREC
 70
0
  9
$MENU
  1
ACAD
  9
$ELEVATION
 40
0
  9
$THICKNESS
 40
0
  9
$VIEWDIR
 10
0
 20
0
 30
1
  9
$LIMCHECK
 70
0
  9
$BLIPMODE
 70
1
  9
$CHAMFERA
 40
0
  9
$CHAMFERB
 40
0
  9
$FASTZOOM
 70
1
  9
$SKPOLY
 70
0
  9
$ANGBASE
 50
0
  9
$ANGDIR
 70
0
  9
$PDMODE
 70
0
  9
$PDSIZE
 40
0
  9
$PLINEWID
 40
0
  9
$COORDS
 70
2
  0
ENDSEC
  0
SECTION
  2
TABLES
  0
TABLE
  2
DIMSTYLE
 70
0
  0
ENDTAB
  0
TABLE
  2
LTYPE
 70
9
  0
LTYPE
  2
CONTINUOUS
 70
64
  3
Solid line
 72
65
 73
0
 40
0
  0
LTYPE
  2
BORDER
 70
64
  3
__ __ . __ __ .
 72
65
 73
6
 40
12.4798039710083
 49
3.565658277430942
 49
-1.782829138715471
 49
3.565658277430942
 49
-1.782829138715471
 49
0
 49
-1.782829138715471
  0
LTYPE
  2
CENTER
 70
64
  3
____ _ ____ _
 72
65
 73
4
 40
14.26263310972377
 49
8.914145693577355
 49
-1.782829138715471
 49
1.782829138715471
 49
-1.782829138715471
  0
LTYPE
  2
DASHDOT
 70
64
  3
__ . __ . __ .
 72
65
 73
4
 40
7.131316554861884
 49
3.565658277430942
 49
-1.782829138715471
 49
0
 49
-1.782829138715471
  0
LTYPE
  2
DASHED
 70
64
  3
__ __ __ __ __
 72
65
 73
2
 40
5.348487416146414
 49
3.565658277430942
 49
-1.782829138715471
  0
LTYPE
  2
DIVIDE
 70
64
  3
__ . . __ . . 
 72
65
 73
6
 40
8.914145693577355
 49
3.565658277430942
 49
-1.782829138715471
 49
0
 49
-1.782829138715471
 49
0
 49
-1.782829138715471
  0
LTYPE
  2
DOT
 70
64
  3
..............
 72
65
 73
4
 40
3.565658277430942
 49
0
 49
-1.782829138715471
 49
0
 49
-1.782829138715471
  0
LTYPE
  2
HIDDEN
 70
64
  3
_ _ _ _ _ _ _
 72
65
 73
2
 40
2.674243708073207
 49
1.782829138715471
 49
-0.8914145693577356
  0
LTYPE
  2
PHANTOM
 70
64
  3
_____ _ _ _____ _ _ 
 72
65
 73
6
 40
17.82829138715471
 49
8.914145693577355
 49
-1.782829138715471
 49
1.782829138715471
 49
-1.782829138715471
 49
1.782829138715471
 49
-1.782829138715471
  0
ENDTAB
  0
TABLE
  2
LAYER
 70
3
  0
LAYER
  2
1
 70
0
 62
7
  6
CONTINUOUS
  0
LAYER
  2
0
 70
0
 62
7
  6
CONTINUOUS
  0
ENDTAB
  0
TABLE
  2
STYLE
 70
4
  0
STYLE
  2
STANDARD
 70
0
 40
0
 41
1
 50
0
 71
0
 42
3.5
  3
txt
  4

  0
STYLE
  2
SIMPLEX
 70
0
 40
0
 41
1
 50
0
 71
0
 42
3.5
  3
simplex
  4

  0
STYLE
  2
COMPLEX
 70
0
 40
0
 41
1
 50
0
 71
0
 42
3.5
  3
complex
  4

  0
STYLE
  2
ITALIC
 70
0
 40
0
 41
1
 50
0
 71
0
 42
3.5
  3
italic
  4

  0
ENDTAB
  0
TABLE
  2
VIEW
 70
0
  0
ENDTAB
  0
ENDSEC
  0
SECTION
  2
BLOCKS
  0
ENDSEC
  0
SECTION
  2
ENTITIES
  0
POLYLINE
  8
1
 62
1
 66
1
  0
VERTEX
  8
1
 10
97.74906908413982
 20
-46.25302589105023
 30
0
 42
-0.1036631957366292
  0
VERTEX
  8
1
 10
98.13377624851205
 20
-45.98935599162054
 30
0
 42
-0.1118998085154895
  0
VERTEX
  8
1
 10
98.50525710590483
 20
-45.92548874311432
 30
0
 42
-0.07294742759328543
  0
VERTEX
  8
1
 10
98.86853640721932
 20
-46.00246318117519
 30
0
 42
-0.03020546995105486
  0
VERTEX
  8
1
 10
99.22863890335623
 20
-46.16131834144677
 30
0
 42
0.007194615788747255
  0
VERTEX
  8
1
 10
99.64867105260356
 20
-46.36982446943804
 30
0
 42
0.08090334942203223
  0
VERTEX
  8
1
 10
100.1382722630377
 20
-46.51757209474851
 30
0
 42
0.09689445546378145
  0
VERTEX
  8
1
 10
100.6094421050374
 20
-46.46765719881341
 30
0
 42
0.06695675923022597
  0
VERTEX
  8
1
 10
101.0690690841399
 20
-46.25302589105018
 30
0
 42
0.01021200788697329
  0
VERTEX
  8
1
 10
101.3856687818343
 20
-46.03369058144636
 30
0
 42
-0.06403287226944736
  0
VERTEX
  8
1
 10
101.6931776178345
 20
-45.86105299767382
 30
0
 42
-0.152090808979835
  0
VERTEX
  8
1
 10
102.0210463706624
 20
-45.84436685015718
 30
0
 42
-0.07302586747116908
  0
VERTEX
  8
1
 10
102.3740164184965
 20
-46.01170777370363
 30
0
 42
-0.006902821631292773
  0
VERTEX
  8
1
 10
102.72906908414
 20
-46.25302589105012
 30
0
 42
0.05855365301186039
  0
VERTEX
  8
1
 10
103.1523404783039
 20
-46.48512546218818
 30
0
 42
0.1207389741206709
  0
VERTEX
  8
1
 10
103.5722917078966
 20
-46.54624384629157
 30
0
 42
0.06930430880433207
  0
VERTEX
  8
1
 10
103.9857429694457
 20
-46.44578980384379
 30
0
 42
0.03553278274298641
  0
VERTEX
  8
1
 10
104.38906908414
 20
-46.25302589105018
 30
0
 42
0.0008753591490740069
  0
VERTEX
  8
1
 10
104.7076139881056
 20
-46.06955788642077
 30
0
 42
-0.04255239451391497
  0
VERTEX
  8
1
 10
105.0170863307567
 20
-45.92220733162617
 30
0
 42
-0.0934266697873032
  0
VERTEX
  8
1
 10
105.3332862214252
 20
-45.86659077914624
 30
0
 42
-0.10788275909327
  0
VERTEX
  8
1
 10
105.6720137694426
 20
-45.95832478146094
 30
0
 42
-0.07295477544168429
  0
VERTEX
  8
1
 10
106.0490690841402
 20
-46.25302589105012
 30
0
  0
SEQEND
  8
1
  0
POLYLINE
  8
1
 62
1
 66
1
  0
VERTEX
  8
1
 10
97.74906908413982
 20
-48.6022799672218
 30
0
 42
-0.1036631957366027
  0
VERTEX
  8
1
 10
98.13377624851205
 20
-48.33861006779218
 30
0
 42
-0.1118998085154758
  0
VERTEX
  8
1
 10
98.50525710590483
 20
-48.27474281928598
 30
0
 42
-0.07294742759330145
  0
VERTEX
  8
1
 10
98.86853640721932
 20
-48.35171725734686
 30
0
 42
-0.03020546995103992
  0
VERTEX
  8
1
 10
99.22863890335623
 20
-48.51057241761843
 30
0
 42
0.007194615788775234
  0
VERTEX
  8
1
 10
99.64867105260356
 20
-48.71907854560967
 30
0
 42
0.08090334942203648
  0
VERTEX
  8
1
 10
100.1382722630377
 20
-48.86682617092009
 30
0
 42
0.09689445546380857
  0
VERTEX
  8
1
 10
100.6094421050374
 20
-48.81691127498498
 30
0
 42
0.06695675923024023
  0
VERTEX
  8
1
 10
101.0690690841399
 20
-48.6022799672218
 30
0
 42
0.01021200788695863
  0
VERTEX
  8
1
 10
101.3856687818343
 20
-48.38294465761798
 30
0
 42
-0.06403287226947772
  0
VERTEX
  8
1
 10
101.6931776178345
 20
-48.21030707384548
 30
0
 42
-0.1520908089797551
  0
VERTEX
  8
1
 10
102.0210463706624
 20
-48.19362092632885
 30
0
 42
-0.07302586747114667
  0
VERTEX
  8
1
 10
102.3740164184965
 20
-48.36096184987532
 30
0
 42
-0.00690282163148252
  0
VERTEX
  8
1
 10
102.72906908414
 20
-48.60227996722175
 30
0
 42
0.05855365301182206
  0
VERTEX
  8
1
 10
103.1523404783039
 20
-48.8343795383599
 30
0
 42
0.1207389741206378
  0
VERTEX
  8
1
 10
103.5722917078966
 20
-48.89549792246328
 30
0
 42
0.06930430880439588
  0
VERTEX
  8
1
 10
103.9857429694458
 20
-48.79504388001546
 30
0
 42
0.03553278274302554
  0
VERTEX
  8
1
 10
104.38906908414
 20
-48.60227996722168
 30
0
 42
0.0008753591492480899
  0
VERTEX
  8
1
 10
104.7076139881057
 20
-48.41881196259239
 30
0
 42
-0.04255239451390451
  0
VERTEX
  8
1
 10
105.0170863307569
 20
-48.27146140779779
 30
0
 42
-0.09342666978732302
  0
VERTEX
  8
1
 10
105.3332862214252
 20
-48.21584485531788
 30
0
 42
-0.1078827590933807
  0
VERTEX
  8
1
 10
105.6720137694426
 20
-48.30757885763256
 30
0
 42
-0.07295477544166924
  0
VERTEX
  8
1
 10
106.0490690841402
 20
-48.60227996722175
 30
0
  0
SEQEND
  8
1
  0
LINE
  8
1
 62
1
 10
125.4990690841394
 20
-1.999999999999815
 30
0
 11
78.29906908413972
 21
-2.000000000000441
 31
0
  0
LINE
  8
1
 62
1
 10
101.8990690841392
 20
21.59999999999978
 30
0
 11
101.89906908414
 21
-25.60000000000001
 31
0
  0
LINE
  8
1
 62
3
 10
14.57741216365598
 20
16.60000000000003
 30
0
 11
24.57741216365599
 21
16.60000000000004
 31
0
  0
LINE
  8
1
 62
3
 10
26.57741216365599
 20
14.60000000000004
 30
0
 11
26.57741216365599
 21
-18.59999999999987
 31
0
  0
LINE
  8
1
 62
3
 10
24.57741216365599
 20
-20.59999999999987
 30
0
 11
14.577412163656
 21
-20.59999999999998
 31
0
  0
LINE
  8
1
 62
3
 10
14.57741216365598
 20
16.60000000000003
 30
0
 11
14.577412163656
 21
-20.59999999999998
 31
0
  0
LINE
  8
1
 62
3
 10
106.0490690841402
 20
-48.60227996722175
 30
0
 11
106.0490690841401
 21
-81.71911866562162
 31
0
  0
LINE
  8
1
 62
3
 10
104.38906908414
 20
-48.60227996722168
 30
0
 11
104.3890690841399
 21
-81.71911866562162
 31
0
  0
LINE
  8
1
 62
3
 10
102.72906908414
 20
-48.60227996722175
 30
0
 11
102.7290690841398
 21
-81.71911866562157
 31
0
  0
LINE
  8
1
 62
3
 10
101.0690690841399
 20
-48.6022799672218
 30
0
 11
101.0690690841396
 21
-81.71911866562162
 31
0
  0
LINE
  8
1
 62
3
 10
99.40906908413996
 20
-48.6022799672218
 30
0
 11
99.40906908413967
 21
-81.71911866562168
 31
0
  0
LINE
  8
1
 62
3
 10
97.74906908413982
 20
-48.6022799672218
 30
0
 11
97.74906908413976
 21
-81.71911866562168
 31
0
  0
LINE
  8
1
 62
3
 10
104.8040690841398
 20
-84.71911866562157
 30
0
 11
104.8040690841398
 21
-81.71911866562162
 31
0
  0
LINE
  8
1
 62
3
 10
103.1440690841399
 20
-84.71911866562157
 30
0
 11
103.1440690841396
 21
-81.71911866562162
 31
0
  0
LINE
  8
1
 62
3
 10
101.4840690841398
 20
-84.71911866562168
 30
0
 11
101.4840690841397
 21
-81.71911866562162
 31
0
  0
LINE
  8
1
 62
3
 10
99.82406908413975
 20
-84.71911866562162
 30
0
 11
99.82406908413964
 21
-81.71911866562168
 31
0
  0
LINE
  8
1
 62
3
 10
105.6340690841399
 20
-84.71911866562162
 30
0
 11
105.6340690841399
 21
-81.71911866562157
 31
0
  0
LINE
  8
1
 62
3
 10
103.9740690841398
 20
-84.71911866562162
 30
0
 11
103.9740690841397
 21
-81.71911866562162
 31
0
  0
LINE
  8
1
 62
3
 10
102.3140690841398
 20
-84.71911866562162
 30
0
 11
102.3140690841398
 21
-81.71911866562162
 31
0
  0
LINE
  8
1
 62
3
 10
100.6540690841399
 20
-84.71911866562168
 30
0
 11
100.6540690841396
 21
-81.71911866562162
 31
0
  0
LINE
  8
1
 62
3
 10
98.99406908413977
 20
-81.71911866562168
 30
0
 11
98.16406908413967
 21
-81.71911866562168
 31
0
  0
LINE
  8
1
 62
3
 10
98.99406908413977
 20
-84.71911866562168
 30
0
 11
98.99406908413977
 21
-81.71911866562168
 31
0
  0
LINE
  8
1
 62
3
 10
98.16406908413967
 20
-81.71911866562168
 30
0
 11
97.74906908413976
 21
-81.71911866562168
 31
0
  0
LINE
  8
1
 62
3
 10
98.16406908413967
 20
-84.71911866562162
 30
0
 11
98.16406908413967
 21
-81.71911866562168
 31
0
  0
LINE
  8
1
 62
3
 10
106.0490690841401
 20
-81.71911866562162
 30
0
 11
98.99406908413977
 21
-81.71911866562168
 31
0
  0
LINE
  8
1
 62
3
 10
106.0490690841402
 20
-20.1311196565462
 30
0
 11
106.0490690841402
 21
-46.25302589105012
 31
0
  0
LINE
  8
1
 62
3
 10
104.3890690841402
 20
-20.43257713940169
 30
0
 11
104.38906908414
 21
-46.25302589105018
 31
0
  0
LINE
  8
1
 62
3
 10
102.7290690841401
 20
-20.58147195461122
 30
0
 11
102.72906908414
 21
-46.25302589105012
 31
0
  0
LINE
  8
1
 62
3
 10
101.0690690841399
 20
-20.58147195461127
 30
0
 11
101.0690690841399
 21
-46.25302589105018
 31
0
  0
LINE
  8
1
 62
3
 10
99.40906908413996
 20
-20.43257713940203
 30
0
 11
99.40906908413973
 21
-46.25302589105023
 31
0
  0
LINE
  8
1
 62
3
 10
97.74906908413982
 20
-20.13111965654643
 30
0
 11
97.74906908413982
 21
-46.25302589105023
 31
0
  0
LINE
  8
1
 62
1
 10
-145.4909600006122
 20
-1.999999999999957
 30
0
 11
-102.290960000612
 21
-1.999999999999957
 31
0
  0
LINE
  8
1
 62
1
 10
-123.8909600006122
 20
19.60000000000018
 30
0
 11
-123.8909600006122
 21
-23.6000000000001
 31
0
  0
LINE
  8
1
 62
3
 10
-42.52258783634397
 20
4.000000000000043
 30
0
 11
-42.52258783634397
 21
-7.999999999999957
 31
0
  0
LINE
  8
1
 62
3
 10
-43.62258783634397
 20
1.567634910770721e-013
 30
0
 11
-60.82258783634389
 21
-4.241051954068098e-014
 31
0
  0
LINE
  8
1
 62
3
 10
-60.82258783634389
 20
-4.000000000000043
 30
0
 11
-43.62258783634397
 21
-3.999999999999844
 31
0
  0
LINE
  8
1
 62
3
 10
-61.12258783634407
 20
-3.699999999999946
 30
0
 11
-61.12258783634407
 21
-0.2999999999999403
 31
0
  0
LINE
  8
1
 62
3
 10
-43.62258783634397
 20
3.800000000000111
 30
0
 11
-43.62258783634397
 21
-7.799999999999914
 31
0
  0
LINE
  8
1
 62
3
 10
-43.62258783634397
 20
-7.799999999999914
 30
0
 11
-42.52258783634397
 21
-7.999999999999957
 31
0
  0
LINE
  8
1
 62
3
 10
-40.12258783634409
 20
-7.999999999999957
 30
0
 11
-42.52258783634397
 21
-7.999999999999957
 31
0
  0
LINE
  8
1
 62
3
 10
-42.52258783634397
 20
4.000000000000043
 30
0
 11
-43.62258783634397
 21
3.800000000000111
 31
0
  0
LINE
  8
1
 62
3
 10
-42.52258783634397
 20
4.000000000000043
 30
0
 11
-40.12258783634409
 21
4.000000000000043
 31
0
  0
LINE
  8
1
 62
1
 10
-117.980692166934
 20
-12.23688417427018
 30
0
 11
-115.8247202361591
 21
-15.97113709806608
 31
0
  0
LINE
  8
1
 62
1
 10
-115.8247202361591
 20
11.97113709806613
 30
0
 11
-117.980692166934
 21
8.236884174270232
 31
0
  0
LINE
  8
1
 62
1
 10
-117.4909600006121
 20
9.085125168440543
 30
0
 11
-117.6409600006122
 21
8.825317547305312
 31
0
  0
LINE
  8
1
 62
1
 10
-117.4909600006121
 20
-13.08512516844069
 30
0
 11
-117.6409600006122
 21
-12.82531754730546
 31
0
  0
LINE
  8
1
 62
1
 10
28.6333242277301
 20
-1.999999999999957
 30
0
 11
-64.12258783634408
 21
-1.999999999999957
 31
0
  0
LINE
  8
1
 62
3
 10
-40.12258783634409
 20
-18.59999999999998
 30
0
 11
-40.12258783634409
 21
14.60000000000003
 31
0
  0
LINE
  8
1
 62
3
 10
11.57741216365598
 20
6.999999999998934
 30
0
 11
14.57741216365598
 21
6.999999999998934
 31
0
  0
LINE
  8
1
 62
3
 10
11.57741216365598
 20
-10.99999999999996
 30
0
 11
14.57741216365598
 21
-10.99999999999996
 31
0
  0
LINE
  8
1
 62
3
 10
11.57741216365598
 20
10.79492086728102
 30
0
 11
14.57741216365598
 21
10.79492086728102
 31
0
  0
LINE
  8
1
 62
3
 10
11.57741216365598
 20
-14.79492086728208
 30
0
 11
14.57741216365598
 21
-14.79492086728208
 31
0
  0
LINE
  8
1
 62
3
 10
14.57741216365598
 20
16.60000000000003
 30
0
 11
14.577412163656
 21
-20.59999999999998
 31
0
  0
LINE
  8
1
 62
3
 10
14.57741216365597
 20
5.000000000000043
 30
0
 11
11.57741216365597
 21
5.000000000000043
 31
0
  0
LINE
  8
1
 62
3
 10
11.57741216365598
 20
-20.59999999999998
 30
0
 11
11.57741216365598
 21
16.60000000000003
 31
0
  0
LINE
  8
1
 62
3
 10
14.57741216365598
 20
-8.999999999999957
 30
0
 11
11.57741216365598
 21
-8.999999999999957
 31
0
  0
LINE
  8
1
 62
3
 10
7.377412163655929
 20
5.500000000000043
 30
0
 11
7.377412163655929
 21
0.5000000000000426
 31
0
  0
LINE
  8
1
 62
3
 10
7.377412163655929
 20
-4.499999999999957
 30
0
 11
7.377412163655929
 21
-9.499999999999957
 31
0
  0
LINE
  8
1
 62
3
 10
7.377412163655929
 20
5.500000000000043
 30
0
 11
9.377412163655921
 21
5.500000000000043
 31
0
  0
LINE
  8
1
 62
3
 10
9.377412163655921
 20
5.500000000000043
 30
0
 11
9.57741216365598
 21
3.785714285714036
 31
0
  0
LINE
  8
1
 62
3
 10
10.07741216365598
 20
-0.4999999999999574
 30
0
 11
10.07741216365598
 21
-3.499999999999957
 31
0
  0
LINE
  8
1
 62
3
 10
10.07741216365598
 20
-3.499999999999957
 30
0
 11
9.57741216365598
 21
-7.785714285713979
 31
0
  0
LINE
  8
1
 62
3
 10
9.377412163655921
 20
-9.499999999999957
 30
0
 11
7.377412163655929
 21
-9.499999999999957
 31
0
  0
LINE
  8
1
 62
3
 10
9.57741216365598
 20
3.785714285714036
 30
0
 11
10.07741216365598
 21
-0.4999999999999574
 31
0
  0
LINE
  8
1
 62
3
 10
9.57741216365598
 20
-7.785714285713979
 30
0
 11
9.377412163655921
 21
-9.499999999999957
 31
0
  0
LINE
  8
1
 62
3
 10
10.57577043119503
 20
-0.4999999999999574
 30
0
 11
11.07577043119503
 21
-0.4999999999999574
 31
0
  0
LINE
  8
1
 62
3
 10
11.07577043119503
 20
-3.499999999999957
 30
0
 11
10.57577043119503
 21
-3.499999999999957
 31
0
  0
LINE
  8
1
 62
3
 10
9.57741216365598
 20
-0.9999999999999574
 30
0
 11
7.972409509322951
 21
-0.9999999999999574
 31
0
  0
LINE
  8
1
 62
3
 10
9.57741216365598
 20
-2.999999999999957
 30
0
 11
7.972409509322951
 21
-2.999999999999957
 31
0
  0
LINE
  8
1
 62
3
 10
9.57741216365598
 20
3.785714285714036
 30
0
 11
9.57741216365598
 21
-7.785714285713979
 31
0
  0
LINE
  8
1
 62
3
 10
-38.12258783634409
 20
-20.59999999999998
 30
0
 11
14.577412163656
 21
-20.59999999999998
 31
0
  0
LINE
  8
1
 62
3
 10
14.57741216365598
 20
16.60000000000003
 30
0
 11
-38.12258783634408
 21
16.60000000000003
 31
0
  0
LINE
  8
1
 62
2
 10
-21.57313687691609
 20
16.60000000000003
 30
0
 11
-21.57313687691608
 21
5.08387375305702
 31
0
  0
LINE
  8
1
 62
2
 10
-21.57313687691608
 20
5.08387375305702
 30
0
 11
-1.573136876916081
 21
5.08387375305702
 31
0
  0
LINE
  8
1
 62
2
 10
-1.573136876916081
 20
5.08387375305702
 30
0
 11
-1.573136876916085
 21
16.60000000000003
 31
0
  0
ARC
  8
1
 62
3
 10
24.57741216365599
 20
14.60000000000004
 30
0
 40
2
 50
0
 51
90
  0
ARC
  8
1
 62
3
 10
24.57741216365599
 20
-18.59999999999987
 30
0
 40
2
 50
270
 51
0
  0
ARC
  8
1
 62
3
 10
3.263126449353001
 20
-1.999999999999957
 30
0
 40
4.814285714300426
 50
328.7155070856889
 51
31.28449291431107
  0
CIRCLE
  8
1
 62
3
 10
101.8990690841396
 20
-2.000000000000085
 30
0
 40
18.59999999999991
  0
CIRCLE
  8
1
 62
3
 10
-123.8909600006122
 20
-1.999999999999957
 30
0
 40
2
  0
CIRCLE
  8
1
 62
3
 10
-116.8909600006122
 20
10.12435565298192
 30
0
 40
1.199999999999999
  0
CIRCLE
  8
1
 62
1
 10
-116.8909600006122
 20
10.12435565298192
 30
0
 40
1.499999999999957
  0
CIRCLE
  8
1
 62
3
 10
-116.8909600006122
 20
-14.12435565298206
 30
0
 40
1.199999999999993
  0
CIRCLE
  8
1
 62
1
 10
-116.8909600006122
 20
-14.12435565298206
 30
0
 40
1.499999999999951
  0
CIRCLE
  8
1
 62
3
 10
-137.8909600006122
 20
-1.999999999999957
 30
0
 40
1.200000000000102
  0
CIRCLE
  8
1
 62
1
 10
-137.8909600006122
 20
-1.999999999999957
 30
0
 40
1.5
  0
CIRCLE
  8
1
 62
1
  6
CENTER
 10
-123.8909600006122
 20
-1.999999999999957
 30
0
 40
14
  0
CIRCLE
  8
1
 62
3
 10
-123.8909600006122
 20
-1.999999999999957
 30
0
 40
4.799999999999997
  0
CIRCLE
  8
1
 62
3
 10
-123.8909600006122
 20
-1.999999999999957
 30
0
 40
18.60000000000019
  0
CIRCLE
  8
1
 62
3
 10
-123.8909600006122
 20
-1.999999999999957
 30
0
 40
6
  0
CIRCLE
  8
1
 62
3
 10
-123.8909600006122
 20
-1.999999999999957
 30
0
 40
5.799999999999997
  0
CIRCLE
  8
1
 62
2
 10
6.48797541439151
 20
11.44634928422209
 30
0
 40
2.5
  0
ARC
  8
1
 62
3
 10
-60.82258783634411
 20
-0.2999999999999403
 30
0
 40
0.2999999999998979
 50
90
 51
180
  0
ARC
  8
1
 62
3
 10
-60.82258783634411
 20
-3.699999999999946
 30
0
 40
0.2999999999999545
 50
180
 51
270
  0
ARC
  8
1
 62
3
 10
-38.12258783634409
 20
-18.59999999999998
 30
0
 40
2
 50
180
 51
270
  0
ARC
  8
1
 62
3
 10
-38.12258783634409
 20
14.60000000000003
 30
0
 40
2
 50
90
 51
180
  0
TEXT
  8
1
 62
2
 10
-84.13743114707334
 20
44.61284614873679
 30
0
 40
5
  1
ＤＭＥ３７ＫＭＡ　ＤＭＥ３７ＫＭＢ
 41
0.9
 72
1
 73
2
 11
-7.637431147073341
 21
47.11284614873679
 31
0
  0
ENDSEC
  0
EOF
