  0
SECTION
  2
HEADER
  9
$ACADVER
  1
AC1009
  9
$INSBASE
 10
0
 20
0
  9
$EXTMIN
 10
-193.1880126182965
 20
-46.5483958279014
  9
$EXTMAX
 10
171.5999999999999
 20
103.5955620656325
  9
$LIMMIN
 10
-193.1880126182965
 20
-46.5483958279014
  9
$LIMMAX
 10
171.5999999999999
 20
103.5955620656325
  9
$VIEWCTR
 10
10
 20
10
  9
$VIEWSIZE
 40
10
  9
$SNAPMODE
 70
0
  9
$SNAPUNIT
 10
1
 20
1
  9
$SNAPBASE
 10
0
 20
0
  9
$SNAPANG
 50
0
  9
$SNAPSTYLE
 70
0
  9
$SNAPISOPAIR
 70
0
  9
$GRIDMODE
 70
0
  9
$GRIDUNIT
 10
0
 20
0
  9
$ORTHOMODE
 70
0
  9
$REGENMODE
 70
1
  9
$FILLMODE
 70
1
  9
$QTEXTMODE
 70
0
  9
$DRAGMODE
 70
2
  9
$LTSCALE
 40
1
  9
$OSMODE
 70
0
  9
$ATTMODE
 70
1
  9
$TEXTSIZE
 40
3.5
  9
$TRACEWID
 40
0.5
  9
$TEXTSTYLE
  7
STANDARD
  9
$CLAYER
  8
0
  9
$CELTYPE
  6
BYLAYER
  9
$CECOLOR
 62
256
  9
$DIMSCALE
 40
1
  9
$DIMASZ
 40
0.18
  9
$DIMEXO
 40
0.0625
  9
$DIMDLI
 40
0.38
  9
$DIMRND
 40
0
  9
$DIMDLE
 40
0
  9
$DIMEXE
 40
0.18
  9
$DIMTP
 40
0
  9
$DIMTM
 40
0
  9
$DIMTXT
 40
0.18
  9
$DIMCEN
 40
0.09
  9
$DIMTSZ
 40
0
  9
$DIMTOL
 70
0
  9
$DIMLIM
 70
0
  9
$DIMTIH
 70
1
  9
$DIMTOH
 70
1
  9
$DIMSE1
 70
0
  9
$DIMSE2
 70
0
  9
$DIMTAD
 70
0
  9
$DIMZIN
 70
0
  9
$DIMBLK
  1

  9
$DIMASO
 70
1
  9
$DIMSHO
 70
1
  9
$DIMPOST
  1

  9
$DIMAPOST
  1

  9
$DIMALT
 70
0
  9
$DIMALTD
 70
2
  9
$DIMALTF
 40
25.4
  9
$DIMLFAC
 40
1
  9
$DIMTOFL
 70
0
  9
$DIMTVP
 40
0
  9
$DIMTIX
 70
0
  9
$DIMSOXD
 70
0
  9
$DIMSAH
 70
0
  9
$DIMBLK1
  1

  9
$DIMBLK2
  1

  9
$DIMSTYLE
  2
*UNNAMED
  9
$DIMCLRD
 70
0
  9
$DIMCLRE
 70
0
  9
$DIMCLRT
 70
0
  9
$DIMTFAC
 40
1
  9
$DIMGAP
 40
0.09
  9
$LUNITS
 70
2
  9
$LUPREC
 70
4
  9
$AXISMODE
 70
0
  9
$AXISUNIT
 10
0
 20
0
  9
$SKETCHINC
 40
0.1
  9
$FILLETRAD
 40
2
  9
$AUNITS
 70
0
  9
$AUPREC
 70
0
  9
$MENU
  1
ACAD
  9
$ELEVATION
 40
0
  9
$THICKNESS
 40
0
  9
$VIEWDIR
 10
0
 20
0
 30
1
  9
$LIMCHECK
 70
0
  9
$BLIPMODE
 70
1
  9
$CHAMFERA
 40
0
  9
$CHAMFERB
 40
0
  9
$FASTZOOM
 70
1
  9
$SKPOLY
 70
0
  9
$ANGBASE
 50
0
  9
$ANGDIR
 70
0
  9
$PDMODE
 70
0
  9
$PDSIZE
 40
0
  9
$PLINEWID
 40
0
  9
$COORDS
 70
2
  0
ENDSEC
  0
SECTION
  2
TABLES
  0
TABLE
  2
DIMSTYLE
 70
0
  0
ENDTAB
  0
TABLE
  2
LTYPE
 70
9
  0
LTYPE
  2
CONTINUOUS
 70
64
  3
Solid line
 72
65
 73
0
 40
0
  0
LTYPE
  2
BORDER
 70
64
  3
__ __ . __ __ .
 72
65
 73
6
 40
16.79944794952681
 49
4.799842271293374
 49
-2.399921135646687
 49
4.799842271293374
 49
-2.399921135646687
 49
0
 49
-2.399921135646687
  0
LTYPE
  2
CENTER
 70
64
  3
____ _ ____ _
 72
65
 73
4
 40
19.1993690851735
 49
11.99960567823344
 49
-2.399921135646687
 49
2.399921135646687
 49
-2.399921135646687
  0
LTYPE
  2
DASHDOT
 70
64
  3
__ . __ . __ .
 72
65
 73
4
 40
9.599684542586749
 49
4.799842271293374
 49
-2.399921135646687
 49
0
 49
-2.399921135646687
  0
LTYPE
  2
DASHED
 70
64
  3
__ __ __ __ __
 72
65
 73
2
 40
7.199763406940061
 49
4.799842271293374
 49
-2.399921135646687
  0
LTYPE
  2
DIVIDE
 70
64
  3
__ . . __ . . 
 72
65
 73
6
 40
11.99960567823344
 49
4.799842271293374
 49
-2.399921135646687
 49
0
 49
-2.399921135646687
 49
0
 49
-2.399921135646687
  0
LTYPE
  2
DOT
 70
64
  3
..............
 72
65
 73
4
 40
4.799842271293374
 49
0
 49
-2.399921135646687
 49
0
 49
-2.399921135646687
  0
LTYPE
  2
HIDDEN
 70
64
  3
_ _ _ _ _ _ _
 72
65
 73
2
 40
3.599881703470031
 49
2.399921135646687
 49
-1.199960567823344
  0
LTYPE
  2
PHANTOM
 70
64
  3
_____ _ _ _____ _ _ 
 72
65
 73
6
 40
23.99921135646687
 49
11.99960567823344
 49
-2.399921135646687
 49
2.399921135646687
 49
-2.399921135646687
 49
2.399921135646687
 49
-2.399921135646687
  0
ENDTAB
  0
TABLE
  2
LAYER
 70
3
  0
LAYER
  2
1
 70
0
 62
7
  6
CONTINUOUS
  0
LAYER
  2
0
 70
0
 62
7
  6
CONTINUOUS
  0
ENDTAB
  0
TABLE
  2
STYLE
 70
4
  0
STYLE
  2
STANDARD
 70
0
 40
0
 41
1
 50
0
 71
0
 42
3.5
  3
txt
  4

  0
STYLE
  2
SIMPLEX
 70
0
 40
0
 41
1
 50
0
 71
0
 42
3.5
  3
simplex
  4

  0
STYLE
  2
COMPLEX
 70
0
 40
0
 41
1
 50
0
 71
0
 42
3.5
  3
complex
  4

  0
STYLE
  2
ITALIC
 70
0
 40
0
 41
1
 50
0
 71
0
 42
3.5
  3
italic
  4

  0
ENDTAB
  0
TABLE
  2
VIEW
 70
0
  0
ENDTAB
  0
ENDSEC
  0
SECTION
  2
BLOCKS
  0
ENDSEC
  0
SECTION
  2
ENTITIES
  0
LINE
  8
1
 62
1
 10
-144.3000000000002
 20
15
 30
0
 11
-164.8000000000002
 21
15
 31
0
  0
LINE
  8
1
 62
2
 10
-58.00000000000016
 20
11
 30
0
 11
-58.00000000000016
 21
18
 31
0
  0
LINE
  8
1
 62
3
 10
-58.00000000000016
 20
11
 30
0
 11
-58.50000000000016
 21
11.5
 31
0
  0
LINE
  8
1
 62
3
 10
9.999999999999838
 20
-16.60000000000002
 30
0
 11
9.999999999999838
 21
16.59999999999999
 31
0
  0
LINE
  8
1
 62
3
 10
64.69999999999993
 20
18.59999999999999
 30
0
 11
11.99999999999984
 21
18.59999999999999
 31
0
  0
LINE
  8
1
 62
3
 10
11.99999999999984
 20
-18.59999999999999
 30
0
 11
64.69999999999992
 21
-18.60000000000002
 31
0
  0
LINE
  8
1
 62
3
 10
39.54945095942788
 20
7.083873753056977
 30
0
 11
39.54945095942788
 21
18.59999999999999
 31
0
  0
LINE
  8
1
 62
3
 10
19.54945095942788
 20
7.083873753056977
 30
0
 11
39.54945095942788
 21
7.083873753056977
 31
0
  0
LINE
  8
1
 62
3
 10
19.54945095942788
 20
18.59999999999999
 30
0
 11
19.54945095942788
 21
7.083873753056977
 31
0
  0
LINE
  8
1
 62
3
 10
59.69999999999994
 20
5.785714285713993
 30
0
 11
59.69999999999994
 21
-5.785714285714023
 31
0
  0
LINE
  8
1
 62
3
 10
59.69999999999994
 20
-1.000000000000001
 30
0
 11
58.09499734566692
 21
-1.000000000000001
 31
0
  0
LINE
  8
1
 62
3
 10
59.69999999999994
 20
0.9999999999999982
 30
0
 11
58.09499734566692
 21
0.9999999999999982
 31
0
  0
LINE
  8
1
 62
3
 10
61.19835826753916
 20
-1.500000000000001
 30
0
 11
60.698358267539
 21
-1.500000000000001
 31
0
  0
LINE
  8
1
 62
3
 10
60.698358267539
 20
1.499999999999999
 30
0
 11
61.19835826753916
 21
1.499999999999999
 31
0
  0
LINE
  8
1
 62
3
 10
59.69999999999994
 20
-5.785714285714023
 30
0
 11
59.49999999999989
 21
-7.500000000000001
 31
0
  0
LINE
  8
1
 62
3
 10
59.69999999999994
 20
5.785714285713993
 30
0
 11
60.19999999999994
 21
1.499999999999999
 31
0
  0
LINE
  8
1
 62
3
 10
59.49999999999989
 20
-7.500000000000001
 30
0
 11
57.49999999999989
 21
-7.500000000000001
 31
0
  0
LINE
  8
1
 62
3
 10
60.19999999999994
 20
-1.500000000000001
 30
0
 11
59.69999999999994
 21
-5.785714285714023
 31
0
  0
LINE
  8
1
 62
3
 10
60.19999999999994
 20
1.499999999999999
 30
0
 11
60.19999999999994
 21
-1.500000000000001
 31
0
  0
LINE
  8
1
 62
3
 10
59.49999999999989
 20
7.5
 30
0
 11
59.69999999999994
 21
5.785714285713993
 31
0
  0
LINE
  8
1
 62
3
 10
57.49999999999989
 20
7.5
 30
0
 11
59.49999999999989
 21
7.5
 31
0
  0
LINE
  8
1
 62
3
 10
57.49999999999989
 20
-2.500000000000001
 30
0
 11
57.49999999999989
 21
-7.500000000000001
 31
0
  0
LINE
  8
1
 62
3
 10
57.49999999999989
 20
7.5
 30
0
 11
57.49999999999989
 21
2.499999999999999
 31
0
  0
LINE
  8
1
 62
1
 10
77.9880014527679
 20
-8.881784197001252e-016
 30
0
 11
72.74500000000002
 21
-8.881784197001252e-016
 31
0
  0
LINE
  8
1
 62
3
 10
64.69999999999993
 20
-7.000000000000001
 30
0
 11
61.69999999999994
 21
-7.000000000000001
 31
0
  0
LINE
  8
1
 62
3
 10
61.69999999999994
 20
-18.60000000000002
 30
0
 11
61.69999999999994
 21
18.59999999999999
 31
0
  0
LINE
  8
1
 62
3
 10
64.69999999999993
 20
7
 30
0
 11
61.69999999999994
 21
7
 31
0
  0
LINE
  8
1
 62
3
 10
64.69999999999993
 20
18.59999999999999
 30
0
 11
64.69999999999993
 21
2.749999999999999
 31
0
  0
LINE
  8
1
 62
3
 10
61.69999999999994
 20
-12.79492086728212
 30
0
 11
64.69999999999993
 21
-12.79492086728212
 31
0
  0
LINE
  8
1
 62
3
 10
61.69999999999994
 20
12.79492086728098
 30
0
 11
64.69999999999993
 21
12.79492086728098
 31
0
  0
LINE
  8
1
 62
3
 10
61.69999999999994
 20
-9.000000000000004
 30
0
 11
64.69999999999993
 21
-9
 31
0
  0
LINE
  8
1
 62
3
 10
61.69999999999994
 20
8.999999999998892
 30
0
 11
64.69999999999993
 21
8.999999999998892
 31
0
  0
LINE
  8
1
 62
3
 10
64.69999999999993
 20
7.99999999999989
 30
0
 11
67.69999999999993
 21
8
 31
0
  0
LINE
  8
1
 62
3
 10
67.69999999999993
 20
-8
 30
0
 11
64.69999999999993
 21
-8
 31
0
  0
LINE
  8
1
 62
3
 10
68.69999999999993
 20
7
 30
0
 11
68.69999999999993
 21
2.749999999999999
 31
0
  0
LINE
  8
1
 62
3
 10
68.74999999999989
 20
2.749999999999999
 30
0
 11
68.74999999999989
 21
2.374999999999999
 31
0
  0
LINE
  8
1
 62
3
 10
68.74999999999989
 20
2.374999999999999
 30
0
 11
74.10000000000004
 21
2.374999999999999
 31
0
  0
LINE
  8
1
 62
3
 10
75.10000000000004
 20
1.374999999999999
 30
0
 11
75.10000000000004
 21
-1.375000000000001
 31
0
  0
LINE
  8
1
 62
3
 10
74.10000000000004
 20
-2.375000000000001
 30
0
 11
68.74999999999989
 21
-2.375000000000001
 31
0
  0
LINE
  8
1
 62
3
 10
68.74999999999989
 20
-2.375000000000001
 30
0
 11
68.74999999999989
 21
-2.750000000000001
 31
0
  0
LINE
  8
1
 62
3
 10
68.74999999999989
 20
-2.750000000000001
 30
0
 11
66.09999999999992
 21
-2.75
 31
0
  0
LINE
  8
1
 62
3
 10
75.10000000000004
 20
1.374999999999999
 30
0
 11
74.10000000000004
 21
2.374999999999999
 31
0
  0
LINE
  8
1
 62
3
 10
74.10000000000004
 20
-2.375000000000001
 30
0
 11
75.10000000000004
 21
-1.375000000000001
 31
0
  0
LINE
  8
1
 62
3
 10
74.10000000000004
 20
2.374999999999999
 30
0
 11
74.10000000000004
 21
-2.375000000000001
 31
0
  0
LINE
  8
1
 62
1
 10
72.55000000000008
 20
-8.881784197001252e-016
 30
0
 11
71.05499999999996
 21
-8.881784197001252e-016
 31
0
  0
LINE
  8
1
 62
1
 10
71.89999999999999
 20
0.8449999999999971
 30
0
 11
71.89999999999999
 21
-0.8450000000000291
 31
0
  0
LINE
  8
1
 62
1
 10
71.05499999999996
 20
-8.881784197001252e-016
 30
0
 11
72.74500000000002
 21
-8.881784197001252e-016
 31
0
  0
LINE
  8
1
 62
1
 10
72.74500000000002
 20
-8.881784197001252e-016
 30
0
 11
72.55000000000008
 21
-8.881784197001252e-016
 31
0
  0
LINE
  8
1
 62
3
 10
68.69999999999993
 20
-2.750000000000001
 30
0
 11
68.69999999999993
 21
-7.000000000000001
 31
0
  0
LINE
  8
1
 62
3
 10
64.69999999999993
 20
2.749999999999999
 30
0
 11
65.09999999999992
 21
4.607651991520994
 31
0
  0
LINE
  8
1
 62
3
 10
64.69999999999993
 20
2.749999999999999
 30
0
 11
64.69999999999992
 21
-18.60000000000002
 31
0
  0
LINE
  8
1
 62
3
 10
65.09999999999992
 20
4.607651991520994
 30
0
 11
66.09999999999992
 21
4.607651991520994
 31
0
  0
LINE
  8
1
 62
3
 10
66.09999999999992
 20
4.607651991520994
 30
0
 11
66.09999999999992
 21
2.749999999999999
 31
0
  0
LINE
  8
1
 62
3
 10
66.09999999999992
 20
2.749999999999999
 30
0
 11
68.74999999999989
 21
2.749999999999999
 31
0
  0
LINE
  8
1
 62
3
 10
65.09999999999992
 20
-4.607651991521032
 30
0
 11
64.69999999999993
 21
-2.750000000000001
 31
0
  0
LINE
  8
1
 62
3
 10
66.09999999999992
 20
-4.607651991521032
 30
0
 11
65.09999999999992
 21
-4.607651991521032
 31
0
  0
LINE
  8
1
 62
3
 10
66.09999999999992
 20
-2.75
 30
0
 11
66.09999999999992
 21
-4.607651991521032
 31
0
  0
LINE
  8
1
 62
1
 10
-34.50000000000018
 20
-8.881784197001252e-016
 30
0
 11
72.69999999999997
 21
-8.881784197001252e-016
 31
0
  0
LINE
  8
1
 62
3
 10
-23.00000000000016
 20
32.02949999999999
 30
0
 11
-23.00000000000016
 21
-2
 31
0
  0
LINE
  8
1
 62
3
 10
8.999999999999837
 20
-20.75
 30
0
 11
9.499999999999837
 21
-20.75
 31
0
  0
LINE
  8
1
 62
3
 10
8.999999999999837
 20
20.75
 30
0
 11
9.499999999999837
 21
20.75
 31
0
  0
LINE
  8
1
 62
3
 10
6.499999999999837
 20
-40
 30
0
 11
8.499999999999837
 21
-40
 31
0
  0
LINE
  8
1
 62
3
 10
8.499999999999837
 20
40
 30
0
 11
6.499999999999837
 21
40
 31
0
  0
LINE
  8
1
 62
3
 10
8.499999999999837
 20
-21.25
 30
0
 11
8.499999999999837
 21
-21.21589334996099
 31
0
  0
LINE
  8
1
 62
3
 10
8.499999999999837
 20
-21.25
 30
0
 11
8.499999999999837
 21
-40
 31
0
  0
LINE
  8
1
 62
3
 10
8.499999999999837
 20
21.25
 30
0
 11
8.499999999999837
 21
-21.21589334996099
 31
0
  0
LINE
  8
1
 62
3
 10
8.499999999999837
 20
21.25
 30
0
 11
8.499999999999837
 21
40
 31
0
  0
LINE
  8
1
 62
3
 10
9.999999999999837
 20
20.25
 30
0
 11
9.999999999999837
 21
-20.25
 31
0
  0
LINE
  8
1
 62
3
 10
9.833608480936626
 20
28.79558594880143
 30
0
 11
8.608715574274648
 21
28.75
 31
0
  0
LINE
  8
1
 62
3
 10
9.833608480936626
 20
37.72631756475005
 30
0
 11
8.608715574274648
 21
37.77190351355142
 31
0
  0
LINE
  8
1
 62
3
 10
9.833608480936626
 20
-37.70441405119846
 30
0
 11
8.608715574274648
 21
-37.75
 31
0
  0
LINE
  8
1
 62
3
 10
9.833608480936626
 20
-28.77368243524995
 30
0
 11
8.608715574274648
 21
-28.72809648644846
 31
0
  0
LINE
  8
1
 62
1
 10
-43.73602570860805
 20
-33.25
 30
0
 11
13.53734209887455
 21
-33.25
 31
0
  0
LINE
  8
1
 62
1
 10
-43.68941042190118
 20
33.25
 30
0
 11
13.53734209887455
 21
33.25
 31
0
  0
LINE
  8
1
 62
3
 10
6.499999999999837
 20
-30
 30
0
 11
6.499999999999837
 21
-40
 31
0
  0
LINE
  8
1
 62
3
 10
6.499999999999837
 20
40
 30
0
 11
6.499999999999837
 21
30
 31
0
  0
LINE
  8
1
 62
3
 10
6.499999999999837
 20
-30
 30
0
 11
6.499999999999837
 21
30
 31
0
  0
LINE
  8
1
 62
3
 10
6.499999999999837
 20
-40
 30
0
 11
-23.00000000000016
 21
-40
 31
0
  0
LINE
  8
1
 62
3
 10
-23.00000000000016
 20
40
 30
0
 11
6.499999999999837
 21
40
 31
0
  0
LINE
  8
1
 62
3
 10
-23.50000000000016
 20
27
 30
0
 11
-23.50000000000016
 21
28.25
 31
0
  0
LINE
  8
1
 62
3
 10
-23.50000000000016
 20
-39.5
 30
0
 11
-23.50000000000016
 21
-38.25
 31
0
  0
LINE
  8
1
 62
3
 10
-28.50000000000016
 20
-2
 30
0
 11
-23.00000000000016
 21
-2
 31
0
  0
LINE
  8
1
 62
3
 10
-23.00000000000016
 20
-2
 30
0
 11
-23.00000000000016
 21
-32.02949999999999
 31
0
  0
LINE
  8
1
 62
1
 10
-61.86016340178258
 20
15
 30
0
 11
-19.01830297664605
 21
15
 31
0
  0
LINE
  8
1
 62
3
 10
-23.50000000000016
 20
28.25
 30
0
 11
-23.50000000000016
 21
38.25
 31
0
  0
LINE
  8
1
 62
3
 10
-23.50000000000016
 20
28.25
 30
0
 11
-23.50000000000016
 21
38.25
 31
0
  0
LINE
  8
1
 62
3
 10
-41.00000000000016
 20
35.75
 30
0
 11
-29.20000000000009
 21
35.75
 31
0
  0
LINE
  8
1
 62
1
 10
-41.50000000000016
 20
35.25
 30
0
 11
-29.20000000000009
 21
35.25
 31
0
  0
LINE
  8
1
 62
1
 10
-41.50000000000016
 20
31.25
 30
0
 11
-29.20000000000009
 21
31.25
 31
0
  0
LINE
  8
1
 62
3
 10
-41.50000000000016
 20
35.25
 30
0
 11
-41.50000000000016
 21
31.25
 31
0
  0
LINE
  8
1
 62
3
 10
-41.00000000000016
 20
35.75
 30
0
 11
-41.00000000000016
 21
30.75
 31
0
  0
LINE
  8
1
 62
3
 10
-41.00000000000016
 20
35.75
 30
0
 11
-41.50000000000016
 21
35.25
 31
0
  0
LINE
  8
1
 62
3
 10
-41.00000000000016
 20
30.75
 30
0
 11
-41.50000000000016
 21
31.25
 31
0
  0
LINE
  8
1
 62
3
 10
-23.50000000000016
 20
-38.25
 30
0
 11
-23.50000000000016
 21
-28.25
 31
0
  0
LINE
  8
1
 62
3
 10
-23.50000000000016
 20
-38.25
 30
0
 11
-23.50000000000016
 21
-28.25
 31
0
  0
LINE
  8
1
 62
3
 10
-23.50000000000016
 20
-28.25
 30
0
 11
-23.50000000000016
 21
-27
 31
0
  0
LINE
  8
1
 62
3
 10
-23.50000000000016
 20
-28.25
 30
0
 11
-24.50000000000016
 21
-28.25
 31
0
  0
LINE
  8
1
 62
3
 10
-24.50000000000016
 20
-28.25
 30
0
 11
-24.50000000000016
 21
-38.25
 31
0
  0
LINE
  8
1
 62
3
 10
-24.50000000000016
 20
-38.25
 30
0
 11
-23.50000000000016
 21
-38.25
 31
0
  0
LINE
  8
1
 62
3
 10
-28.89657640951929
 20
-37.86999999999995
 30
0
 11
-26.85000000000019
 21
-37.86999999999995
 31
0
  0
LINE
  8
1
 62
3
 10
-28.89657640951929
 20
-28.63
 30
0
 11
-26.85000000000019
 21
-28.63
 31
0
  0
LINE
  8
1
 62
3
 10
-28.89657640951929
 20
-30.94
 30
0
 11
-26.85000000000019
 21
-30.94
 31
0
  0
LINE
  8
1
 62
3
 10
-28.89657640951929
 20
-35.56
 30
0
 11
-26.85000000000019
 21
-35.56
 31
0
  0
LINE
  8
1
 62
3
 10
-29.20000000000009
 20
-29.78499999999997
 30
0
 11
-29.20000000000009
 21
-30.75
 31
0
  0
LINE
  8
1
 62
3
 10
-26.85000000000019
 20
-37.86999999999995
 30
0
 11
-24.80342359048108
 21
-37.86999999999995
 31
0
  0
LINE
  8
1
 62
3
 10
-26.85000000000019
 20
-28.63
 30
0
 11
-24.80342359048108
 21
-28.63
 31
0
  0
LINE
  8
1
 62
3
 10
-26.85000000000019
 20
-30.94
 30
0
 11
-24.80342359048108
 21
-30.94
 31
0
  0
LINE
  8
1
 62
3
 10
-26.85000000000019
 20
-35.56
 30
0
 11
-24.80342359048108
 21
-35.56
 31
0
  0
LINE
  8
1
 62
3
 10
-24.50000000000016
 20
-36.71500000000009
 30
0
 11
-24.50000000000016
 21
-29.78499999999997
 31
0
  0
LINE
  8
1
 62
1
 10
-41.50000000000016
 20
-31.25
 30
0
 11
-29.20000000000009
 21
-31.25
 31
0
  0
LINE
  8
1
 62
3
 10
-29.20000000000009
 20
-31.25
 30
0
 11
-29.20000000000009
 21
-35.25
 31
0
  0
LINE
  8
1
 62
1
 10
-41.50000000000016
 20
-35.25
 30
0
 11
-29.20000000000009
 21
-35.25
 31
0
  0
LINE
  8
1
 62
3
 10
-29.20000000000009
 20
-35.25
 30
0
 11
-29.20000000000009
 21
-35.75
 31
0
  0
LINE
  8
1
 62
3
 10
-41.00000000000016
 20
-35.75
 30
0
 11
-29.20000000000009
 21
-35.75
 31
0
  0
LINE
  8
1
 62
3
 10
-29.20000000000009
 20
-35.75
 30
0
 11
-29.20000000000009
 21
-36.71500000000009
 31
0
  0
LINE
  8
1
 62
3
 10
-41.00000000000016
 20
-30.75
 30
0
 11
-29.20000000000009
 21
-30.75
 31
0
  0
LINE
  8
1
 62
3
 10
-29.20000000000009
 20
-30.75
 30
0
 11
-29.20000000000009
 21
-31.25
 31
0
  0
LINE
  8
1
 62
3
 10
-41.00000000000016
 20
-30.75
 30
0
 11
-41.50000000000016
 21
-31.25
 31
0
  0
LINE
  8
1
 62
3
 10
-41.50000000000016
 20
-35.25
 30
0
 11
-41.00000000000016
 21
-35.75
 31
0
  0
LINE
  8
1
 62
3
 10
-41.00000000000016
 20
-30.75
 30
0
 11
-41.00000000000016
 21
-35.75
 31
0
  0
LINE
  8
1
 62
3
 10
-41.50000000000016
 20
-31.25
 30
0
 11
-41.50000000000016
 21
-35.25
 31
0
  0
LINE
  8
1
 62
3
 10
-28.50000000000016
 20
19
 30
0
 11
-28.50000000000016
 21
11
 31
0
  0
LINE
  8
1
 62
3
 10
-28.50000000000016
 20
11
 30
0
 11
-58.00000000000016
 21
11
 31
0
  0
LINE
  8
1
 62
3
 10
-28.50000000000016
 20
11
 30
0
 11
-28.50000000000016
 21
-2
 31
0
  0
LINE
  8
1
 62
3
 10
-23.50000000000016
 20
28.25
 30
0
 11
-23.50000000000016
 21
38.25
 31
0
  0
LINE
  8
1
 62
3
 10
-23.50000000000016
 20
38.25
 30
0
 11
-24.50000000000016
 21
38.25
 31
0
  0
LINE
  8
1
 62
3
 10
-24.50000000000016
 20
38.25
 30
0
 11
-24.50000000000016
 21
28.25
 31
0
  0
LINE
  8
1
 62
3
 10
-24.50000000000016
 20
28.25
 30
0
 11
-23.50000000000016
 21
28.25
 31
0
  0
LINE
  8
1
 62
3
 10
-23.50000000000016
 20
29.78499999999991
 30
0
 11
-23.50000000000016
 21
36.71500000000003
 31
0
  0
LINE
  8
1
 62
3
 10
-28.89657640951929
 20
28.63000000000005
 30
0
 11
-26.85000000000019
 21
28.63000000000005
 31
0
  0
LINE
  8
1
 62
3
 10
-28.89657640951929
 20
37.87000000000001
 30
0
 11
-26.85000000000019
 21
37.87000000000001
 31
0
  0
LINE
  8
1
 62
3
 10
-28.89657640951929
 20
35.56
 30
0
 11
-26.85000000000019
 21
35.56
 31
0
  0
LINE
  8
1
 62
3
 10
-28.89657640951929
 20
30.94
 30
0
 11
-26.85000000000019
 21
30.94
 31
0
  0
LINE
  8
1
 62
3
 10
-29.20000000000009
 20
36.71500000000003
 30
0
 11
-29.20000000000009
 21
30.75
 31
0
  0
LINE
  8
1
 62
3
 10
-26.85000000000019
 20
28.63000000000005
 30
0
 11
-24.80342359048108
 21
28.63000000000005
 31
0
  0
LINE
  8
1
 62
3
 10
-26.85000000000019
 20
37.87000000000001
 30
0
 11
-24.80342359048108
 21
37.87000000000001
 31
0
  0
LINE
  8
1
 62
3
 10
-26.85000000000019
 20
35.56
 30
0
 11
-24.80342359048108
 21
35.56
 31
0
  0
LINE
  8
1
 62
3
 10
-26.85000000000019
 20
30.94
 30
0
 11
-24.80342359048108
 21
30.94
 31
0
  0
LINE
  8
1
 62
3
 10
-24.50000000000016
 20
29.78499999999991
 30
0
 11
-24.50000000000016
 21
36.71500000000003
 31
0
  0
LINE
  8
1
 62
3
 10
-41.00000000000016
 20
30.75
 30
0
 11
-29.20000000000009
 21
30.75
 31
0
  0
LINE
  8
1
 62
3
 10
-29.20000000000009
 20
30.75
 30
0
 11
-29.20000000000009
 21
29.78499999999991
 31
0
  0
LINE
  8
1
 62
3
 10
-28.50000000000016
 20
28.63000000000005
 30
0
 11
-28.50000000000016
 21
19
 31
0
  0
LINE
  8
1
 62
3
 10
-58.50000000000016
 20
18
 30
0
 11
-44.50000000000016
 21
18
 31
0
  0
LINE
  8
1
 62
3
 10
-58.50000000000016
 20
17.5
 30
0
 11
-58.50000000000016
 21
18
 31
0
  0
LINE
  8
1
 62
3
 10
-28.50000000000016
 20
19
 30
0
 11
-41.50000000000016
 21
19
 31
0
  0
LINE
  8
1
 62
3
 10
-23.50000000000016
 20
38.25
 30
0
 11
-23.50000000000016
 21
39.5
 31
0
  0
LINE
  8
1
 62
3
 10
-23.50000000000016
 20
38.25
 30
0
 11
-23.50000000000016
 21
28.25
 31
0
  0
LINE
  8
1
 62
3
 10
-58.50000000000016
 20
17.5
 30
0
 11
-58.50000000000016
 21
11.5
 31
0
  0
LINE
  8
1
 62
3
 10
-150.4457513110648
 20
18
 30
0
 11
-145.1542486889356
 21
18
 31
0
  0
LINE
  8
1
 62
1
 10
-143.8000000000002
 20
15
 30
0
 11
-127.8756664829764
 21
15
 31
0
  0
LINE
  8
1
 62
1
 10
-143.8000000000002
 20
15
 30
0
 11
-144.3000000000002
 21
15
 31
0
  0
LINE
  8
1
 62
3
 10
-181.0500000000002
 20
40
 30
0
 11
-114.5500000000002
 21
40
 31
0
  0
LINE
  8
1
 62
3
 10
-107.8000000000002
 20
33.25
 30
0
 11
-107.8000000000002
 21
-33.25
 31
0
  0
LINE
  8
1
 62
1
 10
-191.2139502278305
 20
-33.25
 30
0
 11
-185.6688021535171
 21
-33.25
 31
0
  0
LINE
  8
1
 62
1
 10
-181.0500000000002
 20
-23.67332632316857
 30
0
 11
-181.0500000000002
 21
-44.03084472485097
 31
0
  0
LINE
  8
1
 62
1
 10
-114.5500000000002
 20
-23.21065545040307
 30
0
 11
-114.5500000000002
 21
-28.63119784648296
 31
0
  0
LINE
  8
1
 62
1
 10
-124.2808973010867
 20
33.25
 30
0
 11
-112.5500000000002
 21
33.25
 31
0
  0
LINE
  8
1
 62
1
 10
-114.5500000000002
 20
42.18016123378902
 30
0
 11
-114.5500000000002
 21
37.86880215351704
 31
0
  0
LINE
  8
1
 62
1
 10
-191.6766211005961
 20
33.25
 30
0
 11
-185.0500000000002
 21
33.25
 31
0
  0
LINE
  8
1
 62
1
 10
-181.0500000000002
 20
43.25972660357525
 30
0
 11
-181.0500000000002
 21
37.86880215351704
 31
0
  0
LINE
  8
1
 62
3
 10
-114.5500000000002
 20
-40
 30
0
 11
-181.0500000000002
 21
-40
 31
0
  0
LINE
  8
1
 62
1
 10
-120.3000000000002
 20
22
 30
0
 11
-120.3000000000002
 21
10
 31
0
  0
LINE
  8
1
 62
1
 10
-126.3000000000002
 20
16
 30
0
 11
-114.3000000000002
 21
16
 31
0
  0
LINE
  8
1
 62
1
 10
-175.3000000000002
 20
22
 30
0
 11
-175.3000000000002
 21
10
 31
0
  0
LINE
  8
1
 62
1
 10
-181.3000000000002
 20
16
 30
0
 11
-169.3000000000002
 21
16
 31
0
  0
LINE
  8
1
 62
1
 10
-153.8000000000002
 20
-32
 30
0
 11
-141.8000000000002
 21
-32
 31
0
  0
LINE
  8
1
 62
1
 10
-147.8000000000002
 20
45.20695887783882
 30
0
 11
-147.8000000000002
 21
-46.5483958279014
 31
0
  0
LINE
  8
1
 62
1
 10
-124.1266736768316
 20
-33.25
 30
0
 11
-112.5500000000002
 21
-33.25
 31
0
  0
LINE
  8
1
 62
1
 10
-183.0500000000002
 20
33.25
 30
0
 11
-170.5479845776377
 21
33.25
 31
0
  0
LINE
  8
1
 62
1
 10
-183.5500000000002
 20
33.25
 30
0
 11
-183.0500000000002
 21
33.25
 31
0
  0
LINE
  8
1
 62
1
 10
-112.5500000000002
 20
33.25
 30
0
 11
-112.0500000000002
 21
33.25
 31
0
  0
LINE
  8
1
 62
1
 10
-112.0500000000002
 20
33.25
 30
0
 11
-110.5500000000002
 21
33.25
 31
0
  0
LINE
  8
1
 62
1
 10
-112.5500000000002
 20
-33.25
 30
0
 11
-112.0500000000002
 21
-33.25
 31
0
  0
LINE
  8
1
 62
1
 10
-112.0500000000002
 20
-33.25
 30
0
 11
-110.5500000000002
 21
-33.25
 31
0
  0
LINE
  8
1
 62
1
 10
-181.0500000000003
 20
-35.25000000000006
 30
0
 11
-181.0500000000003
 21
-28.63119784648308
 31
0
  0
LINE
  8
1
 62
1
 10
-181.0500000000003
 20
-35.75000000000006
 30
0
 11
-181.0500000000003
 21
-35.25000000000006
 31
0
  0
LINE
  8
1
 62
3
 10
-177.0500000000002
 20
35.55940107675855
 30
0
 11
-181.0500000000002
 21
37.86880215351704
 31
0
  0
LINE
  8
1
 62
1
 10
-181.0500000000002
 20
37.86880215351704
 30
0
 11
-181.0500000000002
 21
28.63119784648291
 31
0
  0
LINE
  8
1
 62
3
 10
-181.0500000000002
 20
37.86880215351704
 30
0
 11
-185.0500000000002
 21
35.55940107675855
 31
0
  0
LINE
  8
1
 62
3
 10
-185.0500000000002
 20
35.55940107675855
 30
0
 11
-185.0500000000002
 21
33.25
 31
0
  0
LINE
  8
1
 62
3
 10
-185.0500000000002
 20
30.94059892324151
 30
0
 11
-181.0500000000002
 21
28.63119784648291
 31
0
  0
LINE
  8
1
 62
1
 10
-181.0500000000002
 20
28.63119784648291
 30
0
 11
-181.0500000000002
 21
22.1310900806169
 31
0
  0
LINE
  8
1
 62
3
 10
-181.0500000000002
 20
28.63119784648291
 30
0
 11
-177.0500000000002
 21
30.94059892324151
 31
0
  0
LINE
  8
1
 62
3
 10
-177.0500000000002
 20
30.94059892324151
 30
0
 11
-177.0500000000002
 21
35.55940107675855
 31
0
  0
LINE
  8
1
 62
1
 10
-185.0500000000002
 20
33.25
 30
0
 11
-183.5500000000002
 21
33.25
 31
0
  0
LINE
  8
1
 62
3
 10
-185.0500000000002
 20
33.25
 30
0
 11
-185.0500000000002
 21
30.94059892324151
 31
0
  0
LINE
  8
1
 62
3
 10
-110.5500000000002
 20
35.55940107675855
 30
0
 11
-114.5500000000002
 21
37.86880215351704
 31
0
  0
LINE
  8
1
 62
1
 10
-114.5500000000002
 20
37.86880215351704
 30
0
 11
-114.5500000000002
 21
28.63119784648291
 31
0
  0
LINE
  8
1
 62
3
 10
-114.5500000000002
 20
37.86880215351704
 30
0
 11
-118.5500000000002
 21
35.55940107675855
 31
0
  0
LINE
  8
1
 62
3
 10
-118.5500000000002
 20
35.55940107675855
 30
0
 11
-118.5500000000002
 21
30.94059892324151
 31
0
  0
LINE
  8
1
 62
3
 10
-118.5500000000002
 20
30.94059892324151
 30
0
 11
-114.5500000000002
 21
28.63119784648291
 31
0
  0
LINE
  8
1
 62
1
 10
-114.5500000000002
 20
28.63119784648291
 30
0
 11
-114.5500000000002
 21
23.82754994742385
 31
0
  0
LINE
  8
1
 62
3
 10
-114.5500000000002
 20
28.63119784648291
 30
0
 11
-110.5500000000002
 21
30.94059892324151
 31
0
  0
LINE
  8
1
 62
3
 10
-110.5500000000002
 20
30.94059892324151
 30
0
 11
-110.5500000000002
 21
33.25
 31
0
  0
LINE
  8
1
 62
1
 10
-110.5500000000002
 20
33.25
 30
0
 11
-103.4607080266387
 21
33.25
 31
0
  0
LINE
  8
1
 62
3
 10
-110.5500000000002
 20
33.25
 30
0
 11
-110.5500000000002
 21
35.55940107675855
 31
0
  0
LINE
  8
1
 62
3
 10
-177.0500000000003
 20
-30.94059892324157
 30
0
 11
-181.0500000000003
 21
-28.63119784648308
 31
0
  0
LINE
  8
1
 62
1
 10
-185.0500000000002
 20
-33.25
 30
0
 11
-170.5479845776377
 21
-33.25
 31
0
  0
LINE
  8
1
 62
3
 10
-181.0500000000003
 20
-28.63119784648308
 30
0
 11
-185.0500000000003
 21
-30.94059892324157
 31
0
  0
LINE
  8
1
 62
3
 10
-185.0500000000003
 20
-30.94059892324157
 30
0
 11
-185.0500000000003
 21
-35.55940107675855
 31
0
  0
LINE
  8
1
 62
3
 10
-185.0500000000003
 20
-35.55940107675855
 30
0
 11
-181.0500000000003
 21
-37.86880215351687
 31
0
  0
LINE
  8
1
 62
1
 10
-185.6688021535171
 20
-33.25
 30
0
 11
-185.0500000000002
 21
-33.25
 31
0
  0
LINE
  8
1
 62
3
 10
-181.0500000000003
 20
-37.86880215351687
 30
0
 11
-177.0500000000003
 21
-35.55940107675855
 31
0
  0
LINE
  8
1
 62
3
 10
-177.0500000000003
 20
-35.55940107675855
 30
0
 11
-177.0500000000003
 21
-30.94059892324157
 31
0
  0
LINE
  8
1
 62
1
 10
-181.0500000000003
 20
-37.25000000000006
 30
0
 11
-181.0500000000003
 21
-35.75000000000006
 31
0
  0
LINE
  8
1
 62
3
 10
-110.5500000000002
 20
-30.94059892324145
 30
0
 11
-114.5500000000002
 21
-28.63119784648296
 31
0
  0
LINE
  8
1
 62
1
 10
-114.5500000000002
 20
-28.63119784648296
 30
0
 11
-114.5500000000002
 21
-37.8688021535171
 31
0
  0
LINE
  8
1
 62
3
 10
-114.5500000000002
 20
-28.63119784648296
 30
0
 11
-118.5500000000002
 21
-30.94059892324145
 31
0
  0
LINE
  8
1
 62
3
 10
-118.5500000000002
 20
-30.94059892324145
 30
0
 11
-118.5500000000002
 21
-35.55940107675849
 31
0
  0
LINE
  8
1
 62
3
 10
-118.5500000000002
 20
-35.55940107675849
 30
0
 11
-114.5500000000002
 21
-37.8688021535171
 31
0
  0
LINE
  8
1
 62
1
 10
-114.5500000000002
 20
-37.8688021535171
 30
0
 11
-114.5500000000002
 21
-43.25972660357519
 31
0
  0
LINE
  8
1
 62
3
 10
-114.5500000000002
 20
-37.8688021535171
 30
0
 11
-110.5500000000002
 21
-35.55940107675849
 31
0
  0
LINE
  8
1
 62
3
 10
-110.5500000000002
 20
-35.55940107675849
 30
0
 11
-110.5500000000002
 21
-33.25
 31
0
  0
LINE
  8
1
 62
1
 10
-110.5500000000002
 20
-33.25
 30
0
 11
-104.5402733964249
 21
-33.25
 31
0
  0
LINE
  8
1
 62
3
 10
-110.5500000000002
 20
-33.25
 30
0
 11
-110.5500000000002
 21
-30.94059892324145
 31
0
  0
LINE
  8
1
 62
1
 10
-167.9824934984067
 20
15
 30
0
 11
-164.8000000000002
 21
15
 31
0
  0
LINE
  8
1
 62
1
 10
-193.1880126182965
 20
0
 30
0
 11
-104.2314584485381
 21
0
 31
0
  0
LINE
  8
1
 62
3
 10
-187.8000000000002
 20
33.25
 30
0
 11
-187.8000000000002
 21
-33.25
 31
0
  0
LINE
  8
1
 62
3
 10
-177.5000000000001
 20
16.40000000000003
 30
0
 11
-176.9000000000002
 21
16.40000000000003
 31
0
  0
LINE
  8
1
 62
3
 10
-175.7000000000002
 20
17.59999999999991
 30
0
 11
-175.7000000000002
 21
18.20000000000005
 31
0
  0
LINE
  8
1
 62
3
 10
-175.6000000000002
 20
18.30000000000001
 30
0
 11
-175.0000000000001
 21
18.30000000000001
 31
0
  0
LINE
  8
1
 62
3
 10
-174.9000000000002
 20
18.20000000000005
 30
0
 11
-174.9000000000002
 21
17.59999999999991
 31
0
  0
LINE
  8
1
 62
3
 10
-173.7000000000002
 20
16.40000000000003
 30
0
 11
-173.1000000000002
 21
16.40000000000003
 31
0
  0
LINE
  8
1
 62
3
 10
-173.0000000000001
 20
16.2999999999999
 30
0
 11
-173.0000000000001
 21
15.70000000000005
 31
0
  0
LINE
  8
1
 62
3
 10
-173.7000000000002
 20
15.60000000000002
 30
0
 11
-173.1000000000002
 21
15.60000000000002
 31
0
  0
LINE
  8
1
 62
3
 10
-174.9000000000002
 20
14.40000000000003
 30
0
 11
-174.9000000000002
 21
13.80000000000001
 31
0
  0
LINE
  8
1
 62
3
 10
-175.0000000000001
 20
13.70000000000005
 30
0
 11
-175.6000000000002
 21
13.70000000000005
 31
0
  0
LINE
  8
1
 62
3
 10
-175.7000000000002
 20
13.80000000000001
 30
0
 11
-175.7000000000002
 21
14.40000000000003
 31
0
  0
LINE
  8
1
 62
3
 10
-176.9000000000002
 20
15.60000000000002
 30
0
 11
-177.5000000000001
 21
15.60000000000002
 31
0
  0
LINE
  8
1
 62
3
 10
-177.6000000000002
 20
15.70000000000005
 30
0
 11
-177.6000000000002
 21
16.2999999999999
 31
0
  0
LINE
  8
1
 62
3
 10
-122.5000000000002
 20
16.40000000000003
 30
0
 11
-121.9000000000002
 21
16.40000000000003
 31
0
  0
LINE
  8
1
 62
3
 10
-120.7000000000002
 20
17.59999999999991
 30
0
 11
-120.7000000000002
 21
18.20000000000005
 31
0
  0
LINE
  8
1
 62
3
 10
-120.6000000000002
 20
18.30000000000001
 30
0
 11
-120.0000000000002
 21
18.30000000000001
 31
0
  0
LINE
  8
1
 62
3
 10
-119.9000000000002
 20
18.20000000000005
 30
0
 11
-119.9000000000002
 21
17.59999999999991
 31
0
  0
LINE
  8
1
 62
3
 10
-118.7000000000002
 20
16.40000000000003
 30
0
 11
-118.1000000000002
 21
16.40000000000003
 31
0
  0
LINE
  8
1
 62
3
 10
-118.0000000000002
 20
16.2999999999999
 30
0
 11
-118.0000000000002
 21
15.70000000000005
 31
0
  0
LINE
  8
1
 62
3
 10
-118.7000000000002
 20
15.60000000000002
 30
0
 11
-118.1000000000002
 21
15.60000000000002
 31
0
  0
LINE
  8
1
 62
3
 10
-119.9000000000002
 20
14.40000000000003
 30
0
 11
-119.9000000000002
 21
13.80000000000001
 31
0
  0
LINE
  8
1
 62
3
 10
-120.0000000000002
 20
13.70000000000005
 30
0
 11
-120.6000000000002
 21
13.70000000000005
 31
0
  0
LINE
  8
1
 62
3
 10
-120.7000000000002
 20
13.80000000000001
 30
0
 11
-120.7000000000002
 21
14.40000000000003
 31
0
  0
LINE
  8
1
 62
3
 10
-121.9000000000002
 20
15.60000000000002
 30
0
 11
-122.5000000000002
 21
15.60000000000002
 31
0
  0
LINE
  8
1
 62
3
 10
-122.6000000000002
 20
15.70000000000005
 30
0
 11
-122.6000000000002
 21
16.2999999999999
 31
0
  0
LINE
  8
1
 62
3
 10
-150.0000000000001
 20
-31.59999999999997
 30
0
 11
-149.4000000000002
 21
-31.59999999999997
 31
0
  0
LINE
  8
1
 62
3
 10
-148.2000000000002
 20
-30.40000000000009
 30
0
 11
-148.2000000000002
 21
-29.79999999999996
 31
0
  0
LINE
  8
1
 62
3
 10
-148.1000000000002
 20
-29.69999999999999
 30
0
 11
-147.5000000000001
 21
-29.69999999999999
 31
0
  0
LINE
  8
1
 62
3
 10
-147.4000000000002
 20
-29.79999999999996
 30
0
 11
-147.4000000000002
 21
-30.40000000000009
 31
0
  0
LINE
  8
1
 62
3
 10
-146.2000000000002
 20
-31.59999999999997
 30
0
 11
-145.6000000000002
 21
-31.59999999999997
 31
0
  0
LINE
  8
1
 62
3
 10
-145.5000000000001
 20
-31.7000000000001
 30
0
 11
-145.5000000000001
 21
-32.29999999999996
 31
0
  0
LINE
  8
1
 62
3
 10
-146.2000000000002
 20
-32.39999999999998
 30
0
 11
-145.6000000000002
 21
-32.39999999999998
 31
0
  0
LINE
  8
1
 62
3
 10
-147.4000000000002
 20
-33.59999999999997
 30
0
 11
-147.4000000000002
 21
-34.19999999999999
 31
0
  0
LINE
  8
1
 62
3
 10
-147.5000000000001
 20
-34.29999999999996
 30
0
 11
-148.1000000000002
 21
-34.29999999999996
 31
0
  0
LINE
  8
1
 62
3
 10
-148.2000000000002
 20
-34.19999999999999
 30
0
 11
-148.2000000000002
 21
-33.59999999999997
 31
0
  0
LINE
  8
1
 62
3
 10
-149.4000000000002
 20
-32.39999999999998
 30
0
 11
-150.0000000000001
 21
-32.39999999999998
 31
0
  0
LINE
  8
1
 62
3
 10
-150.1000000000002
 20
-32.29999999999996
 30
0
 11
-150.1000000000002
 21
-31.7000000000001
 31
0
  0
LINE
  8
1
 62
3
 10
9.999999999999838
 20
16.59999999999999
 30
0
 11
9.999999999999838
 21
-16.60000000000002
 31
0
  0
LINE
  8
1
 62
3
 10
152.0999999999997
 20
-9.400000000000148
 30
0
 11
150.8999999999997
 21
-9.400000000000148
 31
0
  0
LINE
  8
1
 62
3
 10
151.5999999999997
 20
-13.90000000000103
 30
0
 11
152.1499999999996
 21
-13.90000000000015
 31
0
  0
LINE
  8
1
 62
3
 10
152.1499999999996
 20
-13.90000000000015
 30
0
 11
152.1499999999996
 21
-9.400000000000148
 31
0
  0
LINE
  8
1
 62
3
 10
150.8999999999997
 20
-13.90000000000003
 30
0
 11
152.0999999999997
 21
-13.90000000000103
 31
0
  0
LINE
  8
1
 62
3
 10
150.3999999999997
 20
-9.900000000000148
 30
0
 11
150.3999999999997
 21
-13.40000000000003
 31
0
  0
LINE
  8
1
 62
3
 10
148.3999999999997
 20
-9.400000000001029
 30
0
 11
147.8499999999997
 21
-9.400000000000148
 31
0
  0
LINE
  8
1
 62
3
 10
147.8499999999997
 20
-9.400000000000148
 30
0
 11
147.8499999999997
 21
-13.90000000000015
 31
0
  0
LINE
  8
1
 62
3
 10
147.8499999999997
 20
-13.90000000000015
 30
0
 11
148.3999999999997
 21
-13.90000000000015
 31
0
  0
LINE
  8
1
 62
3
 10
147.8999999999997
 20
-9.400000000000148
 30
0
 11
149.0999999999997
 21
-9.400000000000148
 31
0
  0
LINE
  8
1
 62
3
 10
149.5999999999997
 20
-9.900000000000148
 30
0
 11
149.5999999999997
 21
-13.40000000000015
 31
0
  0
LINE
  8
1
 62
3
 10
149.0999999999997
 20
-13.90000000000103
 30
0
 11
147.8999999999997
 21
-13.90000000000003
 31
0
  0
LINE
  8
1
 62
3
 10
152.1499999999996
 20
-9.400000000000148
 30
0
 11
151.5999999999997
 21
-9.400000000000148
 31
0
  0
LINE
  8
1
 62
3
 10
152.1499999999996
 20
-13.90000000000015
 30
0
 11
152.1499999999996
 21
-9.400000000000148
 31
0
  0
LINE
  8
1
 62
3
 10
151.5999999999997
 20
-13.90000000000103
 30
0
 11
152.1499999999996
 21
-13.90000000000015
 31
0
  0
LINE
  8
1
 62
3
 10
147.8499999999997
 20
-9.400000000000148
 30
0
 11
147.8499999999997
 21
-13.90000000000015
 31
0
  0
LINE
  8
1
 62
3
 10
148.3999999999997
 20
-9.400000000001029
 30
0
 11
147.8499999999997
 21
-9.400000000000148
 31
0
  0
LINE
  8
1
 62
3
 10
147.8499999999997
 20
-13.90000000000015
 30
0
 11
148.3999999999997
 21
-13.90000000000015
 31
0
  0
LINE
  8
1
 62
3
 10
151.5999999999997
 20
-13.90000000000103
 30
0
 11
152.1499999999996
 21
-13.90000000000015
 31
0
  0
LINE
  8
1
 62
3
 10
147.8499999999997
 20
-13.90000000000015
 30
0
 11
148.3999999999997
 21
-13.90000000000015
 31
0
  0
LINE
  8
1
 62
3
 10
150.8999999999997
 20
9.399999999998983
 30
0
 11
152.0999999999997
 21
9.399999999998983
 31
0
  0
LINE
  8
1
 62
3
 10
152.1499999999996
 20
13.89999999999895
 30
0
 11
151.5999999999997
 21
13.89999999999895
 31
0
  0
LINE
  8
1
 62
3
 10
152.1499999999996
 20
9.399999999998983
 30
0
 11
152.1499999999996
 21
13.89999999999895
 31
0
  0
LINE
  8
1
 62
3
 10
152.0999999999997
 20
13.89999999999895
 30
0
 11
150.8999999999997
 21
13.89999999999895
 31
0
  0
LINE
  8
1
 62
3
 10
150.3999999999997
 20
13.39999999999895
 30
0
 11
150.3999999999997
 21
9.899999999998983
 31
0
  0
LINE
  8
1
 62
3
 10
147.8499999999997
 20
9.399999999998983
 30
0
 11
148.3999999999997
 21
9.399999999998983
 31
0
  0
LINE
  8
1
 62
3
 10
147.8499999999997
 20
13.89999999999895
 30
0
 11
147.8499999999997
 21
9.399999999998983
 31
0
  0
LINE
  8
1
 62
3
 10
148.3999999999997
 20
13.89999999999895
 30
0
 11
147.8499999999997
 21
13.89999999999895
 31
0
  0
LINE
  8
1
 62
3
 10
149.0999999999997
 20
9.399999999998983
 30
0
 11
147.8999999999997
 21
9.399999999998983
 31
0
  0
LINE
  8
1
 62
3
 10
149.5999999999997
 20
13.39999999999895
 30
0
 11
149.5999999999997
 21
9.899999999998983
 31
0
  0
LINE
  8
1
 62
3
 10
147.8999999999997
 20
13.89999999999895
 30
0
 11
149.0999999999997
 21
13.89999999999895
 31
0
  0
LINE
  8
1
 62
3
 10
151.5999999999997
 20
9.399999999998983
 30
0
 11
152.1499999999996
 21
9.399999999998983
 31
0
  0
LINE
  8
1
 62
3
 10
152.1499999999996
 20
9.399999999998983
 30
0
 11
152.1499999999996
 21
13.89999999999895
 31
0
  0
LINE
  8
1
 62
3
 10
152.1499999999996
 20
13.89999999999895
 30
0
 11
151.5999999999997
 21
13.89999999999895
 31
0
  0
LINE
  8
1
 62
3
 10
147.8499999999997
 20
13.89999999999895
 30
0
 11
147.8499999999997
 21
9.399999999998983
 31
0
  0
LINE
  8
1
 62
3
 10
147.8499999999997
 20
9.399999999998983
 30
0
 11
148.3999999999997
 21
9.399999999998983
 31
0
  0
LINE
  8
1
 62
3
 10
148.3999999999997
 20
13.89999999999895
 30
0
 11
147.8499999999997
 21
13.89999999999895
 31
0
  0
LINE
  8
1
 62
3
 10
133.1848282791996
 20
-2.500000000000028
 30
0
 11
131.5814803339397
 21
-2.500000000000028
 31
0
  0
LINE
  8
1
 62
3
 10
133.1848282791996
 20
2.499999999999972
 30
0
 11
131.5814803339397
 21
2.499999999999972
 31
0
  0
LINE
  8
1
 62
3
 10
166.8151717207998
 20
-2.5
 30
0
 11
168.4185196660596
 21
-2.5
 31
0
  0
LINE
  8
1
 62
3
 10
166.8151717207998
 20
2.5
 30
0
 11
168.4185196660596
 21
2.5
 31
0
  0
LINE
  8
1
 62
3
 10
165.6955304154768
 20
-0.6844896033560417
 30
0
 11
167.0610566762478
 21
-5.757543443480927
 31
0
  0
LINE
  8
1
 62
3
 10
165.6955304154768
 20
-0.6844896033560417
 30
0
 11
167.0610566762478
 21
-5.757543443480927
 31
0
  0
LINE
  8
1
 62
3
 10
167.0610566762478
 20
5.75754344347996
 30
0
 11
165.6955304154768
 21
0.6844896033548764
 31
0
  0
LINE
  8
1
 62
3
 10
167.0610566762478
 20
5.75754344347996
 30
0
 11
165.6955304154768
 21
0.6844896033548764
 31
0
  0
LINE
  8
1
 62
3
 10
167.0610566762478
 20
5.75754344347996
 30
0
 11
165.6955304154768
 21
0.6844896033548764
 31
0
  0
LINE
  8
1
 62
3
 10
165.3719602834847
 20
5.883758920768088
 30
0
 11
164.1345915721157
 21
1.152302403831044
 31
0
  0
LINE
  8
1
 62
3
 10
164.1345915721157
 20
-1.152302403832039
 30
0
 11
165.3719602834847
 21
-5.883758920768031
 31
0
  0
LINE
  8
1
 62
3
 10
164.1345915721157
 20
-1.152302403832039
 30
0
 11
165.3719602834847
 21
-5.883758920768031
 31
0
  0
LINE
  8
1
 62
3
 10
134.6280397165147
 20
-5.883758920768031
 30
0
 11
135.8654084278838
 21
-1.152302403832039
 31
0
  0
LINE
  8
1
 62
3
 10
134.6280397165147
 20
-5.883758920768031
 30
0
 11
135.8654084278838
 21
-1.152302403832039
 31
0
  0
LINE
  8
1
 62
3
 10
135.8654084278838
 20
1.152302403831071
 30
0
 11
134.6280397165147
 21
5.883758920768088
 31
0
  0
LINE
  8
1
 62
3
 10
135.8654084278838
 20
1.152302403831071
 30
0
 11
134.6280397165147
 21
5.883758920768088
 31
0
  0
LINE
  8
1
 62
3
 10
132.9389433237516
 20
-5.757543443480955
 30
0
 11
134.3044695845227
 21
-0.6844896033560417
 31
0
  0
LINE
  8
1
 62
3
 10
134.3044695845227
 20
0.6844896033548764
 30
0
 11
132.9389433237516
 21
5.75754344347996
 31
0
  0
LINE
  8
1
 62
3
 10
134.3044695845227
 20
0.6844896033548764
 30
0
 11
132.9389433237516
 21
5.75754344347996
 31
0
  0
LINE
  8
1
 62
3
 10
133.9999999999998
 20
0.8499999999999943
 30
0
 11
133.9999999999998
 21
-0.8500000000000512
 31
0
  0
LINE
  8
1
 62
3
 10
133.0212632978776
 20
-0.8500000000000512
 30
0
 11
133.9999999999998
 21
-0.8500000000000512
 31
0
  0
LINE
  8
1
 62
3
 10
133.0212632978776
 20
0.8499999999999943
 30
0
 11
133.9999999999998
 21
0.8499999999999943
 31
0
  0
LINE
  8
1
 62
3
 10
165.9999999999998
 20
0.8499999999999659
 30
0
 11
165.9999999999998
 21
-0.8500000000000227
 31
0
  0
LINE
  8
1
 62
3
 10
166.9787367021218
 20
-0.8500000000000227
 30
0
 11
165.9999999999998
 21
-0.8500000000000227
 31
0
  0
LINE
  8
1
 62
3
 10
166.9787367021218
 20
0.8499999999999943
 30
0
 11
165.9999999999998
 21
0.8499999999999659
 31
0
  0
LINE
  8
1
 62
3
 10
156.9999999999998
 20
15.05191017778137
 30
0
 11
156.9999999999998
 21
10.99999999999997
 31
0
  0
LINE
  8
1
 62
3
 10
156.9999999999998
 20
-5.656854249492454
 30
0
 11
156.9999999999998
 21
-6
 31
0
  0
LINE
  8
1
 62
3
 10
142.9999999999998
 20
5.656854249492369
 30
0
 11
142.9999999999998
 21
5.999999999999972
 31
0
  0
LINE
  8
1
 62
3
 10
163.4999999999998
 20
-9.000000000000028
 30
0
 11
158.9999999999998
 21
-9.000000000000028
 31
0
  0
LINE
  8
1
 62
3
 10
163.4999999999998
 20
-9.000000000000028
 30
0
 11
163.4999999999998
 21
-12.79492086728175
 31
0
  0
LINE
  8
1
 62
3
 10
136.4999999999998
 20
-9.000000000000028
 30
0
 11
136.4999999999998
 21
-12.7949208672816
 31
0
  0
LINE
  8
1
 62
3
 10
160.9999999999998
 20
-6.000000000000028
 30
0
 11
160.9999999999998
 21
5.999999999999972
 31
0
  0
LINE
  8
1
 62
3
 10
157.9999999999998
 20
-7
 30
0
 11
159.9999999999998
 21
-7
 31
0
  0
LINE
  8
1
 62
3
 10
142.9999999999998
 20
-6.000000000000028
 30
0
 11
142.9999999999998
 21
-5.656854249492454
 31
0
  0
LINE
  8
1
 62
3
 10
138.9999999999998
 20
-6.000000000000028
 30
0
 11
138.9999999999998
 21
-9.000000000000028
 31
0
  0
LINE
  8
1
 62
3
 10
139.9999999999998
 20
-7.000000000000028
 30
0
 11
141.9999999999998
 21
-7.000000000000028
 31
0
  0
LINE
  8
1
 62
3
 10
142.9999999999998
 20
10.99999999999997
 30
0
 11
142.9999999999998
 21
11.99999999999997
 31
0
  0
LINE
  8
1
 62
3
 10
138.9999999999998
 20
5.999999999999972
 30
0
 11
138.9999999999998
 21
-6.000000000000028
 31
0
  0
LINE
  8
1
 62
3
 10
141.9999999999998
 20
6.999999999999972
 30
0
 11
139.9999999999998
 21
6.999999999999972
 31
0
  0
LINE
  8
1
 62
3
 10
157.9999999999998
 20
6.999999999999972
 30
0
 11
159.9999999999998
 21
7
 31
0
  0
LINE
  8
1
 62
3
 10
160.9999999999998
 20
5.999999999999972
 30
0
 11
160.9999999999998
 21
9
 31
0
  0
LINE
  8
1
 62
3
 10
156.9999999999998
 20
6
 30
0
 11
156.9999999999998
 21
5.656854249492369
 31
0
  0
LINE
  8
1
 62
3
 10
160.9999999999998
 20
-9.000000000000028
 30
0
 11
160.9999999999998
 21
-6.000000000000028
 31
0
  0
LINE
  8
1
 62
3
 10
163.4999999999998
 20
8.999999999999972
 30
0
 11
158.9999999999998
 21
8.999999999999972
 31
0
  0
LINE
  8
1
 62
3
 10
142.9999999999998
 20
-15.05191017778205
 30
0
 11
142.9999999999998
 21
-11.00000000000003
 31
0
  0
LINE
  8
1
 62
3
 10
138.9999999999998
 20
8.999999999999972
 30
0
 11
138.9999999999998
 21
5.999999999999972
 31
0
  0
LINE
  8
1
 62
3
 10
140.9999999999998
 20
-9.000000000000028
 30
0
 11
136.4999999999998
 21
-9.000000000000028
 31
0
  0
LINE
  8
1
 62
3
 10
136.4999999999998
 20
12.79492086728166
 30
0
 11
136.4999999999998
 21
8.999999999999972
 31
0
  0
LINE
  8
1
 62
3
 10
163.4999999999998
 20
12.79492086728146
 30
0
 11
163.4999999999998
 21
8.999999999999972
 31
0
  0
LINE
  8
1
 62
3
 10
136.4999999999998
 20
8.999999999999972
 30
0
 11
140.9999999999998
 21
8.999999999999972
 31
0
  0
LINE
  8
1
 62
1
 10
149.9999999999998
 20
21.60000000000014
 30
0
 11
149.9999999999998
 21
-21.60000000000014
 31
0
  0
LINE
  8
1
 62
3
 10
144.9999999999998
 20
13.99999999999997
 30
0
 11
144.9999999999998
 21
14.77700916965259
 31
0
  0
LINE
  8
1
 62
3
 10
154.9999999999998
 20
14.77700916965259
 30
0
 11
154.9999999999998
 21
17.91535654124675
 31
0
  0
LINE
  8
1
 62
3
 10
154.9999999999998
 20
-14.00000000000003
 30
0
 11
154.9999999999998
 21
-17.91535654124695
 31
0
  0
LINE
  8
1
 62
3
 10
144.9999999999998
 20
-14.77700916965273
 30
0
 11
144.9999999999998
 21
-17.91535654124695
 31
0
  0
LINE
  8
1
 62
3
 10
156.9999999999998
 20
-12.00000000000003
 30
0
 11
156.9999999999998
 21
-11.00000000000003
 31
0
  0
LINE
  8
1
 62
3
 10
144.9999999999998
 20
14.77700916965259
 30
0
 11
144.9999999999998
 21
17.91535654124675
 31
0
  0
LINE
  8
1
 62
1
 10
161.1073039079348
 20
13.23716933631746
 30
0
 11
158.1729334154198
 21
9.740122759859872
 31
0
  0
LINE
  8
1
 62
1
 10
158.1729334154198
 20
-9.740122759859929
 30
0
 11
161.1073039079348
 21
-13.23716933631755
 31
0
  0
LINE
  8
1
 62
1
 10
141.8270665845797
 20
9.740122759859872
 30
0
 11
138.8926960920647
 21
13.23716933631746
 31
0
  0
LINE
  8
1
 62
1
 10
138.8926960920647
 20
-13.23716933631755
 30
0
 11
141.8270665845797
 21
-9.740122759859929
 31
0
  0
LINE
  8
1
 62
3
 10
159.4999999999998
 20
-3.571474596215637
 30
0
 11
159.4999999999998
 21
3.57147459621558
 31
0
  0
LINE
  8
1
 62
3
 10
158.9999999999998
 20
3.437499999999972
 30
0
 11
158.9999999999998
 21
-3.437500000000028
 31
0
  0
LINE
  8
1
 62
3
 10
158.9999999999998
 20
-4.437500000000028
 30
0
 11
158.9999999999998
 21
-4.500000000000028
 31
0
  0
LINE
  8
1
 62
3
 10
158.9999999999998
 20
4.5
 30
0
 11
158.9999999999998
 21
4.437499999999972
 31
0
  0
LINE
  8
1
 62
3
 10
159.5499999999998
 20
4.5
 30
0
 11
158.9999999999998
 21
4.5
 31
0
  0
LINE
  8
1
 62
3
 10
159.5499999999998
 20
-4.500000000000028
 30
0
 11
159.5499999999998
 21
4.5
 31
0
  0
LINE
  8
1
 62
3
 10
158.9999999999998
 20
-4.500000000000028
 30
0
 11
159.5499999999998
 21
-4.500000000000028
 31
0
  0
LINE
  8
1
 62
3
 10
159.4999999999998
 20
2.749999999999972
 30
0
 11
158.9999999999998
 21
2.749999999999972
 31
0
  0
LINE
  8
1
 62
3
 10
159.4999999999998
 20
-2.750000000000028
 30
0
 11
158.9999999999998
 21
-2.750000000000028
 31
0
  0
LINE
  8
1
 62
3
 10
159.4999999999998
 20
-3.571474596215637
 30
0
 11
158.9017627018919
 21
-4.607651991521038
 31
0
  0
LINE
  8
1
 62
3
 10
158.9017627018919
 20
-4.607651991521038
 30
0
 11
158.4687499999998
 21
-4.357651991521038
 31
0
  0
LINE
  8
1
 62
3
 10
158.4687499999998
 20
-4.357651991521038
 30
0
 11
158.9999999999998
 21
-3.437500000000028
 31
0
  0
LINE
  8
1
 62
3
 10
158.9017627018919
 20
4.607651991520982
 30
0
 11
159.4999999999998
 21
3.57147459621558
 31
0
  0
LINE
  8
1
 62
3
 10
158.4687499999998
 20
4.357651991520982
 30
0
 11
158.9017627018919
 21
4.607651991520982
 31
0
  0
LINE
  8
1
 62
3
 10
158.9999999999998
 20
3.437499999999972
 30
0
 11
158.4687499999998
 21
4.357651991520982
 31
0
  0
LINE
  8
1
 62
3
 10
158.9999999999998
 20
-2.375000000000028
 30
0
 11
159.4999999999998
 21
-2.375000000000028
 31
0
  0
LINE
  8
1
 62
3
 10
158.9999999999998
 20
2.374999999999972
 30
0
 11
159.4999999999998
 21
2.374999999999972
 31
0
  0
LINE
  8
1
 62
1
 10
159.2749999999995
 20
-5.633793573786051
 30
0
 11
159.2749999999995
 21
5.366206426213978
 31
0
  0
LINE
  8
1
 62
1
 10
140.7249999999997
 20
5.366206426213978
 30
0
 11
140.7249999999997
 21
-5.633793573786051
 31
0
  0
LINE
  8
1
 62
3
 10
140.4999999999996
 20
3.57147459621558
 30
0
 11
140.4999999999996
 21
-3.571474596215637
 31
0
  0
LINE
  8
1
 62
3
 10
140.9999999999996
 20
-3.437500000000028
 30
0
 11
140.9999999999996
 21
3.437499999999972
 31
0
  0
LINE
  8
1
 62
3
 10
140.9999999999998
 20
-4.500000000000028
 30
0
 11
140.9999999999998
 21
-4.437500000000028
 31
0
  0
LINE
  8
1
 62
3
 10
140.9999999999998
 20
4.437499999999972
 30
0
 11
140.9999999999998
 21
4.499999999999972
 31
0
  0
LINE
  8
1
 62
3
 10
140.9999999999998
 20
4.499999999999972
 30
0
 11
140.4499999999997
 21
4.5
 31
0
  0
LINE
  8
1
 62
3
 10
140.4499999999997
 20
4.5
 30
0
 11
140.4499999999997
 21
-4.500000000000028
 31
0
  0
LINE
  8
1
 62
3
 10
140.4499999999997
 20
-4.500000000000028
 30
0
 11
140.9999999999998
 21
-4.500000000000028
 31
0
  0
LINE
  8
1
 62
3
 10
140.9999999999996
 20
2.749999999999972
 30
0
 11
140.4999999999996
 21
2.749999999999972
 31
0
  0
LINE
  8
1
 62
3
 10
140.9999999999996
 20
-2.750000000000028
 30
0
 11
140.4999999999996
 21
-2.750000000000028
 31
0
  0
LINE
  8
1
 62
3
 10
141.0982372981076
 20
-4.607651991521038
 30
0
 11
140.4999999999996
 21
-3.571474596215637
 31
0
  0
LINE
  8
1
 62
3
 10
141.5312499999996
 20
-4.357651991521038
 30
0
 11
141.0982372981076
 21
-4.607651991521038
 31
0
  0
LINE
  8
1
 62
3
 10
140.9999999999996
 20
-3.437500000000028
 30
0
 11
141.5312499999996
 21
-4.357651991521038
 31
0
  0
LINE
  8
1
 62
3
 10
140.4999999999996
 20
3.57147459621558
 30
0
 11
141.0982372981076
 21
4.607651991520982
 31
0
  0
LINE
  8
1
 62
3
 10
141.0982372981076
 20
4.607651991520982
 30
0
 11
141.5312499999996
 21
4.357651991520982
 31
0
  0
LINE
  8
1
 62
3
 10
141.5312499999996
 20
4.357651991520982
 30
0
 11
140.9999999999996
 21
3.437499999999972
 31
0
  0
LINE
  8
1
 62
3
 10
140.4999999999996
 20
-2.375000000000028
 30
0
 11
140.9999999999996
 21
-2.375000000000028
 31
0
  0
LINE
  8
1
 62
3
 10
140.4999999999996
 20
2.374999999999972
 30
0
 11
140.9999999999996
 21
2.374999999999972
 31
0
  0
LINE
  8
1
 62
1
 10
128.3999999999997
 20
0
 30
0
 11
171.5999999999999
 21
0
 31
0
  0
LINE
  8
1
 62
3
 10
135.5999999999997
 20
2.167172445577307
 30
0
 11
135.5999999999997
 21
9.035485598461094
 31
0
  0
LINE
  8
1
 62
3
 10
135.5999999999997
 20
-9.035485598461605
 30
0
 11
135.5999999999997
 21
-2.16717244557799
 31
0
  0
LINE
  8
1
 62
3
 10
139.9999999999998
 20
-7.000000000000028
 30
0
 11
139.9999999999995
 21
-9
 31
0
  0
LINE
  8
1
 62
3
 10
139.9999999999995
 20
9
 30
0
 11
139.9999999999998
 21
6.999999999999972
 31
0
  0
LINE
  8
1
 62
3
 10
146.4999999999998
 20
15.2023024571937
 30
0
 11
146.4999999999998
 21
8.291561975888499
 31
0
  0
LINE
  8
1
 62
3
 10
147.4999999999998
 20
8.645808232895263
 30
0
 11
147.4999999999998
 21
15.39837653780415
 31
0
  0
LINE
  8
1
 62
3
 10
153.4999999999998
 20
8.291561975888499
 30
0
 11
153.4999999999998
 21
15.2023024571937
 31
0
  0
LINE
  8
1
 62
3
 10
152.4999999999998
 20
15.39837653780415
 30
0
 11
152.4999999999998
 21
8.645808232895263
 31
0
  0
LINE
  8
1
 62
3
 10
146.4999999999998
 20
-8.291561975888499
 30
0
 11
146.4999999999998
 21
-15.20230245719372
 31
0
  0
LINE
  8
1
 62
3
 10
147.4999999999998
 20
-15.39837653780424
 30
0
 11
147.4999999999998
 21
-8.64580823289532
 31
0
  0
LINE
  8
1
 62
3
 10
152.4999999999998
 20
-8.64580823289532
 30
0
 11
152.4999999999998
 21
-15.39837653780424
 31
0
  0
LINE
  8
1
 62
3
 10
153.4999999999998
 20
-15.20230245719372
 30
0
 11
153.4999999999998
 21
-8.291561975888499
 31
0
  0
LINE
  8
1
 62
3
 10
159.9999999999998
 20
7
 30
0
 11
160
 21
9
 31
0
  0
LINE
  8
1
 62
3
 10
160
 20
-9
 30
0
 11
159.9999999999998
 21
-7
 31
0
  0
LINE
  8
1
 62
3
 10
164.3999999999998
 20
-2.16717244557799
 30
0
 11
164.3999999999998
 21
-9.035485598461605
 31
0
  0
LINE
  8
1
 62
3
 10
164.4
 20
9.035485598461094
 30
0
 11
164.3999999999999
 21
2.167172445577307
 31
0
  0
ARC
  8
1
 62
2
 10
-147.8000000000002
 20
15
 30
0
 40
3.500000000000002
 50
121.002719133874
 51
58.99728086612596
  0
ARC
  8
1
 62
3
 10
53.38571428569697
 20
-8.881784197001252e-016
 30
0
 40
4.814285714300421
 50
328.7155070856889
 51
31.28449291431111
  0
ARC
  8
1
 62
3
 10
3.608953772457717
 20
32.77394218661743
 30
0
 40
8.29291528359559
 50
337.122721718846
 51
1.216475414307201
  0
ARC
  8
1
 62
3
 10
9.716362034281936
 20
30.72161391165344
 30
0
 40
1.929593336156871
 50
273.4835667248677
 51
322.6139950970405
  0
ARC
  8
1
 62
3
 10
2.651041118812209
 20
33.54279937935235
 30
0
 40
9.248961684147941
 50
0.04460665194122286
 51
21.61619621490607
  0
ARC
  8
1
 62
3
 10
9.838437416048642
 20
36.05569232658854
 30
0
 40
1.670632217155045
 50
32.36499987074517
 51
90.16561274461856
  0
ARC
  8
1
 62
3
 10
12.58929794868141
 20
33.25
 30
0
 40
0.7517523941143566
 50
156.4800993873254
 51
203.5199006126701
  0
ARC
  8
1
 62
3
 10
3.608953772457717
 20
-33.72605781338245
 30
0
 40
8.292915283595637
 50
337.1227217188453
 51
1.216475414306268
  0
ARC
  8
1
 62
3
 10
9.716362034281936
 20
-35.77838608834657
 30
0
 40
1.929593336156754
 50
273.483566724868
 51
322.6139950970407
  0
ARC
  8
1
 62
3
 10
2.651041118812209
 20
-32.9572006206476
 30
0
 40
9.248961684147941
 50
0.04460665194091474
 51
21.6161962149057
  0
ARC
  8
1
 62
3
 10
9.838437416048642
 20
-30.4443076734114
 30
0
 40
1.670632217155007
 50
32.36499987074311
 51
90.16561274461856
  0
ARC
  8
1
 62
3
 10
12.58929794868141
 20
-33.25
 30
0
 40
0.7517523941143566
 50
156.4800993873254
 51
203.5199006126712
  0
ARC
  8
1
 62
3
 10
-26.85000000000019
 20
-29.78499999999997
 30
0
 40
2.350000000000007
 50
150.5614799140759
 51
209.4385200859253
  0
ARC
  8
1
 62
3
 10
-26.85000000000019
 20
-36.71500000000009
 30
0
 40
2.350000000000063
 50
150.5614799140735
 51
209.4385200859217
  0
ARC
  8
1
 62
3
 10
-20.25513538572135
 20
-33.25
 30
0
 40
8.944864614278856
 50
165.0338261958174
 51
194.9661738041826
  0
ARC
  8
1
 62
3
 10
-26.85000000000019
 20
-29.78499999999997
 30
0
 40
2.350000000000041
 50
330.5614799140748
 51
29.43852008592402
  0
ARC
  8
1
 62
3
 10
-26.85000000000019
 20
-36.71500000000009
 30
0
 40
2.349999999999958
 50
330.5614799140784
 51
29.43852008592644
  0
ARC
  8
1
 62
3
 10
-33.44486461427885
 20
-33.25
 30
0
 40
8.944864614278689
 50
345.0338261958171
 51
14.96617380418284
  0
ARC
  8
1
 62
3
 10
-26.85000000000019
 20
36.71500000000003
 30
0
 40
2.35000000000001
 50
150.5614799140757
 51
209.4385200859253
  0
ARC
  8
1
 62
3
 10
-26.85000000000019
 20
29.78499999999991
 30
0
 40
2.350000000000065
 50
150.5614799140734
 51
209.4385200859218
  0
ARC
  8
1
 62
3
 10
-20.25513538572135
 20
33.25
 30
0
 40
8.944864614278856
 50
165.0338261958174
 51
194.9661738041826
  0
ARC
  8
1
 62
3
 10
-26.85000000000019
 20
36.71500000000003
 30
0
 40
2.350000000000041
 50
330.5614799140748
 51
29.43852008592418
  0
ARC
  8
1
 62
3
 10
-26.85000000000019
 20
29.78499999999991
 30
0
 40
2.349999999999959
 50
330.5614799140784
 51
29.43852008592651
  0
ARC
  8
1
 62
3
 10
-33.44486461427885
 20
33.25
 30
0
 40
8.944864614278687
 50
345.0338261958172
 51
14.96617380418287
  0
ARC
  8
1
 62
3
 10
-147.8000000000002
 20
15
 30
0
 40
4
 50
0
 51
48.59037789072904
  0
ARC
  8
1
 62
3
 10
-147.8000000000002
 20
15
 30
0
 40
4.000000000000006
 50
131.409622109271
 51
0
  0
ARC
  8
1
 62
3
 10
-147.8000000000002
 20
15
 30
0
 40
4.000000000000006
 50
48.59037789072904
 51
131.409622109271
  0
ARC
  8
1
 62
3
 10
-181.0500000000002
 20
-33.25
 30
0
 40
6.75
 50
180
 51
270
  0
ARC
  8
1
 62
3
 10
-114.5500000000002
 20
-33.25
 30
0
 40
6.75
 50
0
 51
270
  0
ARC
  8
1
 62
3
 10
-114.5500000000002
 20
33.25
 30
0
 40
6.75
 50
0
 51
90
  0
ARC
  8
1
 62
3
 10
-181.0500000000002
 20
33.25
 30
0
 40
6.75
 50
180
 51
90
  0
ARC
  8
1
 62
3
 10
-114.5500000000002
 20
-33.25
 30
0
 40
6.75
 50
270
 51
0
  0
ARC
  8
1
 62
3
 10
-181.0500000000002
 20
33.25
 30
0
 40
6.75
 50
90
 51
180
  0
ARC
  8
1
 62
3
 10
-181.0500000000002
 20
-33.25
 30
0
 40
6.75
 50
270
 51
180
  0
ARC
  8
1
 62
3
 10
-114.5500000000002
 20
33.25
 30
0
 40
6.75
 50
90
 51
0
  0
ARC
  8
1
 62
3
 10
-44.50000000000016
 20
23
 30
0
 40
5
 50
270
 51
306.8698976458441
  0
ARC
  8
1
 62
3
 10
149.9999999999998
 20
-8.881784197001252e-016
 30
0
 40
15
 50
283.4933988215517
 51
289.4712206344908
  0
ARC
  8
1
 62
3
 10
149.9999999999998
 20
-8.881784197001252e-016
 30
0
 40
16.99999999999977
 50
346.8368671305224
 51
13.16313286947487
  0
ARC
  8
1
 62
3
 10
149.9999999999998
 20
-8.881784197001252e-016
 30
0
 40
18.58741151126299
 50
336.1486304767327
 51
23.85136952326478
  0
ARC
  8
1
 62
3
 10
149.9999999999998
 20
-8.881784197001252e-016
 30
0
 40
16.99999999999964
 50
166.836867130526
 51
193.1631328694759
  0
ARC
  8
1
 62
3
 10
149.9999999999998
 20
-8.881784197001252e-016
 30
0
 40
16.99999999999996
 50
322.5719944569577
 51
333.2948684805347
  0
ARC
  8
1
 62
3
 10
149.9999999999998
 20
-8.881784197001252e-016
 30
0
 40
17.00000000000004
 50
142.5719944569573
 51
153.2948684805375
  0
ARC
  8
1
 62
3
 10
149.9999999999998
 20
-8.881784197001252e-016
 30
0
 40
18.58741151126263
 50
156.1486304767352
 51
203.8513695232674
  0
ARC
  8
1
 62
3
 10
149.9999999999998
 20
-8.881784197001252e-016
 30
0
 40
18.59999999999923
 50
24.77513543450833
 51
155.2248645654919
  0
ARC
  8
1
 62
3
 10
149.9999999999998
 20
-8.881784197001252e-016
 30
0
 40
16.99999999999939
 50
142.5719944569601
 51
153.2948684805375
  0
ARC
  8
1
 62
3
 10
149.9999999999998
 20
-8.881784197001252e-016
 30
0
 40
9.000000000000046
 50
218.9424412689818
 51
321.0575587310183
  0
ARC
  8
1
 62
3
 10
149.9999999999998
 20
-8.881784197001252e-016
 30
0
 40
8.999999999999993
 50
38.94244126898133
 51
141.0575587310187
  0
ARC
  8
1
 62
3
 10
149.9999999999998
 20
-8.881784197001252e-016
 30
0
 40
17.00000000000023
 50
26.70513151946251
 51
37.42800554304212
  0
ARC
  8
1
 62
3
 10
149.9999999999998
 20
-8.881784197001252e-016
 30
0
 40
18.59999999999981
 50
204.7751354345108
 51
335.224864565489
  0
ARC
  8
1
 62
3
 10
149.9999999999998
 20
-8.881784197001252e-016
 30
0
 40
17.00000000000066
 50
206.7051315194654
 51
217.4280055430432
  0
ARC
  8
1
 62
3
 10
149.9999999999998
 20
-8.881784197001252e-016
 30
0
 40
15.00000000000002
 50
103.4933988215517
 51
109.4712206344907
  0
ARC
  8
1
 62
3
 10
142.9999999999998
 20
13.99999999999997
 30
0
 40
2
 50
270
 51
0
  0
ARC
  8
1
 62
3
 10
149.9999999999998
 20
-8.881784197001252e-016
 30
0
 40
16.59999999999995
 50
65.05887524107143
 51
72.47001826692684
  0
ARC
  8
1
 62
3
 10
156.9999999999998
 20
-14.00000000000003
 30
0
 40
2
 50
90
 51
180
  0
ARC
  8
1
 62
3
 10
149.9999999999998
 20
-8.881784197001252e-016
 30
0
 40
16.60000000000057
 50
245.0588752410725
 51
252.470018266927
  0
ARC
  8
1
 62
3
 10
149.9999999999998
 20
-8.881784197001252e-016
 30
0
 40
15.5999999999999
 50
71.30605907667685
 51
108.6939409233231
  0
ARC
  8
1
 62
3
 10
149.9999999999998
 20
-8.881784197001252e-016
 30
0
 40
15.60000000000003
 50
251.306059076677
 51
288.693940923323
  0
ARC
  8
1
 62
1
 10
149.9999999999998
 20
-8.881784197001252e-016
 30
0
 40
14.99999999999959
 50
40.17099333070863
 51
59.97163327045762
  0
ARC
  8
1
 62
1
 10
149.9999999999998
 20
-8.881784197001252e-016
 30
0
 40
14.99999999999975
 50
300.0283667295423
 51
319.8290066692911
  0
ARC
  8
1
 62
1
 10
149.9999999999998
 20
-8.881784197001252e-016
 30
0
 40
14.99999999999977
 50
120.0283667295428
 51
139.8290066692922
  0
ARC
  8
1
 62
1
 10
149.9999999999998
 20
-8.881784197001252e-016
 30
0
 40
14.99999999999989
 50
220.1709933307081
 51
239.9716332704574
  0
ARC
  8
1
 62
3
 10
149.9999999999998
 20
-8.881784197001252e-016
 30
0
 40
15.00000000000001
 50
80.40593177313956
 51
99.59406822686044
  0
ARC
  8
1
 62
3
 10
149.9999999999998
 20
-8.881784197001252e-016
 30
0
 40
14.99999999999997
 50
62.18186071534601
 51
76.50660117844834
  0
ARC
  8
1
 62
3
 10
149.9999999999998
 20
-8.881784197001252e-016
 30
0
 40
15.00000000000012
 50
242.1818607153463
 51
256.5066011784483
  0
ARC
  8
1
 62
3
 10
149.9999999999998
 20
-8.881784197001252e-016
 30
0
 40
14.99999999999999
 50
260.4059317731395
 51
279.5940682268604
  0
CIRCLE
  8
1
 62
3
 10
56.61056325073543
 20
13.44634928422205
 30
0
 40
2.5
  0
CIRCLE
  8
1
 62
3
 10
71.89999999999999
 20
-8.881784197001252e-016
 30
0
 40
0.650000000000091
  0
CIRCLE
  8
1
 62
3
 10
-147.8000000000002
 20
-32
 30
0
 40
4
  0
CIRCLE
  8
1
 62
3
 10
-120.3000000000002
 20
16
 30
0
 40
4
  0
CIRCLE
  8
1
 62
3
 10
-175.3000000000002
 20
16
 30
0
 40
4
  0
CIRCLE
  8
1
 62
3
 10
-147.8000000000002
 20
-32
 30
0
 40
3.5
  0
CIRCLE
  8
1
 62
3
 10
-120.3000000000002
 20
16
 30
0
 40
3.5
  0
CIRCLE
  8
1
 62
3
 10
-175.3000000000002
 20
16
 30
0
 40
3.5
  0
CIRCLE
  8
1
 62
3
 10
-147.8000000000002
 20
15
 30
0
 40
9.75
  0
CIRCLE
  8
1
 62
2
 10
-181.0500000000002
 20
33.25
 30
0
 40
2
  0
CIRCLE
  8
1
 62
3
 10
-181.0500000000002
 20
33.25
 30
0
 40
2.5
  0
CIRCLE
  8
1
 62
2
 10
-114.5500000000002
 20
33.25
 30
0
 40
2
  0
CIRCLE
  8
1
 62
3
 10
-114.5500000000002
 20
33.25
 30
0
 40
2.5
  0
CIRCLE
  8
1
 62
2
 10
-114.5500000000002
 20
-33.25
 30
0
 40
2
  0
CIRCLE
  8
1
 62
3
 10
-114.5500000000002
 20
-33.25
 30
0
 40
2.5
  0
CIRCLE
  8
1
 62
2
 10
-181.0500000000002
 20
-33.25
 30
0
 40
2.000000000000057
  0
CIRCLE
  8
1
 62
3
 10
-181.0500000000002
 20
-33.25
 30
0
 40
2.500000000000057
  0
CIRCLE
  8
1
 62
3
 10
-181.0500000000002
 20
33.25
 30
0
 40
4
  0
CIRCLE
  8
1
 62
3
 10
-114.5500000000002
 20
33.25
 30
0
 40
4
  0
CIRCLE
  8
1
 62
3
 10
-181.0500000000002
 20
-33.25
 30
0
 40
4.000000000000057
  0
CIRCLE
  8
1
 62
3
 10
-114.5500000000002
 20
-33.25
 30
0
 40
4
  0
CIRCLE
  8
1
 62
3
 10
-147.8000000000002
 20
15
 30
0
 40
17
  0
CIRCLE
  8
1
 62
3
 10
149.9999999999998
 20
-8.881784197001252e-016
 30
0
 40
3.75
  0
CIRCLE
  8
1
 62
3
 10
149.9999999999998
 20
-8.881784197001252e-016
 30
0
 40
8
  0
CIRCLE
  8
1
 62
3
 10
159.6418141452978
 20
11.49066664678458
 30
0
 40
1.5
  0
CIRCLE
  8
1
 62
3
 10
140.3581858547019
 20
11.49066664678458
 30
0
 40
1.5
  0
CIRCLE
  8
1
 62
3
 10
159.6418141452978
 20
-11.49066664678475
 30
0
 40
1.25
  0
CIRCLE
  8
1
 62
3
 10
159.6418141452978
 20
-11.49066664678475
 30
0
 40
1.5
  0
CIRCLE
  8
1
 62
3
 10
140.3581858547019
 20
-11.49066664678475
 30
0
 40
1.25
  0
CIRCLE
  8
1
 62
3
 10
140.3581858547019
 20
-11.49066664678475
 30
0
 40
1.5
  0
CIRCLE
  8
1
 62
3
 10
159.6418141452978
 20
11.49066664678458
 30
0
 40
1.25
  0
CIRCLE
  8
1
 62
3
 10
140.3581858547019
 20
11.49066664678458
 30
0
 40
1.25
  0
CIRCLE
  8
1
 62
3
 10
142.9999999999998
 20
13.99999999999997
 30
0
 40
0.8499999999999091
  0
CIRCLE
  8
1
 62
3
 10
156.9999999999998
 20
-14.00000000000003
 30
0
 40
0.8500000000001933
  0
CIRCLE
  8
1
 62
3
 10
149.9999999999998
 20
-8.881784197001252e-016
 30
0
 40
2
  0
ARC
  8
1
 62
3
 10
11.99999999999984
 20
-16.60000000000002
 30
0
 40
2.000000000000002
 50
180
 51
270
  0
ARC
  8
1
 62
3
 10
11.99999999999984
 20
16.59999999999999
 30
0
 40
2
 50
90
 51
180
  0
ARC
  8
1
 62
3
 10
67.69999999999993
 20
7
 30
0
 40
1
 50
0
 51
90
  0
ARC
  8
1
 62
3
 10
67.69999999999993
 20
-7.000000000000001
 30
0
 40
0.9999999999999991
 50
270
 51
0
  0
ARC
  8
1
 62
3
 10
9.499999999999837
 20
-20.25
 30
0
 40
0.5
 50
270
 51
0
  0
ARC
  8
1
 62
3
 10
8.999999999999837
 20
-21.25
 30
0
 40
0.5
 50
90
 51
180
  0
ARC
  8
1
 62
3
 10
9.499999999999837
 20
20.25
 30
0
 40
0.5
 50
0
 51
90
  0
ARC
  8
1
 62
3
 10
8.999999999999837
 20
21.25
 30
0
 40
0.5
 50
180
 51
270
  0
ARC
  8
1
 62
3
 10
8.599999999999803
 20
37.67228404374225
 30
0
 40
0.1000000000000023
 50
84.99999999995455
 51
180
  0
ARC
  8
1
 62
3
 10
8.599999999999803
 20
28.84961946980911
 30
0
 40
0.09999999999996589
 50
180
 51
275.0000000000484
  0
ARC
  8
1
 62
3
 10
8.599999999999803
 20
-28.82771595625769
 30
0
 40
0.1000000000000624
 50
84.99999999995757
 51
180
  0
ARC
  8
1
 62
3
 10
8.599999999999803
 20
-37.65038053019077
 30
0
 40
0.09999999999996589
 50
180
 51
275.0000000000426
  0
ARC
  8
1
 62
3
 10
-23.00000000000016
 20
39.5
 30
0
 40
0.5
 50
90
 51
180
  0
ARC
  8
1
 62
3
 10
-23.00000000000016
 20
27
 30
0
 40
0.5
 50
180
 51
270
  0
ARC
  8
1
 62
3
 10
-23.00000000000016
 20
-27
 30
0
 40
0.5
 50
90
 51
180
  0
ARC
  8
1
 62
3
 10
-23.00000000000016
 20
-39.5
 30
0
 40
0.5
 50
180
 51
270
  0
ARC
  8
1
 62
3
 10
-176.9000000000002
 20
17.59999999999991
 30
0
 40
1.199999999999879
 50
270
 51
0
  0
ARC
  8
1
 62
3
 10
-173.7000000000002
 20
17.59999999999991
 30
0
 40
1.200000000000017
 50
180
 51
270
  0
ARC
  8
1
 62
3
 10
-176.9000000000002
 20
14.40000000000003
 30
0
 40
1.200000000000017
 50
0
 51
90
  0
ARC
  8
1
 62
3
 10
-173.7000000000002
 20
14.40000000000003
 30
0
 40
1.199999999999989
 50
90
 51
180
  0
ARC
  8
1
 62
3
 10
-175.6000000000002
 20
18.20000000000005
 30
0
 40
0.09999999999996234
 50
90
 51
180
  0
ARC
  8
1
 62
3
 10
-175.0000000000001
 20
18.20000000000005
 30
0
 40
0.09999999999990905
 50
0
 51
90
  0
ARC
  8
1
 62
3
 10
-177.5000000000001
 20
16.2999999999999
 30
0
 40
0.1000000000001293
 50
90
 51
180
  0
ARC
  8
1
 62
3
 10
-177.5000000000001
 20
15.70000000000005
 30
0
 40
0.1000000000000796
 50
180
 51
270
  0
ARC
  8
1
 62
3
 10
-175.6000000000002
 20
13.80000000000001
 30
0
 40
0.09999999999999432
 50
180
 51
270
  0
ARC
  8
1
 62
3
 10
-175.0000000000001
 20
13.80000000000001
 30
0
 40
0.09999999999995879
 50
270
 51
0
  0
ARC
  8
1
 62
3
 10
-173.1000000000002
 20
15.70000000000005
 30
0
 40
0.1000000000000316
 50
270
 51
0
  0
ARC
  8
1
 62
3
 10
-173.1000000000002
 20
16.2999999999999
 30
0
 40
0.1000000000000796
 50
0
 51
90
  0
ARC
  8
1
 62
3
 10
-121.9000000000002
 20
17.59999999999991
 30
0
 40
1.199999999999879
 50
270
 51
0
  0
ARC
  8
1
 62
3
 10
-118.7000000000002
 20
17.59999999999991
 30
0
 40
1.200000000000003
 50
180
 51
270
  0
ARC
  8
1
 62
3
 10
-121.9000000000002
 20
14.40000000000003
 30
0
 40
1.200000000000003
 50
0
 51
90
  0
ARC
  8
1
 62
3
 10
-118.7000000000002
 20
14.40000000000003
 30
0
 40
1.199999999999989
 50
90
 51
180
  0
ARC
  8
1
 62
3
 10
-120.6000000000002
 20
18.20000000000005
 30
0
 40
0.09999999999996234
 50
90
 51
180
  0
ARC
  8
1
 62
3
 10
-120.0000000000002
 20
18.20000000000005
 30
0
 40
0.09999999999999432
 50
0
 51
90
  0
ARC
  8
1
 62
3
 10
-122.5000000000002
 20
16.2999999999999
 30
0
 40
0.1000000000001293
 50
90
 51
180
  0
ARC
  8
1
 62
3
 10
-122.5000000000002
 20
15.70000000000005
 30
0
 40
0.09999999999999432
 50
180
 51
270
  0
ARC
  8
1
 62
3
 10
-120.6000000000002
 20
13.80000000000001
 30
0
 40
0.1000000000000085
 50
180
 51
270
  0
ARC
  8
1
 62
3
 10
-120.0000000000002
 20
13.80000000000001
 30
0
 40
0.09999999999995879
 50
270
 51
0
  0
ARC
  8
1
 62
3
 10
-118.1000000000002
 20
15.70000000000005
 30
0
 40
0.1000000000000316
 50
270
 51
0
  0
ARC
  8
1
 62
3
 10
-118.1000000000002
 20
16.2999999999999
 30
0
 40
0.09999999999999432
 50
0
 51
90
  0
ARC
  8
1
 62
3
 10
-149.4000000000002
 20
-30.40000000000009
 30
0
 40
1.199999999999879
 50
270
 51
0
  0
ARC
  8
1
 62
3
 10
-146.2000000000002
 20
-30.40000000000009
 30
0
 40
1.200000000000017
 50
180
 51
270
  0
ARC
  8
1
 62
3
 10
-149.4000000000002
 20
-33.59999999999997
 30
0
 40
1.200000000000017
 50
0
 51
90
  0
ARC
  8
1
 62
3
 10
-146.2000000000002
 20
-33.59999999999997
 30
0
 40
1.199999999999996
 50
90
 51
180
  0
ARC
  8
1
 62
3
 10
-148.1000000000002
 20
-29.79999999999996
 30
0
 40
0.099999999999973
 50
90
 51
180
  0
ARC
  8
1
 62
3
 10
-147.5000000000001
 20
-29.79999999999996
 30
0
 40
0.09999999999990905
 50
0
 51
90
  0
ARC
  8
1
 62
3
 10
-150.0000000000001
 20
-31.7000000000001
 30
0
 40
0.1000000000001293
 50
90
 51
180
  0
ARC
  8
1
 62
3
 10
-150.0000000000001
 20
-32.29999999999996
 30
0
 40
0.1000000000000796
 50
180
 51
270
  0
ARC
  8
1
 62
3
 10
-148.1000000000002
 20
-34.19999999999999
 30
0
 40
0.09999999999999432
 50
180
 51
270
  0
ARC
  8
1
 62
3
 10
-147.5000000000001
 20
-34.19999999999999
 30
0
 40
0.099999999999973
 50
270
 51
0
  0
ARC
  8
1
 62
3
 10
-145.6000000000002
 20
-32.29999999999996
 30
0
 40
0.1000000000000156
 50
270
 51
0
  0
ARC
  8
1
 62
3
 10
-145.6000000000002
 20
-31.7000000000001
 30
0
 40
0.1000000000000796
 50
0
 51
90
  0
ARC
  8
1
 62
3
 10
164.1641669840197
 20
6.537306299139971
 30
0
 40
3.000000000000759
 50
344.9346282372066
 51
24.77513543450611
  0
ARC
  8
1
 62
3
 10
150.8999999999997
 20
-9.900000000000148
 30
0
 40
0.5
 50
90
 51
180
  0
ARC
  8
1
 62
3
 10
150.8999999999997
 20
-13.40000000000015
 30
0
 40
0.5
 50
179.9999999999864
 51
270
  0
ARC
  8
1
 62
3
 10
149.0999999999997
 20
-13.40000000000015
 30
0
 40
0.5000000000008811
 50
270
 51
0
  0
ARC
  8
1
 62
3
 10
149.0999999999997
 20
-9.900000000000148
 30
0
 40
0.5
 50
0
 51
90
  0
ARC
  8
1
 62
3
 10
150.8999999999997
 20
9.899999999998983
 30
0
 40
0.5
 50
180
 51
270
  0
ARC
  8
1
 62
3
 10
150.8999999999997
 20
13.39999999999895
 30
0
 40
0.5
 50
90
 51
180
  0
ARC
  8
1
 62
3
 10
149.0999999999997
 20
13.39999999999895
 30
0
 40
0.5
 50
0
 51
90
  0
ARC
  8
1
 62
3
 10
149.0999999999997
 20
9.899999999998983
 30
0
 40
0.5
 50
270
 51
0
  0
ARC
  8
1
 62
3
 10
164.1641669840197
 20
-6.537306299140937
 30
0
 40
3.000000000000057
 50
335.2248645654939
 51
15.0653717627934
  0
ARC
  8
1
 62
3
 10
168.0999999999997
 20
0
 30
0
 40
2.499999999999329
 50
164.109732977175
 51
195.8902670228507
  0
ARC
  8
1
 62
3
 10
168.0999999999997
 20
0
 30
0
 40
2.499999999999329
 50
164.109732977175
 51
195.8902670228507
  0
ARC
  8
1
 62
3
 10
162.9533015717166
 20
6.51628562849595
 30
0
 40
2.500000000000158
 50
345.3442593026068
 51
26.70513151946816
  0
ARC
  8
1
 62
3
 10
168.9999999999998
 20
0
 30
0
 40
5.000000000000034
 50
166.6758163180803
 51
193.3241836819308
  0
ARC
  8
1
 62
3
 10
162.9533015717166
 20
-6.516285628497144
 30
0
 40
2.50000000000068
 50
333.2948684805371
 51
14.65574069742092
  0
ARC
  8
1
 62
3
 10
137.0466984282828
 20
-6.516285628497116
 30
0
 40
2.500000000000467
 50
165.3442593025797
 51
206.7051315194661
  0
ARC
  8
1
 62
3
 10
130.9999999999998
 20
0
 30
0
 40
5.000000000000181
 50
346.6758163180691
 51
13.32418368192018
  0
ARC
  8
1
 62
3
 10
130.9999999999998
 20
0
 30
0
 40
5.000000000000181
 50
346.6758163180691
 51
13.32418368192018
  0
ARC
  8
1
 62
3
 10
135.8358330159798
 20
-6.537306299140909
 30
0
 40
3.000000000000827
 50
164.9346282372081
 51
204.7751354345059
  0
ARC
  8
1
 62
3
 10
131.8999999999997
 20
0
 30
0
 40
2.499999999999757
 50
344.1097329771501
 51
15.89026702282424
  0
ARC
  8
1
 62
3
 10
131.8999999999997
 20
0
 30
0
 40
2.499999999999757
 50
344.1097329771501
 51
15.89026702282424
  0
ARC
  8
1
 62
3
 10
135.8358330159798
 20
6.537306299139999
 30
0
 40
3.000000000000123
 50
155.2248645654951
 51
195.0653717627935
  0
ARC
  8
1
 62
3
 10
137.0466984282828
 20
6.516285628495979
 30
0
 40
2.500000000000604
 50
153.2948684805304
 51
194.6557406973938
  0
ARC
  8
1
 62
3
 10
159.9999999999998
 20
-6
 30
0
 40
1
 50
270
 51
0
  0
ARC
  8
1
 62
3
 10
157.9999999999998
 20
-6
 30
0
 40
1
 50
180
 51
270
  0
ARC
  8
1
 62
3
 10
141.9999999999998
 20
-6.000000000000028
 30
0
 40
1
 50
270
 51
0
  0
ARC
  8
1
 62
3
 10
139.9999999999998
 20
-6.000000000000028
 30
0
 40
1
 50
180
 51
270
  0
ARC
  8
1
 62
3
 10
158.9999999999998
 20
-11.00000000000003
 30
0
 40
2.000000000000002
 50
90
 51
180
  0
ARC
  8
1
 62
3
 10
140.9999999999998
 20
-11.00000000000003
 30
0
 40
2
 50
0
 51
90
  0
ARC
  8
1
 62
3
 10
141.9999999999998
 20
5.999999999999972
 30
0
 40
1
 50
0
 51
90
  0
ARC
  8
1
 62
3
 10
139.9999999999998
 20
5.999999999999972
 30
0
 40
1
 50
90
 51
180
  0
ARC
  8
1
 62
3
 10
159.9999999999998
 20
6
 30
0
 40
1
 50
0
 51
90
  0
ARC
  8
1
 62
3
 10
157.9999999999998
 20
6
 30
0
 40
0.9999999999999716
 50
90
 51
180
  0
ARC
  8
1
 62
3
 10
140.9999999999998
 20
10.99999999999997
 30
0
 40
1.999999999999998
 50
270
 51
0
  0
ARC
  8
1
 62
3
 10
158.9999999999998
 20
10.99999999999997
 30
0
 40
2
 50
180
 51
270
  0
TEXT
  8
1
 62
2
 10
-94.34964555853549
 20
99.59556206563254
 30
0
 40
4
  1
ＤＭＥ３７Ｋ８ＨＰＡ　＋　８ＤＧ３～８ＤＧ１５０
 41
0.9
  0
TEXT
  8
1
 62
2
 10
-94.34964555853549
 20
91.59556206563254
 30
0
 40
4
  1
ＤＭＥ３７Ｋ８ＨＰＢ　＋　８ＤＧ３～８ＤＧ１５０
 41
0.9
  0
ENDSEC
  0
EOF
