  0
SECTION
  2
HEADER
  9
$ACADVER
  1
AC1009
  9
$INSBASE
 10
0
 20
0
  9
$EXTMIN
 10
-184.6598089777859
 20
-34.40594546015418
  9
$EXTMAX
 10
173.6000000000001
 20
98.6040240094393
  9
$LIMMIN
 10
-184.6598089777859
 20
-34.40594546015418
  9
$LIMMAX
 10
173.6000000000001
 20
98.6040240094393
  9
$VIEWCTR
 10
10
 20
10
  9
$VIEWSIZE
 40
10
  9
$SNAPMODE
 70
0
  9
$SNAPUNIT
 10
1
 20
1
  9
$SNAPBASE
 10
0
 20
0
  9
$SNAPANG
 50
0
  9
$SNAPSTYLE
 70
0
  9
$SNAPISOPAIR
 70
0
  9
$GRIDMODE
 70
0
  9
$GRIDUNIT
 10
0
 20
0
  9
$ORTHOMODE
 70
0
  9
$REGENMODE
 70
1
  9
$FILLMODE
 70
1
  9
$QTEXTMODE
 70
0
  9
$DRAGMODE
 70
2
  9
$LTSCALE
 40
1
  9
$OSMODE
 70
0
  9
$ATTMODE
 70
1
  9
$TEXTSIZE
 40
3.5
  9
$TRACEWID
 40
0.5
  9
$TEXTSTYLE
  7
STANDARD
  9
$CLAYER
  8
0
  9
$CELTYPE
  6
BYLAYER
  9
$CECOLOR
 62
256
  9
$DIMSCALE
 40
1
  9
$DIMASZ
 40
0.18
  9
$DIMEXO
 40
0.0625
  9
$DIMDLI
 40
0.38
  9
$DIMRND
 40
0
  9
$DIMDLE
 40
0
  9
$DIMEXE
 40
0.18
  9
$DIMTP
 40
0
  9
$DIMTM
 40
0
  9
$DIMTXT
 40
0.18
  9
$DIMCEN
 40
0.09
  9
$DIMTSZ
 40
0
  9
$DIMTOL
 70
0
  9
$DIMLIM
 70
0
  9
$DIMTIH
 70
1
  9
$DIMTOH
 70
1
  9
$DIMSE1
 70
0
  9
$DIMSE2
 70
0
  9
$DIMTAD
 70
0
  9
$DIMZIN
 70
0
  9
$DIMBLK
  1

  9
$DIMASO
 70
1
  9
$DIMSHO
 70
1
  9
$DIMPOST
  1

  9
$DIMAPOST
  1

  9
$DIMALT
 70
0
  9
$DIMALTD
 70
2
  9
$DIMALTF
 40
25.4
  9
$DIMLFAC
 40
1
  9
$DIMTOFL
 70
0
  9
$DIMTVP
 40
0
  9
$DIMTIX
 70
0
  9
$DIMSOXD
 70
0
  9
$DIMSAH
 70
0
  9
$DIMBLK1
  1

  9
$DIMBLK2
  1

  9
$DIMSTYLE
  2
*UNNAMED
  9
$DIMCLRD
 70
0
  9
$DIMCLRE
 70
0
  9
$DIMCLRT
 70
0
  9
$DIMTFAC
 40
1
  9
$DIMGAP
 40
0.09
  9
$LUNITS
 70
2
  9
$LUPREC
 70
4
  9
$AXISMODE
 70
0
  9
$AXISUNIT
 10
0
 20
0
  9
$SKETCHINC
 40
0.1
  9
$FILLETRAD
 40
2
  9
$AUNITS
 70
0
  9
$AUPREC
 70
0
  9
$MENU
  1
ACAD
  9
$ELEVATION
 40
0
  9
$THICKNESS
 40
0
  9
$VIEWDIR
 10
0
 20
0
 30
1
  9
$LIMCHECK
 70
0
  9
$BLIPMODE
 70
1
  9
$CHAMFERA
 40
0
  9
$CHAMFERB
 40
0
  9
$FASTZOOM
 70
1
  9
$SKPOLY
 70
0
  9
$ANGBASE
 50
0
  9
$ANGDIR
 70
0
  9
$PDMODE
 70
0
  9
$PDSIZE
 40
0
  9
$PLINEWID
 40
0
  9
$COORDS
 70
2
  0
ENDSEC
  0
SECTION
  2
TABLES
  0
TABLE
  2
DIMSTYLE
 70
0
  0
ENDTAB
  0
TABLE
  2
LTYPE
 70
9
  0
LTYPE
  2
CONTINUOUS
 70
64
  3
Solid line
 72
65
 73
0
 40
0
  0
LTYPE
  2
BORDER
 70
64
  3
__ __ . __ __ .
 72
65
 73
6
 40
16.49880699239804
 49
4.713944854970869
 49
-2.356972427485435
 49
4.713944854970869
 49
-2.356972427485435
 49
0
 49
-2.356972427485435
  0
LTYPE
  2
CENTER
 70
64
  3
____ _ ____ _
 72
65
 73
4
 40
18.85577941988348
 49
11.78486213742717
 49
-2.356972427485435
 49
2.356972427485435
 49
-2.356972427485435
  0
LTYPE
  2
DASHDOT
 70
64
  3
__ . __ . __ .
 72
65
 73
4
 40
9.427889709941738
 49
4.713944854970869
 49
-2.356972427485435
 49
0
 49
-2.356972427485435
  0
LTYPE
  2
DASHED
 70
64
  3
__ __ __ __ __
 72
65
 73
2
 40
7.070917282456303
 49
4.713944854970869
 49
-2.356972427485435
  0
LTYPE
  2
DIVIDE
 70
64
  3
__ . . __ . . 
 72
65
 73
6
 40
11.78486213742717
 49
4.713944854970869
 49
-2.356972427485435
 49
0
 49
-2.356972427485435
 49
0
 49
-2.356972427485435
  0
LTYPE
  2
DOT
 70
64
  3
..............
 72
65
 73
4
 40
4.713944854970869
 49
0
 49
-2.356972427485435
 49
0
 49
-2.356972427485435
  0
LTYPE
  2
HIDDEN
 70
64
  3
_ _ _ _ _ _ _
 72
65
 73
2
 40
3.535458641228152
 49
2.356972427485435
 49
-1.178486213742717
  0
LTYPE
  2
PHANTOM
 70
64
  3
_____ _ _ _____ _ _ 
 72
65
 73
6
 40
23.56972427485435
 49
11.78486213742717
 49
-2.356972427485435
 49
2.356972427485435
 49
-2.356972427485435
 49
2.356972427485435
 49
-2.356972427485435
  0
ENDTAB
  0
TABLE
  2
LAYER
 70
4
  0
LAYER
  2
1
 70
0
 62
7
  6
CONTINUOUS
  0
LAYER
  2
CONSTRUCTION
 70
0
 62
7
  6
CONTINUOUS
  0
LAYER
  2
0
 70
0
 62
7
  6
CONTINUOUS
  0
ENDTAB
  0
TABLE
  2
STYLE
 70
4
  0
STYLE
  2
STANDARD
 70
0
 40
0
 41
1
 50
0
 71
0
 42
3.5
  3
txt
  4

  0
STYLE
  2
SIMPLEX
 70
0
 40
0
 41
1
 50
0
 71
0
 42
3.5
  3
simplex
  4

  0
STYLE
  2
COMPLEX
 70
0
 40
0
 41
1
 50
0
 71
0
 42
3.5
  3
complex
  4

  0
STYLE
  2
ITALIC
 70
0
 40
0
 41
1
 50
0
 71
0
 42
3.5
  3
italic
  4

  0
ENDTAB
  0
TABLE
  2
VIEW
 70
0
  0
ENDTAB
  0
ENDSEC
  0
SECTION
  2
BLOCKS
  0
ENDSEC
  0
SECTION
  2
ENTITIES
  0
LINE
  8
1
 62
3
 10
-30.50000000000023
 20
-20.95
 30
0
 11
-31.50000000000023
 21
-20.95
 31
0
  0
LINE
  8
1
 62
3
 10
-31.50000000000023
 20
-20.95
 30
0
 11
-31.50000000000023
 21
-28.55
 31
0
  0
LINE
  8
1
 62
3
 10
-31.50000000000023
 20
-28.55
 30
0
 11
-30.50000000000023
 21
-28.55
 31
0
  0
LINE
  8
1
 62
3
 10
-30.50000000000023
 20
-28.55
 30
0
 11
-30.50000000000023
 21
-20.95
 31
0
  0
LINE
  8
1
 62
3
 10
-30.50000000000023
 20
-24.5
 30
0
 11
-31.50000000000023
 21
-24.625
 31
0
  0
LINE
  8
1
 62
3
 10
-30.50000000000023
 20
-24.875
 30
0
 11
-31.50000000000023
 21
-25
 31
0
  0
LINE
  8
1
 62
3
 10
-34.70000000000024
 20
-21.71891108675446
 30
0
 11
-34.70000000000024
 21
-27.78108891324554
 31
0
  0
LINE
  8
1
 62
3
 10
-31.50000000000023
 20
-21.71891108675446
 30
0
 11
-31.50000000000023
 21
-27.78108891324554
 31
0
  0
LINE
  8
1
 62
3
 10
-34.22886000906854
 20
-20.70854811567263
 30
0
 11
-31.97113999093194
 21
-20.70854811567263
 31
0
  0
LINE
  8
1
 62
3
 10
-34.22886000906854
 20
-28.79145188432739
 30
0
 11
-31.97113999093194
 21
-28.79145188432739
 31
0
  0
LINE
  8
1
 62
3
 10
-34.22886000906854
 20
-22.72927405783632
 30
0
 11
-31.97113999093194
 21
-22.72927405783632
 31
0
  0
LINE
  8
1
 62
3
 10
-34.22886000906854
 20
-26.77072594216369
 30
0
 11
-31.97113999093194
 21
-26.77072594216369
 31
0
  0
LINE
  8
1
 62
3
 10
-34.70000000000024
 20
-26.75000000000001
 30
0
 11
-46.5
 21
-26.75000000000001
 31
0
  0
LINE
  8
1
 62
1
 10
-51.5
 20
-24.75
 30
0
 11
6.5
 21
-24.75
 31
0
  0
LINE
  8
1
 62
3
 10
-1.5
 20
-28.75
 30
0
 11
0.1959983987187179
 21
-28.75
 31
0
  0
LINE
  8
1
 62
3
 10
-1.5
 20
-27.03
 30
0
 11
-1.5
 21
-28.75
 31
0
  0
LINE
  8
1
 62
3
 10
0.1959983987187179
 20
-20.75
 30
0
 11
-1.5
 21
-20.75
 31
0
  0
LINE
  8
1
 62
3
 10
1.341323392049684
 20
-25.30000000000001
 30
0
 11
1.576323392049684
 21
-25.30000000000001
 31
0
  0
LINE
  8
1
 62
3
 10
1.341323392049684
 20
-24.20000000000002
 30
0
 11
1.341323392049684
 21
-25.30000000000001
 31
0
  0
LINE
  8
1
 62
3
 10
1.576323392049684
 20
-24.20000000000002
 30
0
 11
1.341323392049684
 21
-24.20000000000002
 31
0
  0
LINE
  8
1
 62
3
 10
-1.5
 20
-20.75
 30
0
 11
-1.5
 21
-22.47
 31
0
  0
LINE
  8
1
 62
3
 10
-46.5
 20
-22.75000000000001
 30
0
 11
-34.70000000000024
 21
-22.75000000000001
 31
0
  0
LINE
  8
1
 62
3
 10
-46.5
 20
-23.12888620000003
 30
0
 11
-46.5
 21
-22.75000000000001
 31
0
  0
LINE
  8
1
 62
1
 10
-46.5
 20
-23.12888620000003
 30
0
 11
-34.70000000000024
 21
-23.12888620000002
 31
0
  0
LINE
  8
1
 62
3
 10
-46.5
 20
-26.3711138
 30
0
 11
-46.5
 21
-23.12888620000003
 31
0
  0
LINE
  8
1
 62
1
 10
-46.5
 20
-26.3711138
 30
0
 11
-34.70000000000024
 21
-26.37111380000001
 31
0
  0
LINE
  8
1
 62
3
 10
-46.5
 20
-26.75000000000001
 30
0
 11
-46.5
 21
-26.3711138
 31
0
  0
LINE
  8
1
 62
3
 10
-31.97113999093194
 20
26.77072594216369
 30
0
 11
-34.22886000906854
 21
26.77072594216369
 31
0
  0
LINE
  8
1
 62
3
 10
-31.97113999093194
 20
22.72927405783632
 30
0
 11
-34.22886000906854
 21
22.72927405783632
 31
0
  0
LINE
  8
1
 62
3
 10
-31.97113999093194
 20
28.79145188432739
 30
0
 11
-34.22886000906854
 21
28.79145188432739
 31
0
  0
LINE
  8
1
 62
3
 10
-31.97113999093194
 20
20.70854811567263
 30
0
 11
-34.22886000906854
 21
20.70854811567263
 31
0
  0
LINE
  8
1
 62
3
 10
-31.50000000000023
 20
27.78108891324554
 30
0
 11
-31.50000000000023
 21
21.71891108675446
 31
0
  0
LINE
  8
1
 62
3
 10
-34.70000000000024
 20
27.78108891324554
 30
0
 11
-34.70000000000024
 21
21.71891108675446
 31
0
  0
LINE
  8
1
 62
3
 10
-31.50000000000023
 20
25
 30
0
 11
-30.50000000000023
 21
24.875
 31
0
  0
LINE
  8
1
 62
3
 10
-31.50000000000023
 20
24.625
 30
0
 11
-30.50000000000023
 21
24.5
 31
0
  0
LINE
  8
1
 62
3
 10
-30.50000000000023
 20
20.95
 30
0
 11
-30.50000000000023
 21
28.55
 31
0
  0
LINE
  8
1
 62
3
 10
-30.50000000000023
 20
28.55
 30
0
 11
-31.50000000000023
 21
28.55
 31
0
  0
LINE
  8
1
 62
3
 10
-31.50000000000023
 20
28.55
 30
0
 11
-31.50000000000023
 21
20.95
 31
0
  0
LINE
  8
1
 62
3
 10
-31.50000000000023
 20
20.95
 30
0
 11
-30.50000000000023
 21
20.95
 31
0
  0
LINE
  8
1
 62
3
 10
-46.5
 20
26.3711138
 30
0
 11
-46.5
 21
26.75000000000001
 31
0
  0
LINE
  8
1
 62
1
 10
-34.70000000000024
 20
26.37111380000001
 30
0
 11
-46.5
 21
26.3711138
 31
0
  0
LINE
  8
1
 62
3
 10
-46.5
 20
23.12888620000003
 30
0
 11
-46.5
 21
26.3711138
 31
0
  0
LINE
  8
1
 62
1
 10
-34.70000000000024
 20
23.12888620000002
 30
0
 11
-46.5
 21
23.12888620000003
 31
0
  0
LINE
  8
1
 62
3
 10
-46.5
 20
22.75000000000001
 30
0
 11
-46.5
 21
23.12888620000003
 31
0
  0
LINE
  8
1
 62
3
 10
-34.70000000000024
 20
22.75000000000001
 30
0
 11
-46.5
 21
22.75000000000001
 31
0
  0
LINE
  8
1
 62
3
 10
-1.5
 20
22.47
 30
0
 11
-1.5
 21
20.75
 31
0
  0
LINE
  8
1
 62
3
 10
1.341323392049684
 20
24.20000000000002
 30
0
 11
1.576323392049684
 21
24.20000000000002
 31
0
  0
LINE
  8
1
 62
3
 10
1.341323392049684
 20
25.30000000000001
 30
0
 11
1.341323392049684
 21
24.20000000000002
 31
0
  0
LINE
  8
1
 62
3
 10
1.576323392049684
 20
25.30000000000001
 30
0
 11
1.341323392049684
 21
25.30000000000001
 31
0
  0
LINE
  8
1
 62
3
 10
-1.5
 20
20.75
 30
0
 11
0.1959983987187179
 21
20.75
 31
0
  0
LINE
  8
1
 62
3
 10
-1.5
 20
28.75
 30
0
 11
-1.5
 21
27.03
 31
0
  0
LINE
  8
1
 62
3
 10
0.1959983987187179
 20
28.75
 30
0
 11
-1.5
 21
28.75
 31
0
  0
LINE
  8
1
 62
1
 10
6.5
 20
24.75
 30
0
 11
-51.5
 21
24.75
 31
0
  0
LINE
  8
1
 62
3
 10
-46.5
 20
26.75000000000001
 30
0
 11
-34.70000000000024
 21
26.75000000000001
 31
0
  0
LINE
  8
1
 62
3
 10
154.0999999999999
 20
-9.400000000000148
 30
0
 11
152.8999999999999
 21
-9.400000000000148
 31
0
  0
LINE
  8
1
 62
3
 10
153.5999999999999
 20
-13.90000000000103
 30
0
 11
154.1499999999998
 21
-13.90000000000015
 31
0
  0
LINE
  8
1
 62
3
 10
154.1499999999998
 20
-13.90000000000015
 30
0
 11
154.1499999999998
 21
-9.400000000000148
 31
0
  0
LINE
  8
1
 62
3
 10
152.8999999999999
 20
-13.90000000000003
 30
0
 11
154.0999999999999
 21
-13.90000000000103
 31
0
  0
LINE
  8
1
 62
3
 10
152.3999999999999
 20
-9.900000000000148
 30
0
 11
152.3999999999999
 21
-13.40000000000003
 31
0
  0
LINE
  8
1
 62
3
 10
150.3999999999999
 20
-9.400000000001029
 30
0
 11
149.8499999999999
 21
-9.400000000000148
 31
0
  0
LINE
  8
1
 62
3
 10
149.8499999999999
 20
-9.400000000000148
 30
0
 11
149.8499999999999
 21
-13.90000000000015
 31
0
  0
LINE
  8
1
 62
3
 10
149.8499999999999
 20
-13.90000000000015
 30
0
 11
150.3999999999999
 21
-13.90000000000015
 31
0
  0
LINE
  8
1
 62
3
 10
149.8999999999999
 20
-9.400000000000148
 30
0
 11
151.0999999999999
 21
-9.400000000000148
 31
0
  0
LINE
  8
1
 62
3
 10
151.5999999999999
 20
-9.900000000000148
 30
0
 11
151.5999999999999
 21
-13.40000000000015
 31
0
  0
LINE
  8
1
 62
3
 10
151.0999999999999
 20
-13.90000000000103
 30
0
 11
149.8999999999999
 21
-13.90000000000003
 31
0
  0
LINE
  8
1
 62
3
 10
154.1499999999998
 20
-9.400000000000148
 30
0
 11
153.5999999999999
 21
-9.400000000000148
 31
0
  0
LINE
  8
1
 62
3
 10
154.1499999999998
 20
-13.90000000000015
 30
0
 11
154.1499999999998
 21
-9.400000000000148
 31
0
  0
LINE
  8
1
 62
3
 10
153.5999999999999
 20
-13.90000000000103
 30
0
 11
154.1499999999998
 21
-13.90000000000015
 31
0
  0
LINE
  8
1
 62
3
 10
149.8499999999999
 20
-9.400000000000148
 30
0
 11
149.8499999999999
 21
-13.90000000000015
 31
0
  0
LINE
  8
1
 62
3
 10
150.3999999999999
 20
-9.400000000001029
 30
0
 11
149.8499999999999
 21
-9.400000000000148
 31
0
  0
LINE
  8
1
 62
3
 10
149.8499999999999
 20
-13.90000000000015
 30
0
 11
150.3999999999999
 21
-13.90000000000015
 31
0
  0
LINE
  8
1
 62
3
 10
153.5999999999999
 20
-13.90000000000103
 30
0
 11
154.1499999999998
 21
-13.90000000000015
 31
0
  0
LINE
  8
1
 62
3
 10
149.8499999999999
 20
-13.90000000000015
 30
0
 11
150.3999999999999
 21
-13.90000000000015
 31
0
  0
LINE
  8
1
 62
3
 10
152.8999999999999
 20
9.399999999998983
 30
0
 11
154.0999999999999
 21
9.399999999998983
 31
0
  0
LINE
  8
1
 62
3
 10
154.1499999999998
 20
13.89999999999895
 30
0
 11
153.5999999999999
 21
13.89999999999895
 31
0
  0
LINE
  8
1
 62
3
 10
154.1499999999998
 20
9.399999999998983
 30
0
 11
154.1499999999998
 21
13.89999999999895
 31
0
  0
LINE
  8
1
 62
3
 10
154.0999999999999
 20
13.89999999999895
 30
0
 11
152.8999999999999
 21
13.89999999999895
 31
0
  0
LINE
  8
1
 62
3
 10
152.3999999999999
 20
13.39999999999895
 30
0
 11
152.3999999999999
 21
9.899999999998983
 31
0
  0
LINE
  8
1
 62
3
 10
149.8499999999999
 20
9.399999999998983
 30
0
 11
150.3999999999999
 21
9.399999999998983
 31
0
  0
LINE
  8
1
 62
3
 10
149.8499999999999
 20
13.89999999999895
 30
0
 11
149.8499999999999
 21
9.399999999998983
 31
0
  0
LINE
  8
1
 62
3
 10
150.3999999999999
 20
13.89999999999895
 30
0
 11
149.8499999999999
 21
13.89999999999895
 31
0
  0
LINE
  8
1
 62
3
 10
151.0999999999999
 20
9.399999999998983
 30
0
 11
149.8999999999999
 21
9.399999999998983
 31
0
  0
LINE
  8
1
 62
3
 10
151.5999999999999
 20
13.39999999999895
 30
0
 11
151.5999999999999
 21
9.899999999998983
 31
0
  0
LINE
  8
1
 62
3
 10
149.8999999999999
 20
13.89999999999895
 30
0
 11
151.0999999999999
 21
13.89999999999895
 31
0
  0
LINE
  8
1
 62
3
 10
153.5999999999999
 20
9.399999999998983
 30
0
 11
154.1499999999998
 21
9.399999999998983
 31
0
  0
LINE
  8
1
 62
3
 10
154.1499999999998
 20
9.399999999998983
 30
0
 11
154.1499999999998
 21
13.89999999999895
 31
0
  0
LINE
  8
1
 62
3
 10
154.1499999999998
 20
13.89999999999895
 30
0
 11
153.5999999999999
 21
13.89999999999895
 31
0
  0
LINE
  8
1
 62
3
 10
149.8499999999999
 20
13.89999999999895
 30
0
 11
149.8499999999999
 21
9.399999999998983
 31
0
  0
LINE
  8
1
 62
3
 10
149.8499999999999
 20
9.399999999998983
 30
0
 11
150.3999999999999
 21
9.399999999998983
 31
0
  0
LINE
  8
1
 62
3
 10
150.3999999999999
 20
13.89999999999895
 30
0
 11
149.8499999999999
 21
13.89999999999895
 31
0
  0
LINE
  8
1
 62
3
 10
135.1848282791998
 20
-2.500000000000028
 30
0
 11
133.5814803339399
 21
-2.500000000000028
 31
0
  0
LINE
  8
1
 62
3
 10
135.1848282791998
 20
2.499999999999972
 30
0
 11
133.5814803339399
 21
2.499999999999972
 31
0
  0
LINE
  8
1
 62
3
 10
168.8151717208
 20
-2.5
 30
0
 11
170.4185196660598
 21
-2.5
 31
0
  0
LINE
  8
1
 62
3
 10
168.8151717208
 20
2.5
 30
0
 11
170.4185196660598
 21
2.5
 31
0
  0
LINE
  8
1
 62
3
 10
167.695530415477
 20
-0.6844896033560417
 30
0
 11
169.061056676248
 21
-5.757543443480927
 31
0
  0
LINE
  8
1
 62
3
 10
167.695530415477
 20
-0.6844896033560417
 30
0
 11
169.061056676248
 21
-5.757543443480927
 31
0
  0
LINE
  8
1
 62
3
 10
169.061056676248
 20
5.75754344347996
 30
0
 11
167.695530415477
 21
0.6844896033548764
 31
0
  0
LINE
  8
1
 62
3
 10
169.061056676248
 20
5.75754344347996
 30
0
 11
167.695530415477
 21
0.6844896033548764
 31
0
  0
LINE
  8
1
 62
3
 10
169.061056676248
 20
5.75754344347996
 30
0
 11
167.695530415477
 21
0.6844896033548764
 31
0
  0
LINE
  8
1
 62
3
 10
167.3719602834849
 20
5.883758920768088
 30
0
 11
166.1345915721159
 21
1.152302403831044
 31
0
  0
LINE
  8
1
 62
3
 10
166.1345915721159
 20
-1.152302403832039
 30
0
 11
167.3719602834849
 21
-5.883758920768031
 31
0
  0
LINE
  8
1
 62
3
 10
166.1345915721159
 20
-1.152302403832039
 30
0
 11
167.3719602834849
 21
-5.883758920768031
 31
0
  0
LINE
  8
1
 62
3
 10
136.6280397165149
 20
-5.883758920768031
 30
0
 11
137.865408427884
 21
-1.152302403832039
 31
0
  0
LINE
  8
1
 62
3
 10
136.6280397165149
 20
-5.883758920768031
 30
0
 11
137.865408427884
 21
-1.152302403832039
 31
0
  0
LINE
  8
1
 62
3
 10
137.865408427884
 20
1.152302403831044
 30
0
 11
136.6280397165149
 21
5.883758920768088
 31
0
  0
LINE
  8
1
 62
3
 10
137.865408427884
 20
1.152302403831044
 30
0
 11
136.6280397165149
 21
5.883758920768088
 31
0
  0
LINE
  8
1
 62
3
 10
134.9389433237518
 20
-5.757543443480955
 30
0
 11
136.3044695845229
 21
-0.6844896033560417
 31
0
  0
LINE
  8
1
 62
3
 10
136.3044695845229
 20
0.6844896033548764
 30
0
 11
134.9389433237518
 21
5.75754344347996
 31
0
  0
LINE
  8
1
 62
3
 10
136.3044695845229
 20
0.6844896033548764
 30
0
 11
134.9389433237518
 21
5.75754344347996
 31
0
  0
LINE
  8
1
 62
3
 10
136
 20
0.8499999999999943
 30
0
 11
136
 21
-0.8500000000000512
 31
0
  0
LINE
  8
1
 62
3
 10
135.0212632978778
 20
-0.8500000000000512
 30
0
 11
136
 21
-0.8500000000000512
 31
0
  0
LINE
  8
1
 62
3
 10
135.0212632978778
 20
0.8499999999999943
 30
0
 11
136
 21
0.8499999999999943
 31
0
  0
LINE
  8
1
 62
3
 10
168
 20
0.8499999999999659
 30
0
 11
168
 21
-0.8500000000000227
 31
0
  0
LINE
  8
1
 62
3
 10
168.978736702122
 20
-0.8500000000000227
 30
0
 11
168
 21
-0.8500000000000227
 31
0
  0
LINE
  8
1
 62
3
 10
168.978736702122
 20
0.8499999999999943
 30
0
 11
168
 21
0.8499999999999659
 31
0
  0
LINE
  8
1
 62
3
 10
159
 20
15.05191017778137
 30
0
 11
159
 21
10.99999999999997
 31
0
  0
LINE
  8
1
 62
3
 10
159
 20
-5.656854249492454
 30
0
 11
159
 21
-6
 31
0
  0
LINE
  8
1
 62
3
 10
145
 20
5.656854249492369
 30
0
 11
145
 21
5.999999999999972
 31
0
  0
LINE
  8
1
 62
3
 10
165.5
 20
-9.000000000000028
 30
0
 11
161
 21
-9.000000000000028
 31
0
  0
LINE
  8
1
 62
3
 10
165.5
 20
-9.000000000000028
 30
0
 11
165.5
 21
-12.79492086728175
 31
0
  0
LINE
  8
1
 62
3
 10
138.5
 20
-9.000000000000028
 30
0
 11
138.5
 21
-12.7949208672816
 31
0
  0
LINE
  8
1
 62
3
 10
163
 20
-6.000000000000028
 30
0
 11
163
 21
5.999999999999972
 31
0
  0
LINE
  8
1
 62
3
 10
160
 20
-7
 30
0
 11
162
 21
-7
 31
0
  0
LINE
  8
1
 62
3
 10
145
 20
-6.000000000000028
 30
0
 11
145
 21
-5.656854249492454
 31
0
  0
LINE
  8
1
 62
3
 10
141
 20
-6.000000000000028
 30
0
 11
141
 21
-9.000000000000028
 31
0
  0
LINE
  8
1
 62
3
 10
142
 20
-7.000000000000028
 30
0
 11
144
 21
-7.000000000000028
 31
0
  0
LINE
  8
1
 62
3
 10
145
 20
10.99999999999997
 30
0
 11
145
 21
11.99999999999997
 31
0
  0
LINE
  8
1
 62
3
 10
141
 20
5.999999999999972
 30
0
 11
141
 21
-6.000000000000028
 31
0
  0
LINE
  8
1
 62
3
 10
144
 20
6.999999999999972
 30
0
 11
142
 21
6.999999999999972
 31
0
  0
LINE
  8
1
 62
3
 10
160
 20
6.999999999999972
 30
0
 11
162
 21
7
 31
0
  0
LINE
  8
1
 62
3
 10
163
 20
5.999999999999972
 30
0
 11
163
 21
9
 31
0
  0
LINE
  8
1
 62
3
 10
159
 20
6
 30
0
 11
159
 21
5.656854249492369
 31
0
  0
LINE
  8
1
 62
3
 10
163
 20
-9.000000000000028
 30
0
 11
163
 21
-6.000000000000028
 31
0
  0
LINE
  8
1
 62
3
 10
165.5
 20
8.999999999999972
 30
0
 11
161
 21
8.999999999999972
 31
0
  0
LINE
  8
1
 62
3
 10
145
 20
-15.05191017778205
 30
0
 11
145
 21
-11.00000000000003
 31
0
  0
LINE
  8
1
 62
3
 10
141
 20
8.999999999999972
 30
0
 11
141
 21
5.999999999999972
 31
0
  0
LINE
  8
1
 62
3
 10
143
 20
-9.000000000000028
 30
0
 11
138.5
 21
-9.000000000000028
 31
0
  0
LINE
  8
1
 62
3
 10
138.5
 20
12.79492086728166
 30
0
 11
138.5
 21
8.999999999999972
 31
0
  0
LINE
  8
1
 62
3
 10
165.5
 20
12.79492086728146
 30
0
 11
165.5
 21
8.999999999999972
 31
0
  0
LINE
  8
1
 62
3
 10
138.5
 20
8.999999999999972
 30
0
 11
143
 21
8.999999999999972
 31
0
  0
LINE
  8
1
 62
1
 10
152
 20
21.60000000000012
 30
0
 11
152
 21
-21.60000000000014
 31
0
  0
LINE
  8
1
 62
3
 10
147
 20
13.99999999999997
 30
0
 11
147
 21
14.77700916965259
 31
0
  0
LINE
  8
1
 62
3
 10
157
 20
14.77700916965259
 30
0
 11
157
 21
17.91535654124675
 31
0
  0
LINE
  8
1
 62
3
 10
157
 20
-14.00000000000003
 30
0
 11
157
 21
-17.91535654124695
 31
0
  0
LINE
  8
1
 62
3
 10
147
 20
-14.77700916965273
 30
0
 11
147
 21
-17.91535654124695
 31
0
  0
LINE
  8
1
 62
3
 10
159
 20
-12.00000000000003
 30
0
 11
159
 21
-11.00000000000003
 31
0
  0
LINE
  8
1
 62
3
 10
147
 20
14.77700916965259
 30
0
 11
147
 21
17.91535654124675
 31
0
  0
LINE
  8
1
 62
1
 10
163.107303907935
 20
13.23716933631746
 30
0
 11
160.17293341542
 21
9.740122759859872
 31
0
  0
LINE
  8
1
 62
1
 10
160.17293341542
 20
-9.740122759859929
 30
0
 11
163.107303907935
 21
-13.23716933631755
 31
0
  0
LINE
  8
1
 62
1
 10
143.8270665845799
 20
9.740122759859872
 30
0
 11
140.8926960920649
 21
13.23716933631746
 31
0
  0
LINE
  8
1
 62
1
 10
140.8926960920649
 20
-13.23716933631755
 30
0
 11
143.8270665845799
 21
-9.740122759859929
 31
0
  0
LINE
  8
1
 62
3
 10
161.5
 20
-3.571474596215637
 30
0
 11
161.5
 21
3.57147459621558
 31
0
  0
LINE
  8
1
 62
3
 10
161
 20
3.437499999999972
 30
0
 11
161
 21
-3.437500000000028
 31
0
  0
LINE
  8
1
 62
3
 10
161
 20
-4.437500000000028
 30
0
 11
161
 21
-4.500000000000028
 31
0
  0
LINE
  8
1
 62
3
 10
161
 20
4.5
 30
0
 11
161
 21
4.437499999999972
 31
0
  0
LINE
  8
1
 62
3
 10
161.55
 20
4.5
 30
0
 11
161
 21
4.5
 31
0
  0
LINE
  8
1
 62
3
 10
161.55
 20
-4.500000000000028
 30
0
 11
161.55
 21
4.5
 31
0
  0
LINE
  8
1
 62
3
 10
161
 20
-4.500000000000028
 30
0
 11
161.55
 21
-4.500000000000028
 31
0
  0
LINE
  8
1
 62
3
 10
161.5
 20
2.749999999999972
 30
0
 11
161
 21
2.749999999999972
 31
0
  0
LINE
  8
1
 62
3
 10
161.5
 20
-2.750000000000028
 30
0
 11
161
 21
-2.750000000000028
 31
0
  0
LINE
  8
1
 62
3
 10
161.5
 20
-3.571474596215637
 30
0
 11
160.9017627018921
 21
-4.607651991521038
 31
0
  0
LINE
  8
1
 62
3
 10
160.9017627018921
 20
-4.607651991521038
 30
0
 11
160.46875
 21
-4.357651991521038
 31
0
  0
LINE
  8
1
 62
3
 10
160.46875
 20
-4.357651991521038
 30
0
 11
161
 21
-3.437500000000028
 31
0
  0
LINE
  8
1
 62
3
 10
160.9017627018921
 20
4.607651991520982
 30
0
 11
161.5
 21
3.57147459621558
 31
0
  0
LINE
  8
1
 62
3
 10
160.46875
 20
4.357651991520982
 30
0
 11
160.9017627018921
 21
4.607651991520982
 31
0
  0
LINE
  8
1
 62
3
 10
161
 20
3.437499999999972
 30
0
 11
160.46875
 21
4.357651991520982
 31
0
  0
LINE
  8
1
 62
3
 10
161
 20
-2.375000000000028
 30
0
 11
161.5
 21
-2.375000000000028
 31
0
  0
LINE
  8
1
 62
3
 10
161
 20
2.374999999999972
 30
0
 11
161.5
 21
2.374999999999972
 31
0
  0
LINE
  8
1
 62
1
 10
161.2749999999997
 20
-5.633793573786051
 30
0
 11
161.2749999999997
 21
5.366206426213978
 31
0
  0
LINE
  8
1
 62
1
 10
142.7249999999999
 20
5.366206426213978
 30
0
 11
142.7249999999999
 21
-5.633793573786051
 31
0
  0
LINE
  8
1
 62
3
 10
142.4999999999998
 20
3.57147459621558
 30
0
 11
142.4999999999998
 21
-3.571474596215637
 31
0
  0
LINE
  8
1
 62
3
 10
142.9999999999998
 20
-3.437500000000028
 30
0
 11
142.9999999999998
 21
3.437499999999972
 31
0
  0
LINE
  8
1
 62
3
 10
143
 20
-4.500000000000028
 30
0
 11
143
 21
-4.437500000000028
 31
0
  0
LINE
  8
1
 62
3
 10
143
 20
4.437499999999972
 30
0
 11
143
 21
4.499999999999972
 31
0
  0
LINE
  8
1
 62
3
 10
143
 20
4.499999999999972
 30
0
 11
142.4499999999999
 21
4.5
 31
0
  0
LINE
  8
1
 62
3
 10
142.4499999999999
 20
4.5
 30
0
 11
142.4499999999999
 21
-4.500000000000028
 31
0
  0
LINE
  8
1
 62
3
 10
142.4499999999999
 20
-4.500000000000028
 30
0
 11
143
 21
-4.500000000000028
 31
0
  0
LINE
  8
1
 62
3
 10
142.9999999999998
 20
2.749999999999972
 30
0
 11
142.4999999999998
 21
2.749999999999972
 31
0
  0
LINE
  8
1
 62
3
 10
142.9999999999998
 20
-2.750000000000028
 30
0
 11
142.4999999999998
 21
-2.750000000000028
 31
0
  0
LINE
  8
1
 62
3
 10
143.0982372981078
 20
-4.607651991521038
 30
0
 11
142.4999999999998
 21
-3.571474596215637
 31
0
  0
LINE
  8
1
 62
3
 10
143.5312499999998
 20
-4.357651991521038
 30
0
 11
143.0982372981078
 21
-4.607651991521038
 31
0
  0
LINE
  8
1
 62
3
 10
142.9999999999998
 20
-3.437500000000028
 30
0
 11
143.5312499999998
 21
-4.357651991521038
 31
0
  0
LINE
  8
1
 62
3
 10
142.4999999999998
 20
3.57147459621558
 30
0
 11
143.0982372981078
 21
4.607651991520982
 31
0
  0
LINE
  8
1
 62
3
 10
143.0982372981078
 20
4.607651991520982
 30
0
 11
143.5312499999998
 21
4.357651991520982
 31
0
  0
LINE
  8
1
 62
3
 10
143.5312499999998
 20
4.357651991520982
 30
0
 11
142.9999999999998
 21
3.437499999999972
 31
0
  0
LINE
  8
1
 62
3
 10
142.4999999999998
 20
-2.375000000000028
 30
0
 11
142.9999999999998
 21
-2.375000000000028
 31
0
  0
LINE
  8
1
 62
3
 10
142.4999999999998
 20
2.374999999999972
 30
0
 11
142.9999999999998
 21
2.374999999999972
 31
0
  0
LINE
  8
1
 62
1
 10
130.3999999999999
 20
0
 30
0
 11
173.6000000000001
 21
0
 31
0
  0
LINE
  8
1
 62
3
 10
137.5999999999999
 20
2.167172445577307
 30
0
 11
137.5999999999999
 21
9.035485598461094
 31
0
  0
LINE
  8
1
 62
3
 10
137.5999999999999
 20
-9.035485598461605
 30
0
 11
137.5999999999999
 21
-2.16717244557799
 31
0
  0
LINE
  8
1
 62
3
 10
142
 20
-7.000000000000028
 30
0
 11
141.9999999999997
 21
-9
 31
0
  0
LINE
  8
1
 62
3
 10
141.9999999999997
 20
9
 30
0
 11
142
 21
6.999999999999972
 31
0
  0
LINE
  8
1
 62
3
 10
148.5
 20
15.2023024571937
 30
0
 11
148.5
 21
8.291561975888499
 31
0
  0
LINE
  8
1
 62
3
 10
149.5
 20
8.645808232895263
 30
0
 11
149.5
 21
15.39837653780415
 31
0
  0
LINE
  8
1
 62
3
 10
155.5
 20
8.291561975888499
 30
0
 11
155.5
 21
15.2023024571937
 31
0
  0
LINE
  8
1
 62
3
 10
154.5
 20
15.39837653780415
 30
0
 11
154.5
 21
8.645808232895263
 31
0
  0
LINE
  8
1
 62
3
 10
148.5
 20
-8.291561975888499
 30
0
 11
148.5
 21
-15.20230245719372
 31
0
  0
LINE
  8
1
 62
3
 10
149.5
 20
-15.39837653780424
 30
0
 11
149.5
 21
-8.64580823289532
 31
0
  0
LINE
  8
1
 62
3
 10
154.5
 20
-8.64580823289532
 30
0
 11
154.5
 21
-15.39837653780424
 31
0
  0
LINE
  8
1
 62
3
 10
155.5
 20
-15.20230245719372
 30
0
 11
155.5
 21
-8.291561975888499
 31
0
  0
LINE
  8
1
 62
3
 10
162
 20
7
 30
0
 11
162.0000000000002
 21
9
 31
0
  0
LINE
  8
1
 62
3
 10
162.0000000000002
 20
-9
 30
0
 11
162
 21
-7
 31
0
  0
LINE
  8
1
 62
3
 10
166.4
 20
-2.16717244557799
 30
0
 11
166.4
 21
-9.035485598461605
 31
0
  0
LINE
  8
1
 62
3
 10
166.4000000000002
 20
9.035485598461094
 30
0
 11
166.4000000000001
 21
2.167172445577307
 31
0
  0
LINE
  8
1
 62
3
 10
0
 20
-16.60000000000002
 30
0
 11
0
 21
16.59999999999999
 31
0
  0
LINE
  8
1
 62
3
 10
54.7000000000001
 20
18.59999999999999
 30
0
 11
2
 21
18.59999999999999
 31
0
  0
LINE
  8
1
 62
3
 10
2
 20
-18.59999999999999
 30
0
 11
54.7000000000001
 21
-18.60000000000002
 31
0
  0
LINE
  8
1
 62
2
 10
29.54945095942804
 20
7.083873753056977
 30
0
 11
29.54945095942804
 21
18.59999999999999
 31
0
  0
LINE
  8
1
 62
2
 10
9.549450959428043
 20
7.083873753056977
 30
0
 11
29.54945095942804
 21
7.083873753056977
 31
0
  0
LINE
  8
1
 62
2
 10
9.549450959428043
 20
18.59999999999999
 30
0
 11
9.549450959428043
 21
7.083873753056977
 31
0
  0
LINE
  8
1
 62
3
 10
49.7000000000001
 20
5.785714285713993
 30
0
 11
49.7000000000001
 21
-5.785714285714022
 31
0
  0
LINE
  8
1
 62
3
 10
49.7000000000001
 20
-1
 30
0
 11
48.09499734566708
 21
-1
 31
0
  0
LINE
  8
1
 62
3
 10
49.7000000000001
 20
0.9999999999999996
 30
0
 11
48.09499734566708
 21
0.9999999999999996
 31
0
  0
LINE
  8
1
 62
3
 10
51.19835826753916
 20
-1.5
 30
0
 11
50.69835826753916
 21
-1.5
 31
0
  0
LINE
  8
1
 62
3
 10
50.69835826753916
 20
1.5
 30
0
 11
51.19835826753916
 21
1.5
 31
0
  0
LINE
  8
1
 62
3
 10
49.50000000000006
 20
-7.5
 30
0
 11
47.50000000000006
 21
-7.5
 31
0
  0
LINE
  8
1
 62
3
 10
50.2000000000001
 20
-1.5
 30
0
 11
49.50000000000006
 21
-7.5
 31
0
  0
LINE
  8
1
 62
3
 10
50.2000000000001
 20
1.5
 30
0
 11
50.2000000000001
 21
-1.5
 31
0
  0
LINE
  8
1
 62
3
 10
49.50000000000006
 20
7.5
 30
0
 11
50.2000000000001
 21
1.5
 31
0
  0
LINE
  8
1
 62
3
 10
47.50000000000006
 20
7.5
 30
0
 11
49.50000000000006
 21
7.5
 31
0
  0
LINE
  8
1
 62
3
 10
47.50000000000006
 20
-2.5
 30
0
 11
47.50000000000006
 21
-7.5
 31
0
  0
LINE
  8
1
 62
3
 10
47.50000000000006
 20
7.5
 30
0
 11
47.50000000000006
 21
2.5
 31
0
  0
LINE
  8
1
 62
1
 10
67.98800145276806
 20
0
 30
0
 11
62.74500000000018
 21
0
 31
0
  0
LINE
  8
1
 62
3
 10
54.7000000000001
 20
-7
 30
0
 11
51.7000000000001
 21
-7
 31
0
  0
LINE
  8
1
 62
3
 10
51.7000000000001
 20
-18.60000000000002
 30
0
 11
51.7000000000001
 21
18.59999999999999
 31
0
  0
LINE
  8
1
 62
3
 10
54.7000000000001
 20
7
 30
0
 11
51.7000000000001
 21
7
 31
0
  0
LINE
  8
1
 62
3
 10
54.7000000000001
 20
18.59999999999999
 30
0
 11
54.7000000000001
 21
2.75
 31
0
  0
LINE
  8
1
 62
3
 10
51.7000000000001
 20
-12.79492086728212
 30
0
 11
54.7000000000001
 21
-12.79492086728212
 31
0
  0
LINE
  8
1
 62
3
 10
51.7000000000001
 20
12.79492086728098
 30
0
 11
54.7000000000001
 21
12.79492086728098
 31
0
  0
LINE
  8
1
 62
3
 10
51.7000000000001
 20
-9.000000000000002
 30
0
 11
54.7000000000001
 21
-9
 31
0
  0
LINE
  8
1
 62
3
 10
51.7000000000001
 20
8.999999999998892
 30
0
 11
54.7000000000001
 21
8.999999999998892
 31
0
  0
LINE
  8
1
 62
3
 10
54.7000000000001
 20
7.99999999999989
 30
0
 11
57.7000000000001
 21
8
 31
0
  0
LINE
  8
1
 62
3
 10
57.7000000000001
 20
-8
 30
0
 11
54.7000000000001
 21
-8
 31
0
  0
LINE
  8
1
 62
3
 10
58.7000000000001
 20
7
 30
0
 11
58.7000000000001
 21
2.75
 31
0
  0
LINE
  8
1
 62
3
 10
58.75000000000006
 20
2.75
 30
0
 11
58.75000000000006
 21
2.375
 31
0
  0
LINE
  8
1
 62
3
 10
58.75000000000006
 20
2.375
 30
0
 11
64.10000000000019
 21
2.375
 31
0
  0
LINE
  8
1
 62
3
 10
65.10000000000019
 20
1.375
 30
0
 11
65.10000000000019
 21
-1.375
 31
0
  0
LINE
  8
1
 62
3
 10
64.10000000000019
 20
-2.375
 30
0
 11
58.75000000000006
 21
-2.375
 31
0
  0
LINE
  8
1
 62
3
 10
58.75000000000006
 20
-2.375
 30
0
 11
58.75000000000006
 21
-2.75
 31
0
  0
LINE
  8
1
 62
3
 10
58.75000000000006
 20
-2.75
 30
0
 11
56.10000000000008
 21
-2.749999999999999
 31
0
  0
LINE
  8
1
 62
3
 10
65.10000000000019
 20
1.375
 30
0
 11
64.10000000000019
 21
2.375
 31
0
  0
LINE
  8
1
 62
3
 10
64.10000000000019
 20
-2.375
 30
0
 11
65.10000000000019
 21
-1.375
 31
0
  0
LINE
  8
1
 62
3
 10
64.10000000000019
 20
2.375
 30
0
 11
64.10000000000019
 21
-2.375
 31
0
  0
LINE
  8
1
 62
1
 10
62.55000000000024
 20
0
 30
0
 11
61.05500000000012
 21
0
 31
0
  0
LINE
  8
1
 62
1
 10
61.90000000000015
 20
0.844999999999998
 30
0
 11
61.90000000000015
 21
-0.8450000000000282
 31
0
  0
LINE
  8
1
 62
1
 10
61.05500000000012
 20
0
 30
0
 11
62.74500000000018
 21
0
 31
0
  0
LINE
  8
1
 62
1
 10
62.74500000000018
 20
0
 30
0
 11
62.55000000000024
 21
0
 31
0
  0
LINE
  8
1
 62
3
 10
58.7000000000001
 20
-2.75
 30
0
 11
58.7000000000001
 21
-7
 31
0
  0
LINE
  8
1
 62
3
 10
54.7000000000001
 20
2.75
 30
0
 11
55.10000000000008
 21
4.607651991520995
 31
0
  0
LINE
  8
1
 62
3
 10
54.7000000000001
 20
2.75
 30
0
 11
54.7000000000001
 21
-18.60000000000002
 31
0
  0
LINE
  8
1
 62
3
 10
55.10000000000008
 20
4.607651991520995
 30
0
 11
56.10000000000008
 21
4.607651991520995
 31
0
  0
LINE
  8
1
 62
3
 10
56.10000000000008
 20
4.607651991520995
 30
0
 11
56.10000000000008
 21
2.75
 31
0
  0
LINE
  8
1
 62
3
 10
56.10000000000008
 20
2.75
 30
0
 11
58.75000000000006
 21
2.75
 31
0
  0
LINE
  8
1
 62
3
 10
55.10000000000008
 20
-4.607651991521031
 30
0
 11
54.7000000000001
 21
-2.75
 31
0
  0
LINE
  8
1
 62
3
 10
56.10000000000008
 20
-4.607651991521031
 30
0
 11
55.10000000000008
 21
-4.607651991521031
 31
0
  0
LINE
  8
1
 62
3
 10
56.10000000000008
 20
-2.749999999999999
 30
0
 11
56.10000000000008
 21
-4.607651991521031
 31
0
  0
LINE
  8
1
 62
3
 10
-8.881784197001252e-016
 20
-18.5
 30
0
 11
0
 21
18.59999999999996
 31
0
  0
LINE
  8
1
 62
3
 10
-3.5
 20
30.5
 30
0
 11
-3.5
 21
-30.5
 31
0
  0
LINE
  8
1
 62
3
 10
-1.5
 20
-19.5
 30
0
 11
-1.5
 21
19.5
 31
0
  0
LINE
  8
1
 62
3
 10
-0.5
 20
19
 30
0
 11
-1
 21
19
 31
0
  0
LINE
  8
1
 62
3
 10
-1
 20
-19
 30
0
 11
-0.5
 21
-19
 31
0
  0
LINE
  8
1
 62
3
 10
-1.5
 20
-19.5
 30
0
 11
-1.5
 21
-30
 31
0
  0
LINE
  8
1
 62
3
 10
-1.5
 20
30
 30
0
 11
-1.5
 21
19.5
 31
0
  0
LINE
  8
0
 62
3
 10
-3.5
 20
30
 30
0
 11
-1.5
 21
30
 31
0
  0
LINE
  8
0
 62
3
 10
-1.5
 20
-30
 30
0
 11
-3.5
 21
-30
 31
0
  0
LINE
  8
1
 62
1
 10
-33.13940917712053
 20
0
 30
0
 11
62.70000000000012
 21
0
 31
0
  0
LINE
  8
1
 62
3
 10
-35.50000000000012
 20
1.0001839906908
 30
0
 11
-29.50000000000023
 21
1.000183990690911
 31
0
  0
LINE
  8
1
 62
3
 10
-29.50000000000023
 20
19.00000000000023
 30
0
 11
-35.50000000000023
 21
19
 31
0
  0
LINE
  8
1
 62
3
 10
-35.50000000000023
 20
19
 30
0
 11
-35.50000000000023
 21
13.0000000000004
 31
0
  0
LINE
  8
1
 62
3
 10
-30.50000000000023
 20
20
 30
0
 11
-30.50000000000012
 21
29.5
 31
0
  0
LINE
  8
1
 62
3
 10
-29.50000000000023
 20
-19
 30
0
 11
-29.50000000000023
 21
1.000183990690911
 31
0
  0
LINE
  8
1
 62
3
 10
-29.50000000000023
 20
-20
 30
0
 11
-29.50000000000023
 21
-19
 31
0
  0
LINE
  8
1
 62
3
 10
-29.50000000000023
 20
19.00000000000023
 30
0
 11
-29.50000000000023
 21
20
 31
0
  0
LINE
  8
1
 62
3
 10
-29.50000000000023
 20
1.000183990690911
 30
0
 11
-29.50000000000023
 21
19.00000000000023
 31
0
  0
LINE
  8
1
 62
3
 10
-29.50000000000023
 20
1.000183990690911
 30
0
 11
-29.50000000000023
 21
19.00000000000023
 31
0
  0
LINE
  8
1
 62
3
 10
-29.50000000000023
 20
19.00000000000023
 30
0
 11
-29.50000000000023
 21
20
 31
0
  0
LINE
  8
1
 62
3
 10
-35.50000000000023
 20
7
 30
0
 11
-35.50000000000023
 21
13.0000000000004
 31
0
  0
LINE
  8
1
 62
3
 10
-35.50000000000023
 20
7
 30
0
 11
-35.50000000000012
 21
1.0001839906908
 31
0
  0
LINE
  8
1
 62
3
 10
-35.50000000000023
 20
13.0000000000004
 30
0
 11
-35.50000000000023
 21
7
 31
0
  0
LINE
  8
1
 62
3
 10
-30.50000000000023
 20
-29.5
 30
0
 11
-30.50000000000023
 21
-20
 31
0
  0
LINE
  8
1
 62
3
 10
-39.65942712606477
 20
13.00000000000023
 30
0
 11
-35.50000000000023
 21
13.0000000000004
 31
0
  0
LINE
  8
1
 62
3
 10
-3.5
 20
30.5
 30
0
 11
-29.50000000000012
 21
30.5
 31
0
  0
LINE
  8
1
 62
3
 10
-3.5
 20
-30.5
 30
0
 11
-29.50000000000023
 21
-30.5
 31
0
  0
LINE
  8
1
 62
3
 10
-1.5
 20
21.34999999999999
 30
0
 11
-1.5
 21
28.14999999999998
 31
0
  0
LINE
  8
1
 62
3
 10
-1.5
 20
-28.15000000000001
 30
0
 11
-1.5
 21
-21.35000000000001
 31
0
  0
LINE
  8
1
 62
3
 10
-43.50000000000023
 20
12.5
 30
0
 11
-55.50000000000012
 21
12.5
 31
0
  0
LINE
  8
1
 62
3
 10
-55.00000000000012
 20
7.000000000000225
 30
0
 11
-35.50000000000023
 21
7
 31
0
  0
LINE
  8
1
 62
3
 10
-55.50000000000012
 20
12.5
 30
0
 11
-55.50000000000012
 21
7.500000000000231
 31
0
  0
LINE
  8
1
 62
1
 10
-26.41717049876377
 20
10
 30
0
 11
-58.82728113355893
 21
10
 31
0
  0
LINE
  8
1
 62
3
 10
-149.7
 20
-22.09999999999997
 30
0
 11
-149.7
 21
-22.5
 31
0
  0
LINE
  8
1
 62
3
 10
-150.3
 20
-22.09999999999997
 30
0
 11
-150.3
 21
-22.5
 31
0
  0
LINE
  8
1
 62
3
 10
-150.3
 20
-24.89999999999998
 30
0
 11
-150.3
 21
-24.5
 31
0
  0
LINE
  8
1
 62
3
 10
-151.4
 20
-23.80000000000001
 30
0
 11
-151
 21
-23.80000000000001
 31
0
  0
LINE
  8
1
 62
3
 10
-151.4
 20
-23.19999999999999
 30
0
 11
-151
 21
-23.19999999999999
 31
0
  0
LINE
  8
1
 62
3
 10
-151.5
 20
-23.30000000000001
 30
0
 11
-151.5
 21
-23.69999999999999
 31
0
  0
LINE
  8
1
 62
3
 10
-148.5
 20
-23.30000000000001
 30
0
 11
-148.5
 21
-23.69999999999999
 31
0
  0
LINE
  8
1
 62
3
 10
-150.2
 20
-25
 30
0
 11
-149.8
 21
-25
 31
0
  0
LINE
  8
1
 62
3
 10
-150.2
 20
-22
 30
0
 11
-149.8
 21
-22
 31
0
  0
LINE
  8
1
 62
3
 10
-149.7
 20
-24.5
 30
0
 11
-149.7
 21
-24.89999999999998
 31
0
  0
LINE
  8
1
 62
3
 10
-149
 20
-23.80000000000001
 30
0
 11
-148.9941176470589
 21
-23.80000000000001
 31
0
  0
LINE
  8
1
 62
3
 10
-149
 20
-23.19999999999999
 30
0
 11
-148.9941176470589
 21
-23.19999999999999
 31
0
  0
LINE
  8
1
 62
3
 10
-148.9941176470589
 20
-23.80000000000001
 30
0
 11
-148.6
 21
-23.80000000000001
 31
0
  0
LINE
  8
1
 62
3
 10
-148.9941176470589
 20
-23.19999999999999
 30
0
 11
-148.6
 21
-23.19999999999999
 31
0
  0
LINE
  8
1
 62
3
 10
-129.1999999999999
 20
13.90000000000003
 30
0
 11
-129.1999999999999
 21
13.5
 31
0
  0
LINE
  8
1
 62
3
 10
-129.7999999999999
 20
13.90000000000003
 30
0
 11
-129.7999999999999
 21
13.5
 31
0
  0
LINE
  8
1
 62
3
 10
-129.7999999999999
 20
11.10000000000002
 30
0
 11
-129.7999999999999
 21
11.5
 31
0
  0
LINE
  8
1
 62
3
 10
-130.8999999999998
 20
12.19999999999999
 30
0
 11
-130.4999999999999
 21
12.19999999999999
 31
0
  0
LINE
  8
1
 62
3
 10
-130.8999999999998
 20
12.80000000000001
 30
0
 11
-130.4999999999999
 21
12.80000000000001
 31
0
  0
LINE
  8
1
 62
3
 10
-130.9999999999999
 20
12.69999999999999
 30
0
 11
-130.9999999999999
 21
12.30000000000001
 31
0
  0
LINE
  8
1
 62
3
 10
-127.9999999999999
 20
12.69999999999999
 30
0
 11
-127.9999999999999
 21
12.30000000000001
 31
0
  0
LINE
  8
1
 62
3
 10
-129.6999999999999
 20
11
 30
0
 11
-129.2999999999999
 21
11
 31
0
  0
LINE
  8
1
 62
3
 10
-129.6999999999999
 20
14
 30
0
 11
-129.2999999999999
 21
14
 31
0
  0
LINE
  8
1
 62
3
 10
-129.1999999999999
 20
11.5
 30
0
 11
-129.1999999999999
 21
11.10000000000002
 31
0
  0
LINE
  8
1
 62
3
 10
-128.4999999999999
 20
12.19999999999999
 30
0
 11
-128.4941176470586
 21
12.19999999999999
 31
0
  0
LINE
  8
1
 62
3
 10
-128.4999999999999
 20
12.80000000000001
 30
0
 11
-128.4941176470586
 21
12.80000000000001
 31
0
  0
LINE
  8
1
 62
3
 10
-128.4941176470586
 20
12.19999999999999
 30
0
 11
-128.0999999999998
 21
12.19999999999999
 31
0
  0
LINE
  8
1
 62
3
 10
-128.4941176470586
 20
12.80000000000001
 30
0
 11
-128.0999999999998
 21
12.80000000000001
 31
0
  0
LINE
  8
1
 62
3
 10
-170.1999999999999
 20
13.90000000000003
 30
0
 11
-170.1999999999999
 21
13.5
 31
0
  0
LINE
  8
1
 62
3
 10
-170.7999999999999
 20
13.90000000000003
 30
0
 11
-170.7999999999999
 21
13.5
 31
0
  0
LINE
  8
1
 62
3
 10
-170.7999999999999
 20
11.10000000000002
 30
0
 11
-170.7999999999999
 21
11.5
 31
0
  0
LINE
  8
1
 62
3
 10
-171.8999999999999
 20
12.19999999999999
 30
0
 11
-171.4999999999999
 21
12.19999999999999
 31
0
  0
LINE
  8
1
 62
3
 10
-171.8999999999999
 20
12.80000000000001
 30
0
 11
-171.4999999999999
 21
12.80000000000001
 31
0
  0
LINE
  8
1
 62
3
 10
-171.9999999999999
 20
12.69999999999999
 30
0
 11
-171.9999999999999
 21
12.30000000000001
 31
0
  0
LINE
  8
1
 62
3
 10
-168.9999999999999
 20
12.69999999999999
 30
0
 11
-168.9999999999999
 21
12.30000000000001
 31
0
  0
LINE
  8
1
 62
3
 10
-170.6999999999999
 20
11
 30
0
 11
-170.2999999999999
 21
11
 31
0
  0
LINE
  8
1
 62
3
 10
-170.6999999999999
 20
14
 30
0
 11
-170.2999999999999
 21
14
 31
0
  0
LINE
  8
1
 62
3
 10
-170.1999999999999
 20
11.5
 30
0
 11
-170.1999999999999
 21
11.10000000000002
 31
0
  0
LINE
  8
1
 62
3
 10
-169.4999999999999
 20
12.19999999999999
 30
0
 11
-169.4941176470587
 21
12.19999999999999
 31
0
  0
LINE
  8
1
 62
3
 10
-169.4999999999999
 20
12.80000000000001
 30
0
 11
-169.4941176470587
 21
12.80000000000001
 31
0
  0
LINE
  8
1
 62
3
 10
-169.4941176470587
 20
12.19999999999999
 30
0
 11
-169.0999999999999
 21
12.19999999999999
 31
0
  0
LINE
  8
1
 62
3
 10
-169.4941176470587
 20
12.80000000000001
 30
0
 11
-169.0999999999999
 21
12.80000000000001
 31
0
  0
LINE
  8
1
 62
3
 10
-180.5
 20
24.75
 30
0
 11
-180.4999999999999
 21
-24.75
 31
0
  0
LINE
  8
1
 62
1
 10
-184.6598089777859
 20
0
 30
0
 11
-116.3944887593821
 21
0
 31
0
  0
LINE
  8
1
 62
1
 10
-138.4454185024992
 20
10
 30
0
 11
-147.5000000000002
 21
10
 31
0
  0
LINE
  8
1
 62
1
 10
-125.2499999999999
 20
32.77579593310054
 30
0
 11
-125.2499999999999
 21
18.05741973590614
 31
0
  0
LINE
  8
1
 62
1
 10
-174.7499999999999
 20
-18.00260194722017
 30
0
 11
-174.7499999999999
 21
-32.72097814441469
 31
0
  0
LINE
  8
1
 62
3
 10
-151.6583123951777
 20
12.5
 30
0
 11
-148.3416876048223
 21
12.5
 31
0
  0
LINE
  8
1
 62
1
 10
-170.4999999999999
 20
16.09626866450839
 30
0
 11
-170.4999999999999
 21
9.060278778911819
 31
0
  0
LINE
  8
1
 62
1
 10
-174.173900599135
 20
12.5
 30
0
 11
-166.907222520568
 21
12.5
 31
0
  0
LINE
  8
1
 62
1
 10
-129.4999999999999
 20
16.37902647817771
 30
0
 11
-129.4999999999999
 21
8.831567913309812
 31
0
  0
LINE
  8
1
 62
1
 10
-133.6405020987129
 20
12.5
 30
0
 11
-125.7232833159693
 21
12.5
 31
0
  0
LINE
  8
1
 62
1
 10
-150
 20
34.2136930292794
 30
0
 11
-150
 21
-34.40594546015418
 31
0
  0
LINE
  8
1
 62
1
 10
-153.9580657785315
 20
-23.5
 30
0
 11
-146.1646034221224
 21
-23.5
 31
0
  0
LINE
  8
1
 62
3
 10
-174.7499999999999
 20
-30.5
 30
0
 11
-125.2499999999999
 21
-30.5
 31
0
  0
LINE
  8
1
 62
3
 10
-125.2499999999999
 20
30.5
 30
0
 11
-174.7499999999999
 21
30.5
 31
0
  0
LINE
  8
1
 62
1
 10
-125.2499999999999
 20
-32.72097814441469
 30
0
 11
-125.2499999999999
 21
-17.4506628398255
 31
0
  0
LINE
  8
1
 62
1
 10
-174.7499999999999
 20
17.68946033097609
 30
0
 11
-174.7499999999999
 21
32.40783652817061
 31
0
  0
LINE
  8
1
 62
1
 10
-116.9197933141022
 20
-24.75
 30
0
 11
-132.5580680236214
 21
-24.75
 31
0
  0
LINE
  8
1
 62
1
 10
-167.5142114919581
 20
-24.75
 30
0
 11
-183.1524862014773
 21
-24.75
 31
0
  0
LINE
  8
1
 62
1
 10
-182.9685064990122
 20
24.75
 30
0
 11
-167.6981911944231
 21
24.75
 31
0
  0
LINE
  8
1
 62
1
 10
-117.6557121239621
 20
24.75
 30
0
 11
-132.5580680236214
 21
24.75
 31
0
  0
LINE
  8
1
 62
3
 10
-119.4999999999999
 20
-24.75
 30
0
 11
-119.4999999999999
 21
24.75
 31
0
  0
LINE
  8
1
 62
3
 10
-55.50000000000012
 20
7.500000000000231
 30
0
 11
-55.00000000000012
 21
7.000000000000225
 31
0
  0
LINE
  8
1
 62
3
 10
-55.00000000000012
 20
7.000000000000225
 30
0
 11
-55.00000000000012
 21
12.5
 31
0
  0
LINE
  8
1
 62
1
 10
-147.5000000000002
 20
10
 30
0
 11
-161.8108407155454
 21
10
 31
0
  0
LINE
  8
1
 62
1
 10
-125.2499999999999
 20
-16.25
 30
0
 11
-125.2499999999999
 21
-33.25
 31
0
  0
LINE
  8
1
 62
1
 10
-116.7499999999999
 20
-24.75
 30
0
 11
-133.7499999999999
 21
-24.75
 31
0
  0
LINE
  8
1
 62
3
 10
-121.7499999999999
 20
-22.72927405783631
 30
0
 11
-121.7499999999999
 21
-26.77072594216369
 31
0
  0
LINE
  8
1
 62
3
 10
-125.2499999999999
 20
-20.70854811567261
 30
0
 11
-121.7499999999999
 21
-22.72927405783631
 31
0
  0
LINE
  8
1
 62
3
 10
-128.7499999999999
 20
-22.7292740578363
 30
0
 11
-125.2499999999999
 21
-20.70854811567261
 31
0
  0
LINE
  8
1
 62
3
 10
-128.7499999999999
 20
-26.77072594216367
 30
0
 11
-128.7499999999999
 21
-22.7292740578363
 31
0
  0
LINE
  8
1
 62
3
 10
-125.2499999999999
 20
-28.79145188432737
 30
0
 11
-128.7499999999999
 21
-26.77072594216367
 31
0
  0
LINE
  8
1
 62
3
 10
-121.7499999999999
 20
-26.77072594216369
 30
0
 11
-125.2499999999999
 21
-28.79145188432737
 31
0
  0
LINE
  8
1
 62
3
 10
-125.2499999999999
 20
28.79145188432737
 30
0
 11
-121.7499999999999
 21
26.77072594216369
 31
0
  0
LINE
  8
1
 62
3
 10
-128.7499999999999
 20
26.77072594216367
 30
0
 11
-125.2499999999999
 21
28.79145188432737
 31
0
  0
LINE
  8
1
 62
3
 10
-128.7499999999999
 20
22.7292740578363
 30
0
 11
-128.7499999999999
 21
26.77072594216367
 31
0
  0
LINE
  8
1
 62
3
 10
-125.2499999999999
 20
20.70854811567261
 30
0
 11
-128.7499999999999
 21
22.7292740578363
 31
0
  0
LINE
  8
1
 62
3
 10
-121.7499999999999
 20
22.72927405783631
 30
0
 11
-125.2499999999999
 21
20.70854811567261
 31
0
  0
LINE
  8
1
 62
3
 10
-121.7499999999999
 20
26.77072594216369
 30
0
 11
-121.7499999999999
 21
22.72927405783631
 31
0
  0
LINE
  8
1
 62
1
 10
-133.7499999999999
 20
24.75
 30
0
 11
-116.7499999999999
 21
24.75
 31
0
  0
LINE
  8
1
 62
1
 10
-125.2499999999999
 20
33.25
 30
0
 11
-125.2499999999999
 21
16.25
 31
0
  0
LINE
  8
1
 62
3
 10
-174.7500000000001
 20
-28.79145188432737
 30
0
 11
-178.2500000000001
 21
-26.77072594216369
 31
0
  0
LINE
  8
1
 62
3
 10
-171.2500000000001
 20
-26.77072594216367
 30
0
 11
-174.7500000000001
 21
-28.79145188432737
 31
0
  0
LINE
  8
1
 62
3
 10
-171.2500000000001
 20
-22.7292740578363
 30
0
 11
-171.2500000000001
 21
-26.77072594216367
 31
0
  0
LINE
  8
1
 62
3
 10
-174.7500000000001
 20
-20.70854811567261
 30
0
 11
-171.2500000000001
 21
-22.7292740578363
 31
0
  0
LINE
  8
1
 62
3
 10
-178.2500000000001
 20
-22.72927405783631
 30
0
 11
-174.7500000000001
 21
-20.70854811567261
 31
0
  0
LINE
  8
1
 62
3
 10
-178.2500000000001
 20
-26.77072594216369
 30
0
 11
-178.2500000000001
 21
-22.72927405783631
 31
0
  0
LINE
  8
1
 62
1
 10
-166.2500000000001
 20
-24.75
 30
0
 11
-183.2500000000001
 21
-24.75
 31
0
  0
LINE
  8
1
 62
1
 10
-174.7500000000001
 20
-33.25
 30
0
 11
-174.7500000000001
 21
-16.25
 31
0
  0
LINE
  8
1
 62
1
 10
-174.7500000000001
 20
16.25
 30
0
 11
-174.7500000000001
 21
33.25
 31
0
  0
LINE
  8
1
 62
1
 10
-183.2500000000001
 20
24.75
 30
0
 11
-166.2500000000001
 21
24.75
 31
0
  0
LINE
  8
1
 62
3
 10
-178.2500000000001
 20
22.72927405783631
 30
0
 11
-178.2500000000001
 21
26.77072594216369
 31
0
  0
LINE
  8
1
 62
3
 10
-174.7500000000001
 20
20.70854811567261
 30
0
 11
-178.2500000000001
 21
22.72927405783631
 31
0
  0
LINE
  8
1
 62
3
 10
-171.2500000000001
 20
22.7292740578363
 30
0
 11
-174.7500000000001
 21
20.70854811567261
 31
0
  0
LINE
  8
1
 62
3
 10
-171.2500000000001
 20
26.77072594216367
 30
0
 11
-171.2500000000001
 21
22.7292740578363
 31
0
  0
LINE
  8
1
 62
3
 10
-174.7500000000001
 20
28.79145188432737
 30
0
 11
-171.2500000000001
 21
26.77072594216367
 31
0
  0
LINE
  8
1
 62
3
 10
-178.2500000000001
 20
26.77072594216369
 30
0
 11
-174.7500000000001
 21
28.79145188432737
 31
0
  0
ARC
  8
1
 62
3
 10
-33.38106481267857
 20
-21.71891108675446
 30
0
 40
1.318935187321658
 50
130.000000000001
 51
229.9999999999999
  0
ARC
  8
1
 62
3
 10
-33.38106481267857
 20
-27.78108891324554
 30
0
 40
1.318935187321674
 50
130.0000000000004
 51
229.9999999999996
  0
ARC
  8
1
 62
3
 10
-30.13096923711114
 20
-24.75
 30
0
 40
4.569030762889094
 50
153.7514637544168
 51
206.2485362455833
  0
ARC
  8
1
 62
3
 10
-32.8189351873219
 20
-27.78108891324554
 30
0
 40
1.318935187321665
 50
309.9999999999999
 51
50.00000000000005
  0
ARC
  8
1
 62
3
 10
-32.8189351873219
 20
-21.71891108675446
 30
0
 40
1.318935187321673
 50
309.9999999999997
 51
49.99999999999945
  0
ARC
  8
1
 62
3
 10
-36.06903076288933
 20
-24.75
 30
0
 40
4.569030762889089
 50
333.7514637544167
 51
26.24853624558325
  0
ARC
  8
1
 62
3
 10
-4.800000000000004
 20
-24.75
 30
0
 40
6.400000000000001
 50
4.929936937181806
 51
20.1055097879159
  0
ARC
  8
1
 62
3
 10
-4.800000000000004
 20
-24.75
 30
0
 40
6.400000000000002
 50
321.3178125465105
 51
339.8944902120838
  0
ARC
  8
1
 62
3
 10
-4.800000000000004
 20
-24.75
 30
0
 40
6.400000000000012
 50
339.8944902120838
 51
355.070063062818
  0
ARC
  8
1
 62
3
 10
-4.800000000000004
 20
-24.75
 30
0
 40
6.4
 50
20.1055097879159
 51
38.68218745348943
  0
ARC
  8
1
 62
3
 10
-36.06903076288933
 20
24.75
 30
0
 40
4.569030762889084
 50
333.7514637544168
 51
26.24853624558338
  0
ARC
  8
1
 62
3
 10
-32.8189351873219
 20
21.71891108675446
 30
0
 40
1.318935187321648
 50
310.0000000000006
 51
50.00000000000036
  0
ARC
  8
1
 62
3
 10
-32.8189351873219
 20
27.78108891324554
 30
0
 40
1.318935187321665
 50
309.9999999999999
 51
50.00000000000005
  0
ARC
  8
1
 62
3
 10
-30.13096923711114
 20
24.75
 30
0
 40
4.569030762889098
 50
153.7514637544167
 51
206.2485362455832
  0
ARC
  8
1
 62
3
 10
-33.38106481267857
 20
27.78108891324554
 30
0
 40
1.318935187321674
 50
130.0000000000004
 51
229.9999999999996
  0
ARC
  8
1
 62
3
 10
-33.38106481267857
 20
21.71891108675446
 30
0
 40
1.318935187321682
 50
130.0000000000001
 51
229.999999999999
  0
ARC
  8
1
 62
3
 10
-4.800000000000004
 20
24.75
 30
0
 40
6.400000000000002
 50
321.3178125465105
 51
339.8944902120841
  0
ARC
  8
1
 62
3
 10
-4.800000000000004
 20
24.75
 30
0
 40
6.400000000000004
 50
4.929936937182092
 51
20.10550978791617
  0
ARC
  8
1
 62
3
 10
-4.800000000000004
 20
24.75
 30
0
 40
6.400000000000012
 50
20.10550978791617
 51
38.68218745348943
  0
ARC
  8
1
 62
3
 10
-4.800000000000004
 20
24.75
 30
0
 40
6.4
 50
339.8944902120841
 51
355.0700630628182
  0
ARC
  8
1
 62
3
 10
152
 20
0
 30
0
 40
15
 50
283.4933988215517
 51
289.4712206344908
  0
ARC
  8
1
 62
3
 10
152
 20
0
 30
0
 40
16.99999999999977
 50
346.8368671305224
 51
13.16313286947487
  0
ARC
  8
1
 62
3
 10
152
 20
0
 30
0
 40
18.58741151126299
 50
336.1486304767327
 51
23.85136952326478
  0
ARC
  8
1
 62
3
 10
152
 20
0
 30
0
 40
16.99999999999964
 50
166.836867130526
 51
193.1631328694759
  0
ARC
  8
1
 62
3
 10
152
 20
0
 30
0
 40
16.99999999999996
 50
322.5719944569577
 51
333.2948684805347
  0
ARC
  8
1
 62
3
 10
152
 20
0
 30
0
 40
17.00000000000004
 50
142.5719944569573
 51
153.2948684805375
  0
ARC
  8
1
 62
3
 10
152
 20
0
 30
0
 40
18.58741151126263
 50
156.1486304767352
 51
203.8513695232674
  0
ARC
  8
1
 62
3
 10
152
 20
0
 30
0
 40
18.59999999999923
 50
24.77513543450833
 51
155.2248645654919
  0
ARC
  8
1
 62
3
 10
152
 20
0
 30
0
 40
16.99999999999938
 50
142.5719944569602
 51
153.2948684805375
  0
ARC
  8
1
 62
3
 10
152
 20
0
 30
0
 40
9.000000000000048
 50
218.9424412689818
 51
321.0575587310182
  0
ARC
  8
1
 62
3
 10
152
 20
0
 30
0
 40
8.999999999999993
 50
38.94244126898133
 51
141.0575587310187
  0
ARC
  8
1
 62
3
 10
152
 20
0
 30
0
 40
17.00000000000023
 50
26.7051315194625
 51
37.4280055430421
  0
ARC
  8
1
 62
3
 10
152
 20
0
 30
0
 40
18.59999999999982
 50
204.7751354345108
 51
335.224864565489
  0
ARC
  8
1
 62
3
 10
152
 20
0
 30
0
 40
17.00000000000066
 50
206.7051315194654
 51
217.4280055430432
  0
ARC
  8
1
 62
3
 10
152
 20
0
 30
0
 40
15.00000000000002
 50
103.4933988215517
 51
109.4712206344907
  0
ARC
  8
1
 62
3
 10
145
 20
13.99999999999997
 30
0
 40
2
 50
270
 51
0
  0
ARC
  8
1
 62
3
 10
152
 20
0
 30
0
 40
16.59999999999995
 50
65.05887524107143
 51
72.47001826692684
  0
ARC
  8
1
 62
3
 10
159
 20
-14.00000000000003
 30
0
 40
2
 50
90
 51
180
  0
ARC
  8
1
 62
3
 10
152
 20
0
 30
0
 40
16.60000000000057
 50
245.0588752410725
 51
252.470018266927
  0
ARC
  8
1
 62
3
 10
152
 20
0
 30
0
 40
15.5999999999999
 50
71.30605907667685
 51
108.6939409233231
  0
ARC
  8
1
 62
3
 10
152
 20
0
 30
0
 40
15.60000000000003
 50
251.306059076677
 51
288.693940923323
  0
ARC
  8
1
 62
1
 10
152
 20
0
 30
0
 40
14.99999999999962
 50
40.17099333070856
 51
59.97163327045762
  0
ARC
  8
1
 62
1
 10
152
 20
0
 30
0
 40
14.99999999999975
 50
300.0283667295423
 51
319.8290066692912
  0
ARC
  8
1
 62
1
 10
152
 20
0
 30
0
 40
14.99999999999977
 50
120.0283667295428
 51
139.8290066692922
  0
ARC
  8
1
 62
1
 10
152
 20
0
 30
0
 40
14.99999999999989
 50
220.1709933307081
 51
239.9716332704574
  0
ARC
  8
1
 62
3
 10
152
 20
0
 30
0
 40
15.00000000000001
 50
80.40593177313956
 51
99.59406822686044
  0
ARC
  8
1
 62
3
 10
152
 20
0
 30
0
 40
14.99999999999997
 50
62.18186071534601
 51
76.50660117844834
  0
ARC
  8
1
 62
3
 10
152
 20
0
 30
0
 40
15.00000000000012
 50
242.1818607153463
 51
256.5066011784483
  0
ARC
  8
1
 62
3
 10
152
 20
0
 30
0
 40
14.99999999999999
 50
260.4059317731395
 51
279.5940682268604
  0
ARC
  8
1
 62
3
 10
43.38571428569713
 20
0
 30
0
 40
4.814285714300428
 50
328.7155070856889
 51
31.28449291431106
  0
ARC
  8
1
 62
3
 10
-43.50000000000023
 20
27.5
 30
0
 40
15
 50
270
 51
284.8351115819802
  0
ARC
  8
1
 62
3
 10
-151.0029411764706
 20
-24.50294117647059
 30
0
 40
0.7029473295325234
 50
0.239729896080919
 51
89.76027010391704
  0
ARC
  8
1
 62
3
 10
-148.9970588235294
 20
-24.50294117647059
 30
0
 40
0.7029473295324981
 50
89.76027010392863
 51
179.7602701039191
  0
ARC
  8
1
 62
3
 10
-148.9970588235294
 20
-22.49705882352936
 30
0
 40
0.7029473295325237
 50
180.239729896085
 51
270.2397298960714
  0
ARC
  8
1
 62
3
 10
-151.0029411764706
 20
-22.49705882352936
 30
0
 40
0.7029473295325484
 50
270.2397298960829
 51
359.7602701039151
  0
ARC
  8
1
 62
3
 10
-130.5029411764704
 20
11.49705882352941
 30
0
 40
0.7029473295324097
 50
0.2397298960809578
 51
89.76027010392632
  0
ARC
  8
1
 62
3
 10
-128.4970588235293
 20
11.49705882352941
 30
0
 40
0.7029473295325007
 50
89.76027010391009
 51
179.7602701039191
  0
ARC
  8
1
 62
3
 10
-128.4970588235293
 20
13.50294117647064
 30
0
 40
0.7029473295325237
 50
180.2397298960851
 51
270.2397298960899
  0
ARC
  8
1
 62
3
 10
-130.5029411764704
 20
13.50294117647064
 30
0
 40
0.7029473295325515
 50
270.2397298960736
 51
359.7602701039148
  0
ARC
  8
1
 62
3
 10
-171.5029411764705
 20
11.49705882352941
 30
0
 40
0.7029473295325234
 50
0.239729896080919
 51
89.76027010391707
  0
ARC
  8
1
 62
3
 10
-169.4970588235293
 20
11.49705882352941
 30
0
 40
0.7029473295325004
 50
89.76027010391707
 51
179.7602701039191
  0
ARC
  8
1
 62
3
 10
-169.4970588235293
 20
13.50294117647064
 30
0
 40
0.7029473295325237
 50
180.2397298960851
 51
270.2397298960829
  0
ARC
  8
1
 62
3
 10
-171.5029411764705
 20
13.50294117647064
 30
0
 40
0.7029473295325519
 50
270.2397298960829
 51
359.7602701039149
  0
CIRCLE
  8
1
 62
3
 10
152
 20
0
 30
0
 40
3.75
  0
CIRCLE
  8
1
 62
3
 10
152
 20
0
 30
0
 40
8
  0
CIRCLE
  8
1
 62
3
 10
161.641814145298
 20
11.49066664678458
 30
0
 40
1.5
  0
CIRCLE
  8
1
 62
3
 10
142.3581858547021
 20
11.49066664678458
 30
0
 40
1.5
  0
CIRCLE
  8
1
 62
3
 10
161.641814145298
 20
-11.49066664678475
 30
0
 40
1.25
  0
CIRCLE
  8
1
 62
3
 10
161.641814145298
 20
-11.49066664678475
 30
0
 40
1.5
  0
CIRCLE
  8
1
 62
3
 10
142.3581858547021
 20
-11.49066664678475
 30
0
 40
1.25
  0
CIRCLE
  8
1
 62
3
 10
142.3581858547021
 20
-11.49066664678475
 30
0
 40
1.5
  0
CIRCLE
  8
1
 62
3
 10
161.641814145298
 20
11.49066664678458
 30
0
 40
1.25
  0
CIRCLE
  8
1
 62
3
 10
142.3581858547021
 20
11.49066664678458
 30
0
 40
1.25
  0
CIRCLE
  8
1
 62
3
 10
145
 20
13.99999999999997
 30
0
 40
0.8499999999999091
  0
CIRCLE
  8
1
 62
3
 10
159
 20
-14.00000000000003
 30
0
 40
0.8500000000001933
  0
CIRCLE
  8
1
 62
3
 10
152
 20
0
 30
0
 40
2
  0
CIRCLE
  8
1
 62
2
 10
46.6105632507356
 20
13.44634928422205
 30
0
 40
2.5
  0
CIRCLE
  8
1
 62
3
 10
61.90000000000015
 20
0
 30
0
 40
0.650000000000091
  0
CIRCLE
  8
1
 62
3
 10
-150
 20
10
 30
0
 40
9.000000000000114
  0
CIRCLE
  8
1
 62
3
 10
-125.2499999999999
 20
-24.75
 30
0
 40
5.75
  0
CIRCLE
  8
1
 62
3
 10
-125.2499999999999
 20
24.75
 30
0
 40
5.75
  0
CIRCLE
  8
1
 62
3
 10
-174.7499999999999
 20
24.75
 30
0
 40
5.75
  0
CIRCLE
  8
1
 62
3
 10
-174.7499999999999
 20
-24.75
 30
0
 40
5.75
  0
CIRCLE
  8
1
 62
3
 10
-150
 20
-23.5
 30
0
 40
2.999999999999886
  0
CIRCLE
  8
1
 62
3
 10
-150
 20
10
 30
0
 40
5.249999999999886
  0
CIRCLE
  8
1
 62
3
 10
-150
 20
10
 30
0
 40
3
  0
CIRCLE
  8
1
 62
3
 10
-129.4999999999999
 20
12.5
 30
0
 40
3.000000000000085
  0
CIRCLE
  8
1
 62
3
 10
-170.4999999999999
 20
12.5
 30
0
 40
3
  0
CIRCLE
  8
1
 62
3
 10
-150
 20
10
 30
0
 40
2.499999999999801
  0
CIRCLE
  8
1
 62
3
 10
-125.2499999999999
 20
-24.75
 30
0
 40
1.621113800000003
  0
CIRCLE
  8
1
 62
3
 10
-125.2499999999999
 20
-24.75
 30
0
 40
3.5
  0
CIRCLE
  8
1
 62
2
 10
-125.2499999999999
 20
-24.75
 30
0
 40
2
  0
CIRCLE
  8
1
 62
2
 10
-125.2499999999999
 20
24.75
 30
0
 40
2
  0
CIRCLE
  8
1
 62
3
 10
-125.2499999999999
 20
24.75
 30
0
 40
3.5
  0
CIRCLE
  8
1
 62
3
 10
-125.2499999999999
 20
24.75
 30
0
 40
1.621113800000003
  0
CIRCLE
  8
1
 62
2
 10
-174.7499999999999
 20
-24.75
 30
0
 40
2.000000000000227
  0
CIRCLE
  8
1
 62
3
 10
-174.7499999999999
 20
-24.75
 30
0
 40
3.500000000000227
  0
CIRCLE
  8
1
 62
3
 10
-174.7499999999999
 20
-24.75
 30
0
 40
1.621113800000217
  0
CIRCLE
  8
1
 62
3
 10
-174.7499999999999
 20
24.75
 30
0
 40
1.621113800000217
  0
CIRCLE
  8
1
 62
3
 10
-174.7499999999999
 20
24.75
 30
0
 40
3.500000000000227
  0
CIRCLE
  8
1
 62
2
 10
-174.7499999999999
 20
24.75
 30
0
 40
2.000000000000227
  0
ARC
  8
1
 62
3
 10
166.1641669840199
 20
6.537306299139971
 30
0
 40
3.000000000000759
 50
344.9346282372066
 51
24.77513543450611
  0
ARC
  8
1
 62
3
 10
152.8999999999999
 20
-9.900000000000148
 30
0
 40
0.5
 50
90
 51
180
  0
ARC
  8
1
 62
3
 10
152.8999999999999
 20
-13.40000000000015
 30
0
 40
0.5
 50
179.9999999999864
 51
270
  0
ARC
  8
1
 62
3
 10
151.0999999999999
 20
-13.40000000000015
 30
0
 40
0.5000000000008811
 50
270
 51
0
  0
ARC
  8
1
 62
3
 10
151.0999999999999
 20
-9.900000000000148
 30
0
 40
0.5
 50
0
 51
90
  0
ARC
  8
1
 62
3
 10
152.8999999999999
 20
9.899999999998983
 30
0
 40
0.5
 50
180
 51
270
  0
ARC
  8
1
 62
3
 10
152.8999999999999
 20
13.39999999999895
 30
0
 40
0.5
 50
90
 51
180
  0
ARC
  8
1
 62
3
 10
151.0999999999999
 20
13.39999999999895
 30
0
 40
0.5
 50
0
 51
90
  0
ARC
  8
1
 62
3
 10
151.0999999999999
 20
9.899999999998983
 30
0
 40
0.5
 50
270
 51
0
  0
ARC
  8
1
 62
3
 10
166.1641669840199
 20
-6.537306299140937
 30
0
 40
3.000000000000057
 50
335.2248645654939
 51
15.0653717627934
  0
ARC
  8
1
 62
3
 10
170.0999999999999
 20
0
 30
0
 40
2.499999999999329
 50
164.109732977175
 51
195.8902670228507
  0
ARC
  8
1
 62
3
 10
170.0999999999999
 20
0
 30
0
 40
2.499999999999329
 50
164.109732977175
 51
195.8902670228507
  0
ARC
  8
1
 62
3
 10
164.9533015717168
 20
6.51628562849595
 30
0
 40
2.500000000000158
 50
345.3442593026068
 51
26.70513151946816
  0
ARC
  8
1
 62
3
 10
171
 20
0
 30
0
 40
5.000000000000034
 50
166.6758163180803
 51
193.3241836819308
  0
ARC
  8
1
 62
3
 10
164.9533015717168
 20
-6.516285628497144
 30
0
 40
2.50000000000068
 50
333.2948684805371
 51
14.65574069742092
  0
ARC
  8
1
 62
3
 10
139.046698428283
 20
-6.516285628497116
 30
0
 40
2.500000000000467
 50
165.3442593025797
 51
206.7051315194661
  0
ARC
  8
1
 62
3
 10
133
 20
0
 30
0
 40
5.000000000000181
 50
346.6758163180691
 51
13.32418368191988
  0
ARC
  8
1
 62
3
 10
133
 20
0
 30
0
 40
5.000000000000181
 50
346.6758163180691
 51
13.32418368191988
  0
ARC
  8
1
 62
3
 10
137.83583301598
 20
-6.537306299140909
 30
0
 40
3.000000000000827
 50
164.9346282372081
 51
204.7751354345059
  0
ARC
  8
1
 62
3
 10
133.8999999999999
 20
0
 30
0
 40
2.499999999999757
 50
344.1097329771501
 51
15.89026702282424
  0
ARC
  8
1
 62
3
 10
133.8999999999999
 20
0
 30
0
 40
2.499999999999757
 50
344.1097329771501
 51
15.89026702282424
  0
ARC
  8
1
 62
3
 10
137.83583301598
 20
6.537306299139999
 30
0
 40
3.000000000000123
 50
155.2248645654951
 51
195.0653717627935
  0
ARC
  8
1
 62
3
 10
139.046698428283
 20
6.516285628495979
 30
0
 40
2.500000000000604
 50
153.2948684805304
 51
194.6557406973938
  0
ARC
  8
1
 62
3
 10
162
 20
-6
 30
0
 40
1
 50
270
 51
0
  0
ARC
  8
1
 62
3
 10
160
 20
-6
 30
0
 40
1
 50
180
 51
270
  0
ARC
  8
1
 62
3
 10
144
 20
-6.000000000000028
 30
0
 40
1
 50
270
 51
0
  0
ARC
  8
1
 62
3
 10
142
 20
-6.000000000000028
 30
0
 40
1
 50
180
 51
270
  0
ARC
  8
1
 62
3
 10
161
 20
-11.00000000000003
 30
0
 40
2.000000000000002
 50
90
 51
180
  0
ARC
  8
1
 62
3
 10
143
 20
-11.00000000000003
 30
0
 40
2
 50
0
 51
90
  0
ARC
  8
1
 62
3
 10
144
 20
5.999999999999972
 30
0
 40
1
 50
0
 51
90
  0
ARC
  8
1
 62
3
 10
142
 20
5.999999999999972
 30
0
 40
1
 50
90
 51
180
  0
ARC
  8
1
 62
3
 10
162
 20
6
 30
0
 40
1
 50
0
 51
90
  0
ARC
  8
1
 62
3
 10
160
 20
6
 30
0
 40
0.9999999999999716
 50
90
 51
180
  0
ARC
  8
1
 62
3
 10
143
 20
10.99999999999997
 30
0
 40
1.999999999999998
 50
270
 51
0
  0
ARC
  8
1
 62
3
 10
161
 20
10.99999999999997
 30
0
 40
2
 50
180
 51
270
  0
ARC
  8
1
 62
3
 10
2
 20
-16.60000000000002
 30
0
 40
2
 50
180
 51
270
  0
ARC
  8
1
 62
3
 10
2
 20
16.59999999999999
 30
0
 40
2
 50
90
 51
180
  0
ARC
  8
1
 62
3
 10
57.7000000000001
 20
7
 30
0
 40
1
 50
0
 51
90
  0
ARC
  8
1
 62
3
 10
57.7000000000001
 20
-7
 30
0
 40
1
 50
270
 51
0
  0
ARC
  8
1
 62
3
 10
-1
 20
19.5
 30
0
 40
0.5
 50
180
 51
270
  0
ARC
  8
1
 62
3
 10
-0.5
 20
18.5
 30
0
 40
0.4999999999999991
 50
0
 51
90
  0
ARC
  8
1
 62
3
 10
-1
 20
-19.5
 30
0
 40
0.5
 50
90
 51
180
  0
ARC
  8
1
 62
3
 10
-0.5
 20
-18.5
 30
0
 40
0.5
 50
270
 51
0
  0
ARC
  8
1
 62
3
 10
-29.50000000000012
 20
29.5
 30
0
 40
1
 50
90
 51
180
  0
ARC
  8
1
 62
3
 10
-29.50000000000023
 20
20
 30
0
 40
1
 50
180
 51
270
  0
ARC
  8
1
 62
3
 10
-29.50000000000023
 20
-20
 30
0
 40
1
 50
90
 51
180
  0
ARC
  8
1
 62
3
 10
-29.50000000000023
 20
-29.5
 30
0
 40
1
 50
180
 51
270
  0
ARC
  8
1
 62
3
 10
-1.400000000000006
 20
21.34999999999998
 30
0
 40
0.09999999999999409
 50
180
 51
275.0000000000044
  0
ARC
  8
1
 62
3
 10
-150.2
 20
-22.09999999999997
 30
0
 40
0.09999999999996945
 50
90
 51
180
  0
ARC
  8
1
 62
3
 10
-149.8
 20
-22.09999999999997
 30
0
 40
0.1000000000000227
 50
0
 51
90
  0
ARC
  8
1
 62
3
 10
-148.6
 20
-23.30000000000001
 30
0
 40
0.09999999999999432
 50
0
 51
90
  0
ARC
  8
1
 62
3
 10
-148.6
 20
-23.69999999999999
 30
0
 40
0.1000000000000227
 50
270
 51
0
  0
ARC
  8
1
 62
3
 10
-149.8
 20
-24.89999999999998
 30
0
 40
0.1000000000000192
 50
270
 51
0
  0
ARC
  8
1
 62
3
 10
-150.2
 20
-24.89999999999998
 30
0
 40
0.1000000000000227
 50
180
 51
270
  0
ARC
  8
1
 62
3
 10
-151.4
 20
-23.69999999999999
 30
0
 40
0.09999999999999432
 50
180
 51
270
  0
ARC
  8
1
 62
3
 10
-151.4
 20
-23.30000000000001
 30
0
 40
0.1000000000000227
 50
90
 51
180
  0
ARC
  8
1
 62
3
 10
-129.6999999999999
 20
13.90000000000003
 30
0
 40
0.09999999999996945
 50
90
 51
180
  0
ARC
  8
1
 62
3
 10
-129.2999999999999
 20
13.90000000000003
 30
0
 40
0.09999999999999432
 50
0
 51
90
  0
ARC
  8
1
 62
3
 10
-128.0999999999998
 20
12.69999999999999
 30
0
 40
0.09999999999989484
 50
0
 51
90
  0
ARC
  8
1
 62
3
 10
-128.0999999999998
 20
12.30000000000001
 30
0
 40
0.1000000000000192
 50
270
 51
0
  0
ARC
  8
1
 62
3
 10
-129.2999999999999
 20
11.10000000000002
 30
0
 40
0.1000000000000192
 50
270
 51
0
  0
ARC
  8
1
 62
3
 10
-129.6999999999999
 20
11.10000000000002
 30
0
 40
0.09999999999999432
 50
180
 51
270
  0
ARC
  8
1
 62
3
 10
-130.8999999999998
 20
12.30000000000001
 30
0
 40
0.1000000000000796
 50
180
 51
270
  0
ARC
  8
1
 62
3
 10
-130.8999999999998
 20
12.69999999999999
 30
0
 40
0.1000000000000192
 50
90
 51
180
  0
ARC
  8
1
 62
3
 10
-170.6999999999999
 20
13.90000000000003
 30
0
 40
0.09999999999996945
 50
90
 51
180
  0
ARC
  8
1
 62
3
 10
-170.2999999999999
 20
13.90000000000003
 30
0
 40
0.09999999999999432
 50
0
 51
90
  0
ARC
  8
1
 62
3
 10
-169.0999999999999
 20
12.69999999999999
 30
0
 40
0.1000000000000227
 50
0
 51
90
  0
ARC
  8
1
 62
3
 10
-169.0999999999999
 20
12.30000000000001
 30
0
 40
0.1000000000000192
 50
270
 51
0
  0
ARC
  8
1
 62
3
 10
-170.2999999999999
 20
11.10000000000002
 30
0
 40
0.1000000000000192
 50
270
 51
0
  0
ARC
  8
1
 62
3
 10
-170.6999999999999
 20
11.10000000000002
 30
0
 40
0.09999999999999432
 50
180
 51
270
  0
ARC
  8
1
 62
3
 10
-171.8999999999999
 20
12.30000000000001
 30
0
 40
0.09999999999999432
 50
180
 51
270
  0
ARC
  8
1
 62
3
 10
-171.8999999999999
 20
12.69999999999999
 30
0
 40
0.1000000000000192
 50
90
 51
180
  0
TEXT
  8
1
 62
2
 10
-46.79790898710522
 20
94.6040240094393
 30
0
 40
4
  1
ＤＭＥ３７Ｋ６ＨＰＡ　＋　６ＤＧ
 41
0.9
  0
TEXT
  8
1
 62
2
 10
-46.79790898710522
 20
86.6040240094393
 30
0
 40
4
  1
ＤＭＥ３７Ｋ６ＨＰＢ　＋　６ＤＧ
 41
0.9
  0
ENDSEC
  0
EOF
