  0
SECTION
  2
HEADER
  9
$ACADVER
  1
AC1009
  9
$INSBASE
 10
0
 20
0
  9
$EXTMIN
 10
-175.338567723565
 20
1.704340841064653
  9
$EXTMAX
 10
167.5482851951169
 20
99.80784586446229
  9
$LIMMIN
 10
-175.338567723565
 20
1.704340841064653
  9
$LIMMAX
 10
167.5482851951169
 20
99.80784586446229
  9
$VIEWCTR
 10
10
 20
10
  9
$VIEWSIZE
 40
10
  9
$SNAPMODE
 70
0
  9
$SNAPUNIT
 10
1
 20
1
  9
$SNAPBASE
 10
0
 20
0
  9
$SNAPANG
 50
0
  9
$SNAPSTYLE
 70
0
  9
$SNAPISOPAIR
 70
0
  9
$GRIDMODE
 70
0
  9
$GRIDUNIT
 10
0
 20
0
  9
$ORTHOMODE
 70
0
  9
$REGENMODE
 70
1
  9
$FILLMODE
 70
1
  9
$QTEXTMODE
 70
0
  9
$DRAGMODE
 70
2
  9
$LTSCALE
 40
1
  9
$OSMODE
 70
0
  9
$ATTMODE
 70
1
  9
$TEXTSIZE
 40
3.5
  9
$TRACEWID
 40
0.5
  9
$TEXTSTYLE
  7
STANDARD
  9
$CLAYER
  8
0
  9
$CELTYPE
  6
BYLAYER
  9
$CECOLOR
 62
256
  9
$DIMSCALE
 40
1
  9
$DIMASZ
 40
0.18
  9
$DIMEXO
 40
0.0625
  9
$DIMDLI
 40
0.38
  9
$DIMRND
 40
0
  9
$DIMDLE
 40
0
  9
$DIMEXE
 40
0.18
  9
$DIMTP
 40
0
  9
$DIMTM
 40
0
  9
$DIMTXT
 40
0.18
  9
$DIMCEN
 40
0.09
  9
$DIMTSZ
 40
0
  9
$DIMTOL
 70
0
  9
$DIMLIM
 70
0
  9
$DIMTIH
 70
1
  9
$DIMTOH
 70
1
  9
$DIMSE1
 70
0
  9
$DIMSE2
 70
0
  9
$DIMTAD
 70
0
  9
$DIMZIN
 70
0
  9
$DIMBLK
  1

  9
$DIMASO
 70
1
  9
$DIMSHO
 70
1
  9
$DIMPOST
  1

  9
$DIMAPOST
  1

  9
$DIMALT
 70
0
  9
$DIMALTD
 70
2
  9
$DIMALTF
 40
25.4
  9
$DIMLFAC
 40
1
  9
$DIMTOFL
 70
0
  9
$DIMTVP
 40
0
  9
$DIMTIX
 70
0
  9
$DIMSOXD
 70
0
  9
$DIMSAH
 70
0
  9
$DIMBLK1
  1

  9
$DIMBLK2
  1

  9
$DIMSTYLE
  2
*UNNAMED
  9
$DIMCLRD
 70
0
  9
$DIMCLRE
 70
0
  9
$DIMCLRT
 70
0
  9
$DIMTFAC
 40
1
  9
$DIMGAP
 40
0.09
  9
$LUNITS
 70
2
  9
$LUPREC
 70
4
  9
$AXISMODE
 70
0
  9
$AXISUNIT
 10
0
 20
0
  9
$SKETCHINC
 40
0.1
  9
$FILLETRAD
 40
2
  9
$AUNITS
 70
0
  9
$AUPREC
 70
0
  9
$MENU
  1
ACAD
  9
$ELEVATION
 40
0
  9
$THICKNESS
 40
0
  9
$VIEWDIR
 10
0
 20
0
 30
1
  9
$LIMCHECK
 70
0
  9
$BLIPMODE
 70
1
  9
$CHAMFERA
 40
0
  9
$CHAMFERB
 40
0
  9
$FASTZOOM
 70
1
  9
$SKPOLY
 70
0
  9
$ANGBASE
 50
0
  9
$ANGDIR
 70
0
  9
$PDMODE
 70
0
  9
$PDSIZE
 40
0
  9
$PLINEWID
 40
0
  9
$COORDS
 70
2
  0
ENDSEC
  0
SECTION
  2
TABLES
  0
TABLE
  2
DIMSTYLE
 70
0
  0
ENDTAB
  0
TABLE
  2
LTYPE
 70
9
  0
LTYPE
  2
CONTINUOUS
 70
64
  3
Solid line
 72
65
 73
0
 40
0
  0
LTYPE
  2
BORDER
 70
64
  3
__ __ . __ __ .
 72
65
 73
6
 40
15.79084191072878
 49
4.511669117351079
 49
-2.255834558675539
 49
4.511669117351079
 49
-2.255834558675539
 49
0
 49
-2.255834558675539
  0
LTYPE
  2
CENTER
 70
64
  3
____ _ ____ _
 72
65
 73
4
 40
18.04667646940431
 49
11.2791727933777
 49
-2.255834558675539
 49
2.255834558675539
 49
-2.255834558675539
  0
LTYPE
  2
DASHDOT
 70
64
  3
__ . __ . __ .
 72
65
 73
4
 40
9.023338234702157
 49
4.511669117351079
 49
-2.255834558675539
 49
0
 49
-2.255834558675539
  0
LTYPE
  2
DASHED
 70
64
  3
__ __ __ __ __
 72
65
 73
2
 40
6.767503676026617
 49
4.511669117351079
 49
-2.255834558675539
  0
LTYPE
  2
DIVIDE
 70
64
  3
__ . . __ . . 
 72
65
 73
6
 40
11.2791727933777
 49
4.511669117351079
 49
-2.255834558675539
 49
0
 49
-2.255834558675539
 49
0
 49
-2.255834558675539
  0
LTYPE
  2
DOT
 70
64
  3
..............
 72
65
 73
4
 40
4.511669117351079
 49
0
 49
-2.255834558675539
 49
0
 49
-2.255834558675539
  0
LTYPE
  2
HIDDEN
 70
64
  3
_ _ _ _ _ _ _
 72
65
 73
2
 40
3.383751838013309
 49
2.255834558675539
 49
-1.12791727933777
  0
LTYPE
  2
PHANTOM
 70
64
  3
_____ _ _ _____ _ _ 
 72
65
 73
6
 40
22.55834558675539
 49
11.2791727933777
 49
-2.255834558675539
 49
2.255834558675539
 49
-2.255834558675539
 49
2.255834558675539
 49
-2.255834558675539
  0
ENDTAB
  0
TABLE
  2
LAYER
 70
4
  0
LAYER
  2
1
 70
0
 62
7
  6
CONTINUOUS
  0
LAYER
  2
CONSTRUCTION
 70
0
 62
7
  6
CONTINUOUS
  0
LAYER
  2
0
 70
0
 62
7
  6
CONTINUOUS
  0
ENDTAB
  0
TABLE
  2
STYLE
 70
4
  0
STYLE
  2
STANDARD
 70
0
 40
0
 41
1
 50
0
 71
0
 42
3.5
  3
txt
  4

  0
STYLE
  2
SIMPLEX
 70
0
 40
0
 41
1
 50
0
 71
0
 42
3.5
  3
simplex
  4

  0
STYLE
  2
COMPLEX
 70
0
 40
0
 41
1
 50
0
 71
0
 42
3.5
  3
complex
  4

  0
STYLE
  2
ITALIC
 70
0
 40
0
 41
1
 50
0
 71
0
 42
3.5
  3
italic
  4

  0
ENDTAB
  0
TABLE
  2
VIEW
 70
0
  0
ENDTAB
  0
ENDSEC
  0
SECTION
  2
BLOCKS
  0
ENDSEC
  0
SECTION
  2
ENTITIES
  0
LINE
  8
1
 62
3
 10
148.8021521823762
 20
31.72615528045645
 30
0
 11
149.0650170777323
 21
31.50558544371362
 31
0
  0
LINE
  8
1
 62
3
 10
150.8855291399139
 20
39.63800838484228
 30
0
 11
156.1469622642815
 21
35.22314179072153
 31
0
  0
LINE
  8
1
 62
3
 10
142.3037951971157
 20
46.83893817110565
 30
0
 11
147.5652283214832
 21
42.42407157698501
 31
0
  0
LINE
  8
1
 62
3
 10
141.0348021462453
 20
42.15995769899556
 30
0
 11
139.5027132600073
 21
43.44553291836884
 31
0
  0
LINE
  8
1
 62
3
 10
153.291513236149
 20
31.87535594401123
 30
0
 11
151.7594243499109
 21
33.160931163384
 31
0
  0
LINE
  8
1
 62
3
 10
153.8646331050628
 20
22.90930389272517
 30
0
 11
148.5706987615216
 21
27.35144224786731
 31
0
  0
LINE
  8
1
 62
3
 10
148.1992795285108
 20
26.35769269996655
 30
0
 11
153.3720469552676
 21
22.0172254600091
 31
0
  0
LINE
  8
1
 62
3
 10
144.0711854937158
 20
21.98913114603444
 30
0
 11
149.3651198372571
 21
17.5469927908923
 31
0
  0
LINE
  8
1
 62
3
 10
150.1581089068349
 20
18.18700324441423
 30
0
 11
144.9853414800781
 21
22.52747048437167
 31
0
  0
LINE
  8
1
 62
3
 10
135.8672888087095
 20
38.01086885396555
 30
0
 11
130.5733544651683
 21
42.4530072091077
 31
0
  0
LINE
  8
1
 62
3
 10
129.7803653955904
 20
41.81299675558584
 30
0
 11
134.9531328223472
 21
37.47252951562838
 31
0
  0
LINE
  8
1
 62
3
 10
131.7391947739145
 20
33.64230730003351
 30
0
 11
126.5664273471577
 21
37.98277453999096
 31
0
  0
LINE
  8
1
 62
3
 10
126.0738411973625
 20
37.09069610727482
 30
0
 11
131.3677755409038
 21
32.64855775213268
 31
0
  0
LINE
  8
1
 62
3
 10
138.9036721561802
 20
17.84004230100447
 30
0
 11
140.4357610424181
 21
16.55446708163121
 31
0
  0
LINE
  8
1
 62
3
 10
126.6469610662764
 20
28.12464405598886
 30
0
 11
128.1790499525145
 21
26.83906883661602
 31
0
  0
LINE
  8
1
 62
3
 10
129.052945162511
 20
20.3619916151582
 30
0
 11
123.7915120381434
 21
24.77685820927886
 31
0
  0
LINE
  8
1
 62
3
 10
137.6346791053092
 20
13.1610618288946
 30
0
 11
132.3732459809416
 21
17.5759284230154
 31
0
  0
LINE
  8
1
 62
2
 10
-56.82593852147793
 20
34.9999999999993
 30
0
 11
-56.82593852147793
 21
40.4999999999993
 31
0
  0
LINE
  8
1
 62
3
 10
-57.32593852147793
 20
35.4999999999993
 30
0
 11
-56.82593852147793
 21
34.9999999999993
 31
0
  0
LINE
  8
1
 62
2
 10
26.9798664339465
 20
12.77836863814103
 30
0
 11
6.979866433946498
 21
12.77836863814103
 31
0
  0
LINE
  8
1
 62
1
 10
57.97406147852199
 20
29.99999999999929
 30
0
 11
-34.32593852147792
 21
29.99999999999929
 31
0
  0
LINE
  8
1
 62
3
 10
-0.7259385214780103
 20
48.59999999999928
 30
0
 11
51.97406147852199
 21
48.59999999999928
 31
0
  0
LINE
  8
1
 62
3
 10
48.97406147852199
 20
43.64655491543493
 30
0
 11
48.974061478522
 21
48.59999999999928
 31
0
  0
LINE
  8
1
 62
1
 10
134.9692371512127
 20
47.91535654124679
 30
0
 11
134.9692371512127
 21
51.66
 31
0
  0
LINE
  8
1
 62
3
 10
51.97406147852199
 20
37.99999999999929
 30
0
 11
54.97406147852199
 21
37.99999999999929
 31
0
  0
LINE
  8
1
 62
3
 10
51.97406147852199
 20
11.39999999999927
 30
0
 11
-0.7259385214780103
 21
11.39999999999927
 31
0
  0
LINE
  8
1
 62
3
 10
55.97406147852199
 20
36.99999999999929
 30
0
 11
55.97406147852199
 21
24.87326593856697
 31
0
  0
LINE
  8
1
 62
2
 10
6.979866433946498
 20
47.22163136185756
 30
0
 11
26.9798664339465
 21
47.22163136185756
 31
0
  0
LINE
  8
1
 62
1
 10
-59.32593852147793
 20
37.9999999999993
 30
0
 11
-25.49515440181389
 21
37.9999999999993
 31
0
  0
LINE
  8
1
 62
3
 10
-57.32593852147793
 20
35.4999999999993
 30
0
 11
-57.32593852147793
 21
40.4999999999993
 31
0
  0
LINE
  8
1
 62
3
 10
-56.82593852147793
 20
34.9999999999993
 30
0
 11
-36.32593852147792
 21
34.9999999999993
 31
0
  0
LINE
  8
1
 62
3
 10
-57.32593852147793
 20
40.4999999999993
 30
0
 11
-45.32593852147792
 21
40.4999999999993
 31
0
  0
LINE
  8
1
 62
3
 10
-45.32593852147792
 20
40.9999999999993
 30
0
 11
-36.32593852147792
 21
40.9999999999993
 31
0
  0
LINE
  8
1
 62
3
 10
-45.32593852147792
 20
40.9999999999993
 30
0
 11
-45.32593852147792
 21
40.4999999999993
 31
0
  0
LINE
  8
1
 62
3
 10
-6.625938521478101
 20
7.874815910819752
 30
0
 11
-4.72593852147801
 21
7.874815910819752
 31
0
  0
LINE
  8
1
 62
3
 10
-4.72593852147801
 20
49.27817459305173
 30
0
 11
-6.625938521478101
 21
49.27817459305173
 31
0
  0
LINE
  8
1
 62
3
 10
-32.32593852147792
 20
54.9999999999993
 30
0
 11
-32.32593852147792
 21
4.999999999999194
 31
0
  0
LINE
  8
1
 62
3
 10
-32.32593852147792
 20
54.9999999999993
 30
0
 11
-10.72593852147801
 21
54.9999999999993
 31
0
  0
LINE
  8
1
 62
3
 10
-32.32593852147792
 20
43.9999999999993
 30
0
 11
-36.32593852147792
 21
43.9999999999993
 31
0
  0
LINE
  8
1
 62
3
 10
-36.32593852147792
 20
31.9999999999993
 30
0
 11
-32.32593852147792
 21
31.9999999999993
 31
0
  0
LINE
  8
1
 62
3
 10
-36.32593852147792
 20
43.9999999999993
 30
0
 11
-36.32593852147792
 21
31.9999999999993
 31
0
  0
LINE
  8
1
 62
3
 10
-28.32593852147792
 20
4.999999999999194
 30
0
 11
-28.32593852147792
 21
54.9999999999993
 31
0
  0
LINE
  8
1
 62
3
 10
-32.32593852147792
 20
4.999999999999194
 30
0
 11
-10.72593852147801
 21
4.999999999999194
 31
0
  0
LINE
  8
1
 62
3
 10
-7.625938521478101
 20
54.9999999999993
 30
0
 11
-9.22593852147801
 21
54.9999999999993
 31
0
  0
LINE
  8
1
 62
3
 10
-9.22593852147801
 20
4.999999999999194
 30
0
 11
-7.625938521478101
 21
4.999999999999194
 31
0
  0
LINE
  8
1
 62
3
 10
-9.22593852147801
 20
53.4999999999993
 30
0
 11
-9.22593852147801
 21
6.499999999999194
 31
0
  0
LINE
  8
1
 62
3
 10
-9.22593852147801
 20
4.999999999999194
 30
0
 11
-9.22593852147801
 21
54.9999999999993
 31
0
  0
LINE
  8
1
 62
3
 10
-7.625938521478101
 20
54.9999999999993
 30
0
 11
-7.625938521478101
 21
4.999999999999194
 31
0
  0
LINE
  8
1
 62
3
 10
-2.72593852147801
 20
47.27817459305173
 30
0
 11
-2.72593852147801
 21
9.874815910819745
 31
0
  0
LINE
  8
1
 62
1
 10
-128.3418790494534
 20
39.9999999999993
 30
0
 11
-127.3773352502753
 21
39.9999999999993
 31
0
  0
LINE
  8
1
 62
1
 10
-162.3418790494534
 20
39.9999999999993
 30
0
 11
-161.4335591608453
 21
39.9999999999993
 31
0
  0
LINE
  8
1
 62
1
 10
-145.3418790494534
 20
9.999999999999194
 30
0
 11
-144.3214406987104
 21
9.999999999999194
 31
0
  0
LINE
  8
1
 62
3
 10
-166.6418790494533
 20
31.39999999999916
 30
0
 11
-166.6418790494533
 21
30.9999999999993
 31
0
  0
LINE
  8
1
 62
3
 10
-167.2418790494535
 20
31.39999999999916
 30
0
 11
-167.2418790494535
 21
30.9999999999993
 31
0
  0
LINE
  8
1
 62
3
 10
-167.2418790494535
 20
28.59999999999921
 30
0
 11
-167.2418790494535
 21
28.9999999999993
 31
0
  0
LINE
  8
1
 62
3
 10
-168.3418790494534
 20
29.69999999999912
 30
0
 11
-167.9418790494535
 21
29.69999999999912
 31
0
  0
LINE
  8
1
 62
3
 10
-168.3418790494534
 20
30.29999999999925
 30
0
 11
-167.9418790494535
 21
30.29999999999925
 31
0
  0
LINE
  8
1
 62
3
 10
-168.4418790494535
 20
30.19999999999912
 30
0
 11
-168.4418790494535
 21
29.79999999999925
 31
0
  0
LINE
  8
1
 62
3
 10
-165.4418790494535
 20
30.19999999999912
 30
0
 11
-165.4418790494535
 21
29.79999999999925
 31
0
  0
LINE
  8
1
 62
3
 10
-167.1418790494533
 20
28.4999999999993
 30
0
 11
-166.7418790494535
 21
28.4999999999993
 31
0
  0
LINE
  8
1
 62
3
 10
-167.1418790494533
 20
31.4999999999993
 30
0
 11
-166.7418790494535
 21
31.4999999999993
 31
0
  0
LINE
  8
1
 62
3
 10
-166.6418790494533
 20
28.9999999999993
 30
0
 11
-166.6418790494533
 21
28.59999999999921
 31
0
  0
LINE
  8
1
 62
3
 10
-165.9418790494535
 20
29.69999999999912
 30
0
 11
-165.9359966965123
 21
29.69999999999912
 31
0
  0
LINE
  8
1
 62
3
 10
-165.9418790494535
 20
30.29999999999925
 30
0
 11
-165.9359966965123
 21
30.29999999999925
 31
0
  0
LINE
  8
1
 62
3
 10
-165.9359966965123
 20
29.69999999999912
 30
0
 11
-165.5418790494534
 21
29.69999999999912
 31
0
  0
LINE
  8
1
 62
3
 10
-165.9359966965123
 20
30.29999999999925
 30
0
 11
-165.5418790494534
 21
30.29999999999925
 31
0
  0
LINE
  8
1
 62
3
 10
-132.1418790494533
 20
16.89999999999928
 30
0
 11
-132.1418790494533
 21
16.49999999999919
 31
0
  0
LINE
  8
1
 62
3
 10
-132.7418790494534
 20
16.89999999999928
 30
0
 11
-132.7418790494534
 21
16.49999999999919
 31
0
  0
LINE
  8
1
 62
3
 10
-132.7418790494534
 20
14.09999999999921
 30
0
 11
-132.7418790494534
 21
14.49999999999919
 31
0
  0
LINE
  8
1
 62
3
 10
-133.8418790494534
 20
15.19999999999923
 30
0
 11
-133.4418790494535
 21
15.19999999999923
 31
0
  0
LINE
  8
1
 62
3
 10
-133.8418790494534
 20
15.79999999999925
 30
0
 11
-133.4418790494535
 21
15.79999999999925
 31
0
  0
LINE
  8
1
 62
3
 10
-133.9418790494535
 20
15.69999999999923
 30
0
 11
-133.9418790494535
 21
15.29999999999925
 31
0
  0
LINE
  8
1
 62
3
 10
-130.9418790494535
 20
15.69999999999923
 30
0
 11
-130.9418790494535
 21
15.29999999999925
 31
0
  0
LINE
  8
1
 62
3
 10
-132.6418790494533
 20
13.99999999999919
 30
0
 11
-132.2418790494534
 21
13.99999999999919
 31
0
  0
LINE
  8
1
 62
3
 10
-132.6418790494533
 20
16.9999999999992
 30
0
 11
-132.2418790494534
 21
16.9999999999992
 31
0
  0
LINE
  8
1
 62
3
 10
-132.1418790494533
 20
14.49999999999919
 30
0
 11
-132.1418790494533
 21
14.09999999999921
 31
0
  0
LINE
  8
1
 62
3
 10
-131.4418790494535
 20
15.19999999999923
 30
0
 11
-131.4359966965123
 21
15.19999999999923
 31
0
  0
LINE
  8
1
 62
3
 10
-131.4418790494535
 20
15.79999999999925
 30
0
 11
-131.4359966965123
 21
15.79999999999925
 31
0
  0
LINE
  8
1
 62
3
 10
-131.4359966965123
 20
15.19999999999923
 30
0
 11
-131.0418790494534
 21
15.19999999999923
 31
0
  0
LINE
  8
1
 62
3
 10
-131.4359966965123
 20
15.79999999999925
 30
0
 11
-131.0418790494534
 21
15.79999999999925
 31
0
  0
LINE
  8
1
 62
3
 10
-133.1418790494533
 20
47.39999999999916
 30
0
 11
-133.1418790494533
 21
46.9999999999993
 31
0
  0
LINE
  8
1
 62
3
 10
-133.7418790494534
 20
47.39999999999916
 30
0
 11
-133.7418790494534
 21
46.9999999999993
 31
0
  0
LINE
  8
1
 62
3
 10
-133.7418790494534
 20
44.59999999999921
 30
0
 11
-133.7418790494534
 21
44.9999999999993
 31
0
  0
LINE
  8
1
 62
3
 10
-134.8418790494534
 20
45.69999999999912
 30
0
 11
-134.4418790494535
 21
45.69999999999912
 31
0
  0
LINE
  8
1
 62
3
 10
-134.8418790494534
 20
46.29999999999925
 30
0
 11
-134.4418790494535
 21
46.29999999999925
 31
0
  0
LINE
  8
1
 62
3
 10
-134.9418790494535
 20
46.19999999999912
 30
0
 11
-134.9418790494535
 21
45.79999999999925
 31
0
  0
LINE
  8
1
 62
3
 10
-131.9418790494535
 20
46.19999999999912
 30
0
 11
-131.9418790494535
 21
45.79999999999925
 31
0
  0
LINE
  8
1
 62
3
 10
-133.6418790494533
 20
44.4999999999993
 30
0
 11
-133.2418790494534
 21
44.4999999999993
 31
0
  0
LINE
  8
1
 62
3
 10
-133.6418790494533
 20
47.4999999999993
 30
0
 11
-133.2418790494534
 21
47.4999999999993
 31
0
  0
LINE
  8
1
 62
3
 10
-133.1418790494533
 20
44.9999999999993
 30
0
 11
-133.1418790494533
 21
44.59999999999921
 31
0
  0
LINE
  8
1
 62
3
 10
-132.4418790494535
 20
45.69999999999912
 30
0
 11
-132.4359966965123
 21
45.69999999999912
 31
0
  0
LINE
  8
1
 62
3
 10
-132.4418790494535
 20
46.29999999999925
 30
0
 11
-132.4359966965123
 21
46.29999999999925
 31
0
  0
LINE
  8
1
 62
3
 10
-132.4359966965123
 20
45.69999999999912
 30
0
 11
-132.0418790494534
 21
45.69999999999912
 31
0
  0
LINE
  8
1
 62
3
 10
-132.4359966965123
 20
46.29999999999925
 30
0
 11
-132.0418790494534
 21
46.29999999999925
 31
0
  0
LINE
  8
1
 62
1
 10
-166.9418790494535
 20
34.01814386187424
 30
0
 11
-166.9418790494535
 21
26.01301992848424
 31
0
  0
LINE
  8
1
 62
1
 10
-132.4418790494535
 20
19.84533224455422
 30
0
 11
-132.4418790494535
 21
11.63068420933426
 31
0
  0
LINE
  8
1
 62
1
 10
-136.8850129340865
 20
15.49999999999919
 30
0
 11
-128.2566775877465
 21
15.49999999999919
 31
0
  0
LINE
  8
1
 62
1
 10
-133.4418790494535
 20
49.65814565739423
 30
0
 11
-133.4418790494535
 21
42.21651436954424
 31
0
  0
LINE
  8
1
 62
1
 10
-137.5757210399765
 20
45.9999999999993
 30
0
 11
-129.6651650408364
 21
45.9999999999993
 31
0
  0
LINE
  8
1
 62
3
 10
-148.6001914446315
 20
40.4999999999993
 30
0
 11
-145.2835666542753
 21
40.4999999999993
 31
0
  0
LINE
  8
1
 62
1
 10
-143.9418790494535
 20
37.9999999999993
 30
0
 11
-144.4418790494535
 21
37.9999999999993
 31
0
  0
LINE
  8
1
 62
1
 10
-118.5451903753419
 20
29.9999999999993
 30
0
 11
-175.338567723565
 21
29.9999999999993
 31
0
  0
LINE
  8
1
 62
1
 10
-140.2627742089385
 20
37.9999999999993
 30
0
 11
-143.9418790494535
 21
37.9999999999993
 31
0
  0
LINE
  8
1
 62
1
 10
-146.9418790494535
 20
57.66870091117168
 30
0
 11
-146.9418790494535
 21
1.704340841064653
 31
0
  0
LINE
  8
1
 62
1
 10
-166.3482540503385
 20
39.9999999999993
 30
0
 11
-162.3418790494534
 21
39.9999999999993
 31
0
  0
LINE
  8
1
 62
1
 10
-163.9418790494535
 20
42.41141786481715
 30
0
 11
-163.9418790494535
 21
37.47298048793526
 31
0
  0
LINE
  8
1
 62
1
 10
-129.9418790494535
 20
42.41141786481715
 30
0
 11
-129.9418790494535
 21
37.37801053838028
 31
0
  0
LINE
  8
1
 62
1
 10
-132.4819700388784
 20
39.9999999999993
 30
0
 11
-128.3418790494534
 21
39.9999999999993
 31
0
  0
LINE
  8
1
 62
1
 10
-149.3760766021073
 20
9.999999999999194
 30
0
 11
-145.3418790494534
 21
9.999999999999194
 31
0
  0
LINE
  8
1
 62
2
 10
26.9798664339465
 20
12.77836863814103
 30
0
 11
26.9798664339465
 21
47.22163136185756
 31
0
  0
LINE
  8
1
 62
2
 10
6.979866433946498
 20
47.22163136185756
 30
0
 11
6.979866433946498
 21
12.77836863814103
 31
0
  0
LINE
  8
1
 62
3
 10
48.97406147852199
 20
11.39999999999927
 30
0
 11
48.974061478522
 21
41.43484059608028
 31
0
  0
LINE
  8
1
 62
3
 10
51.97406147852199
 20
11.39999999999927
 30
0
 11
51.97406147852199
 21
48.59999999999928
 31
0
  0
LINE
  8
1
 62
3
 10
48.97406147852199
 20
27.8828166183022
 30
0
 11
51.97406147852199
 21
27.8828166183022
 31
0
  0
LINE
  8
1
 62
1
 10
128.8692371512128
 20
46.00000000000001
 30
0
 11
124.0692371512127
 21
46.00000000000001
 31
0
  0
LINE
  8
1
 62
1
 10
137.1292371512127
 20
49.50000000000001
 30
0
 11
132.8092371512128
 21
49.50000000000001
 31
0
  0
LINE
  8
1
 62
1
 10
125.4692371512127
 20
13.34
 30
0
 11
125.4692371512127
 21
17.66
 31
0
  0
LINE
  8
1
 62
1
 10
159.9692371512127
 20
27.84
 30
0
 11
159.9692371512127
 21
32.16
 31
0
  0
LINE
  8
1
 62
1
 10
121.4692371512127
 20
17.59999999999999
 30
0
 11
121.4692371512127
 21
22.40000000000001
 31
0
  0
LINE
  8
1
 62
1
 10
161.1192371512128
 20
22
 30
0
 11
156.7609017500546
 21
22
 31
0
  0
LINE
  8
1
 62
1
 10
141.9692371512127
 20
48.6
 30
0
 11
141.9692371512127
 21
53.40000000000001
 31
0
  0
LINE
  8
1
 62
1
 10
144.3692371512128
 20
51.00000000000001
 30
0
 11
139.5692371512127
 21
51.00000000000001
 31
0
  0
LINE
  8
1
 62
1
 10
112.7963390280269
 20
30
 30
0
 11
167.5482851951169
 21
30
 31
0
  0
LINE
  8
1
 62
1
 10
158.7192371512127
 20
19.59999999999999
 30
0
 11
158.7192371512127
 21
24.40000000000001
 31
0
  0
LINE
  8
1
 62
1
 10
127.6292371512127
 20
15.5
 30
0
 11
123.3092371512128
 21
15.5
 31
0
  0
LINE
  8
1
 62
1
 10
123.8692371512128
 20
20
 30
0
 11
119.0692371512127
 21
20
 31
0
  0
LINE
  8
1
 62
1
 10
126.4692371512127
 20
43.6
 30
0
 11
126.4692371512127
 21
48.40000000000001
 31
0
  0
LINE
  8
1
 62
3
 10
148.5199088968728
 20
25.56648979949625
 30
0
 11
147.748563765249
 21
24.64723646775345
 31
0
  0
LINE
  8
1
 62
3
 10
151.6457150860657
 20
22.29092333434675
 30
0
 11
151.9992482713926
 21
22.71224777806275
 31
0
  0
LINE
  8
1
 62
3
 10
151.9992482713926
 20
22.71224777806275
 30
0
 11
148.5520482773571
 21
25.60479202165219
 31
0
  0
LINE
  8
1
 62
3
 10
151.1957637592843
 20
21.75469222416408
 30
0
 11
151.9671088909089
 21
22.67394555590624
 31
0
  0
LINE
  8
1
 62
3
 10
147.8101921819652
 20
23.94282044135071
 30
0
 11
150.4913477328816
 21
21.69306380744786
 31
0
  0
LINE
  8
1
 62
3
 10
146.1415947410333
 20
22.73212535995542
 30
0
 11
145.7880615557051
 21
22.31080091624062
 31
0
  0
LINE
  8
1
 62
3
 10
145.7880615557051
 20
22.31080091624062
 30
0
 11
149.2352615497404
 21
19.41825667265119
 31
0
  0
LINE
  8
1
 62
3
 10
149.2352615497404
 20
19.41825667265119
 30
0
 11
149.588794735068
 21
19.8395811163666
 31
0
  0
LINE
  8
1
 62
3
 10
145.8202009361894
 20
22.34910313839654
 30
0
 11
146.5915460678133
 21
23.26835647013935
 31
0
  0
LINE
  8
1
 62
3
 10
147.295962094216
 20
23.32998488685553
 30
0
 11
149.9771176451324
 21
21.08022825295265
 31
0
  0
LINE
  8
1
 62
3
 10
150.0387460618486
 20
20.37581222654992
 30
0
 11
149.2674009302255
 21
19.45655889480653
 31
0
  0
LINE
  8
1
 62
3
 10
148.5520482773571
 20
25.60479202165219
 30
0
 11
148.1985150920295
 21
25.18346757793677
 31
0
  0
LINE
  8
1
 62
3
 10
151.9992482713926
 20
22.71224777806275
 30
0
 11
148.5520482773571
 21
25.60479202165219
 31
0
  0
LINE
  8
1
 62
3
 10
151.6457150860657
 20
22.29092333434675
 30
0
 11
151.9992482713926
 21
22.71224777806275
 31
0
  0
LINE
  8
1
 62
3
 10
145.7880615557051
 20
22.31080091624062
 30
0
 11
149.2352615497404
 21
19.41825667265119
 31
0
  0
LINE
  8
1
 62
3
 10
146.1415947410333
 20
22.73212535995542
 30
0
 11
145.7880615557051
 21
22.31080091624062
 31
0
  0
LINE
  8
1
 62
3
 10
149.2352615497404
 20
19.41825667265119
 30
0
 11
149.588794735068
 21
19.8395811163666
 31
0
  0
LINE
  8
1
 62
3
 10
151.6457150860657
 20
22.29092333434675
 30
0
 11
151.9992482713926
 21
22.71224777806275
 31
0
  0
LINE
  8
1
 62
3
 10
149.2352615497404
 20
19.41825667265119
 30
0
 11
149.588794735068
 21
19.8395811163666
 31
0
  0
LINE
  8
1
 62
3
 10
133.3469282346129
 20
36.73164352985981
 30
0
 11
134.1182733662367
 21
37.6508968616026
 31
0
  0
LINE
  8
1
 62
3
 10
130.7032127526857
 20
40.58174332734797
 30
0
 11
130.3496795673581
 21
40.16041888363255
 31
0
  0
LINE
  8
1
 62
3
 10
134.1504127467211
 20
37.68919908375855
 30
0
 11
130.7032127526857
 21
40.58174332734797
 31
0
  0
LINE
  8
1
 62
3
 10
130.6710733722014
 20
40.54344110519202
 30
0
 11
129.8997282405775
 21
39.62418777344924
 31
0
  0
LINE
  8
1
 62
3
 10
129.9613566572937
 20
38.91977174704649
 30
0
 11
132.6425122082102
 21
36.6700151131436
 31
0
  0
LINE
  8
1
 62
3
 10
131.3864260250691
 20
34.39520797834697
 30
0
 11
131.7399592103965
 21
34.81653242206236
 31
0
  0
LINE
  8
1
 62
3
 10
127.9392260310336
 20
37.28775222193639
 30
0
 11
131.3864260250691
 21
34.39520797834697
 31
0
  0
LINE
  8
1
 62
3
 10
128.2927592163612
 20
37.70907666565179
 30
0
 11
127.9392260310336
 21
37.28775222193639
 31
0
  0
LINE
  8
1
 62
3
 10
132.1899105371771
 20
35.35276353224568
 30
0
 11
131.4185654055532
 21
34.43351020050289
 31
0
  0
LINE
  8
1
 62
3
 10
129.4471265695445
 20
38.30693619255131
 30
0
 11
132.1282821204609
 21
36.05717955864841
 31
0
  0
LINE
  8
1
 62
3
 10
127.9713654115179
 20
37.32605444409231
 30
0
 11
128.7427105431418
 21
38.24530777583512
 31
0
  0
LINE
  8
1
 62
3
 10
133.7968795613935
 20
37.26787464004311
 30
0
 11
134.1504127467211
 21
37.68919908375855
 31
0
  0
LINE
  8
1
 62
3
 10
134.1504127467211
 20
37.68919908375855
 30
0
 11
130.7032127526857
 21
40.58174332734797
 31
0
  0
LINE
  8
1
 62
3
 10
130.7032127526857
 20
40.58174332734797
 30
0
 11
130.3496795673581
 21
40.16041888363255
 31
0
  0
LINE
  8
1
 62
3
 10
127.9392260310336
 20
37.28775222193639
 30
0
 11
131.3864260250691
 21
34.39520797834697
 31
0
  0
LINE
  8
1
 62
3
 10
131.3864260250691
 20
34.39520797834697
 30
0
 11
131.7399592103965
 21
34.81653242206236
 31
0
  0
LINE
  8
1
 62
3
 10
128.2927592163612
 20
37.70907666565179
 30
0
 11
127.9392260310336
 21
37.28775222193639
 31
0
  0
LINE
  8
1
 62
3
 10
131.0757642221283
 20
15.51186211897329
 30
0
 11
130.0451520288989
 21
14.28362633512072
 31
0
  0
LINE
  8
1
 62
3
 10
127.2455420065335
 20
18.72580016740599
 30
0
 11
126.214929813304
 21
17.49756438355342
 31
0
  0
LINE
  8
1
 62
3
 10
152.6929322958918
 20
41.27419983259387
 30
0
 11
153.7235444891213
 21
42.50243561644645
 31
0
  0
LINE
  8
1
 62
3
 10
148.862710080297
 20
44.48813788102656
 30
0
 11
149.8933222735265
 21
45.71637366487916
 31
0
  0
LINE
  8
1
 62
3
 10
150.5824790867631
 20
41.58349242058454
 30
0
 11
155.3464071517594
 21
39.36865007287619
 31
0
  0
LINE
  8
1
 62
3
 10
150.5824790867631
 20
41.58349242058454
 30
0
 11
155.3464071517594
 21
39.36865007287619
 31
0
  0
LINE
  8
1
 62
3
 10
146.5253388299708
 20
46.77040524827861
 30
0
 11
149.5337801727168
 21
42.46345529257682
 31
0
  0
LINE
  8
1
 62
3
 10
146.5253388299708
 20
46.77040524827861
 30
0
 11
149.5337801727168
 21
42.46345529257682
 31
0
  0
LINE
  8
1
 62
3
 10
146.5253388299708
 20
46.77040524827861
 30
0
 11
149.5337801727168
 21
42.46345529257682
 31
0
  0
LINE
  8
1
 62
3
 10
145.3429219321243
 20
45.5576120876616
 30
0
 11
148.1720626285012
 21
41.56841103737034
 31
0
  0
LINE
  8
1
 62
3
 10
149.9374923349967
 20
40.08703962178047
 30
0
 11
154.3573635839365
 21
37.99359742235694
 31
0
  0
LINE
  8
1
 62
3
 10
149.9374923349967
 20
40.08703962178047
 30
0
 11
154.3573635839365
 21
37.99359742235694
 31
0
  0
LINE
  8
1
 62
3
 10
134.5955523703009
 20
14.4423879123383
 30
0
 11
131.7664116739249
 21
18.43158896262894
 31
0
  0
LINE
  8
1
 62
3
 10
134.5955523703009
 20
14.4423879123383
 30
0
 11
131.7664116739249
 21
18.43158896262894
 31
0
  0
LINE
  8
1
 62
3
 10
130.0009819674293
 20
19.91296037821881
 30
0
 11
125.5811107184888
 21
22.00640257764298
 31
0
  0
LINE
  8
1
 62
3
 10
130.0009819674293
 20
19.91296037821881
 30
0
 11
125.5811107184888
 21
22.00640257764298
 31
0
  0
LINE
  8
1
 62
3
 10
133.4131354724552
 20
13.22959475172063
 30
0
 11
130.4046941297093
 21
17.53654470742234
 31
0
  0
LINE
  8
1
 62
3
 10
129.3559952156631
 20
18.41650757941461
 30
0
 11
124.5920671506667
 21
20.63134992712307
 31
0
  0
LINE
  8
1
 62
3
 10
129.3559952156631
 20
18.41650757941461
 30
0
 11
124.5920671506667
 21
20.63134992712307
 31
0
  0
LINE
  8
1
 62
3
 10
129.033497619577
 20
18.28965837832993
 30
0
 11
130.3357731728792
 21
17.19691944186279
 31
0
  0
LINE
  8
1
 62
3
 10
129.7066533476096
 20
16.44716362992548
 30
0
 11
130.3357731728792
 21
17.19691944186279
 31
0
  0
LINE
  8
1
 62
3
 10
128.4043777943073
 20
17.53990256639261
 30
0
 11
129.033497619577
 21
18.28965837832993
 31
0
  0
LINE
  8
1
 62
3
 10
149.6027011295462
 20
42.8030805581372
 30
0
 11
150.9049766828484
 21
41.71034162167008
 31
0
  0
LINE
  8
1
 62
3
 10
151.534096508118
 20
42.46009743360721
 30
0
 11
150.9049766828484
 21
41.71034162167008
 31
0
  0
LINE
  8
1
 62
3
 10
150.2318209548157
 20
43.55283637007435
 30
0
 11
149.6027011295462
 21
42.8030805581372
 31
0
  0
LINE
  8
1
 62
3
 10
147.0001560334229
 20
14.96250753377417
 30
0
 11
143.8962127577157
 21
17.56702519161523
 31
0
  0
LINE
  8
1
 62
3
 10
132.9383182690031
 20
45.03749246622544
 30
0
 11
136.0422615447097
 21
42.43297480838479
 31
0
  0
LINE
  8
1
 62
3
 10
131.1363221200494
 20
28.27384471954353
 30
0
 11
130.8734572246931
 21
28.49441455628641
 31
0
  0
LINE
  8
1
 62
3
 10
155.5412698700518
 20
34.55651149492735
 30
0
 11
158.4483479125092
 21
32.11718338169775
 31
0
  0
LINE
  8
1
 62
3
 10
138.1860044085153
 20
13.87331153071496
 30
0
 11
141.0930824509726
 21
11.43398341748548
 31
0
  0
LINE
  8
1
 62
3
 10
150.4738491305379
 20
31.62884227714606
 30
0
 11
151.7594243499109
 21
33.160931163384
 31
0
  0
LINE
  8
1
 62
3
 10
140.0659905421208
 20
20.78096324004794
 30
0
 11
139.8031256467646
 21
21.00153307679079
 31
0
  0
LINE
  8
1
 62
3
 10
126.00417345659
 20
27.35859961287012
 30
0
 11
139.7929734327315
 21
15.78842263851242
 31
0
  0
LINE
  8
1
 62
3
 10
138.9036721561802
 20
17.84004230100447
 30
0
 11
140.1892473755533
 21
19.37213118724243
 31
0
  0
LINE
  8
1
 62
3
 10
127.0432350090982
 20
31.70835260471912
 30
0
 11
126.2771905659792
 21
32.35114021440565
 31
0
  0
LINE
  8
1
 62
3
 10
129.4646251718876
 20
28.37115772285397
 30
0
 11
128.1790499525145
 21
26.83906883661602
 31
0
  0
LINE
  8
1
 62
3
 10
139.7492269268721
 20
40.62786881275761
 30
0
 11
141.0348021462453
 21
42.15995769899556
 31
0
  0
LINE
  8
1
 62
3
 10
139.8724837603045
 20
39.21903675995208
 30
0
 11
140.1353486556608
 21
38.99846692320921
 31
0
  0
LINE
  8
1
 62
3
 10
152.6487256264623
 20
31.10931150089195
 30
0
 11
155.5412698700518
 21
34.55651149492735
 31
0
  0
LINE
  8
1
 62
3
 10
153.9343008458354
 20
32.64140038712988
 30
0
 11
140.1455008696939
 21
44.21157736148761
 31
0
  0
LINE
  8
1
 62
3
 10
141.7524698939102
 20
46.12668846928506
 30
0
 11
138.8599256503208
 21
42.67948847524966
 31
0
  0
LINE
  8
1
 62
3
 10
141.0785486521046
 20
17.32051152475035
 30
0
 11
138.1860044085153
 21
13.87331153071496
 31
0
  0
LINE
  8
1
 62
3
 10
121.4901263899163
 20
27.88281661830223
 30
0
 11
124.3972044323736
 21
25.44348850507268
 31
0
  0
LINE
  8
1
 62
3
 10
138.8453918514529
 20
48.56601658251449
 30
0
 11
141.7524698939102
 21
46.12668846928506
 31
0
  0
LINE
  8
1
 62
3
 10
124.3972044323736
 20
25.44348850507268
 30
0
 11
127.2897486759631
 21
28.89068849910808
 31
0
  0
LINE
  8
1
 62
3
 10
131.8633294393149
 20
43.32870061807195
 30
0
 11
129.4592158747281
 21
45.34599142342501
 31
0
  0
LINE
  8
1
 62
3
 10
153.9077974033111
 20
24.83119567998333
 30
0
 11
156.9071345245629
 21
22.31445300776467
 31
0
  0
LINE
  8
1
 62
3
 10
148.0751448631106
 20
16.67129938192797
 30
0
 11
150.4792584276975
 21
14.65400857657491
 31
0
  0
LINE
  8
1
 62
3
 10
153.6612837364462
 20
27.64885978559438
 30
0
 11
152.8952392933272
 21
28.29164739528091
 31
0
  0
LINE
  8
1
 62
3
 10
126.0306768991143
 20
35.16880432001669
 30
0
 11
123.0313397778627
 21
37.68554699223525
 31
0
  0
LINE
  8
1
 62
1
 10
147.1363189992175
 20
38.54139554077651
 30
0
 11
147.97194289181
 21
39.53725331683117
 31
0
  0
LINE
  8
1
 62
1
 10
131.9665314106153
 20
20.46274668316871
 30
0
 11
132.8021553032077
 21
21.45860445922334
 31
0
  0
LINE
  8
1
 62
1
 10
129.8966294579394
 20
26.34426879186206
 30
0
 11
138.3231183322482
 21
19.27360508531013
 31
0
  0
LINE
  8
1
 62
1
 10
150.2468284919334
 20
33.48372950516713
 30
0
 11
141.8203396176247
 21
40.55439321171907
 31
0
  0
LINE
  8
1
 62
1
 10
136.9686144675452
 20
47.01737687341476
 30
0
 11
137.7613305699505
 21
42.52166045372769
 31
0
  0
LINE
  8
1
 62
1
 10
152.6840644009251
 20
30.00000000000011
 30
0
 11
157.2491344929671
 21
29.99999999999982
 31
0
  0
LINE
  8
1
 62
1
 10
127.2544099015001
 20
29.99999999999976
 30
0
 11
122.6893398094582
 21
30.00000000000006
 31
0
  0
LINE
  8
1
 62
1
 10
142.96985983488
 20
12.98262312658511
 30
0
 11
142.1771437324749
 21
17.47833954627218
 31
0
  0
LINE
  8
1
 62
1
 10
139.9692371512127
 20
2.827101876814212
 30
0
 11
139.9692371512127
 21
57.57904804390421
 31
0
  0
LINE
  8
1
 62
3
 10
132.043399306783
 20
24.2491983633751
 30
0
 11
132.3647931116262
 21
24.63222058493459
 31
0
  0
LINE
  8
1
 62
3
 10
135.6821104115982
 20
21.19595721736398
 30
0
 11
136.0035042164414
 21
21.57897943892355
 31
0
  0
LINE
  8
1
 62
3
 10
131.1874744885288
 20
26.31360582981158
 30
0
 11
131.5508708908124
 21
25.31518242022658
 31
0
  0
LINE
  8
1
 62
3
 10
130.717628178136
 20
26.14259575814903
 30
0
 11
131.1874744885288
 21
26.31360582981158
 31
0
  0
LINE
  8
1
 62
3
 10
131.1268465910189
 20
25.01827740912718
 30
0
 11
130.717628178136
 21
26.14259575814903
 31
0
  0
LINE
  8
1
 62
3
 10
136.8174264372553
 20
20.89601760363165
 30
0
 11
137.8637846748308
 21
20.71151641486047
 31
0
  0
LINE
  8
1
 62
3
 10
137.8637846748308
 20
20.71151641486047
 30
0
 11
137.7769605859975
 21
20.21911253835459
 31
0
  0
LINE
  8
1
 62
3
 10
137.7769605859975
 20
20.21911253835459
 30
0
 11
136.5986631273621
 21
20.42687817161188
 31
0
  0
LINE
  8
1
 62
3
 10
136.290770882611
 20
21.33793408529108
 30
0
 11
135.9693770777677
 21
20.95491186373151
 31
0
  0
LINE
  8
1
 62
3
 10
132.0775264454566
 20
24.87326593856703
 30
0
 11
131.7561326406133
 21
24.49024371700754
 31
0
  0
LINE
  8
1
 62
3
 10
137.2778154727416
 20
19.79173132462422
 30
0
 11
137.6313486580693
 21
20.21305576833963
 31
0
  0
LINE
  8
1
 62
3
 10
130.3834154846708
 20
25.57681981180311
 30
0
 11
137.2778154727416
 21
19.79173132462422
 31
0
  0
LINE
  8
1
 62
3
 10
130.7369486699985
 20
25.9981442555186
 30
0
 11
130.3834154846708
 21
25.57681981180311
 31
0
  0
LINE
  8
1
 62
3
 10
130.7848264476934
 20
25.95797002991314
 30
0
 11
130.7369486699985
 21
25.9981442555186
 31
0
  0
LINE
  8
1
 62
3
 10
137.6313486580693
 20
20.21305576833963
 30
0
 11
137.5834708803744
 21
20.25322999394508
 31
0
  0
LINE
  8
1
 62
3
 10
136.8174264372553
 20
20.89601760363165
 30
0
 11
131.5508708908124
 21
25.31518242022658
 31
0
  0
LINE
  8
1
 62
3
 10
131.1268465910189
 20
25.01827740912718
 30
0
 11
136.5986631273621
 21
20.42687817161188
 31
0
  0
LINE
  8
1
 62
3
 10
143.9349700859841
 20
38.4210205610763
 30
0
 11
144.2563638908274
 21
38.80404278263588
 31
0
  0
LINE
  8
1
 62
3
 10
147.5736811907992
 20
35.36777941506533
 30
0
 11
147.8950749956425
 21
35.75080163662479
 31
0
  0
LINE
  8
1
 62
3
 10
143.1210478651702
 20
39.10398239636835
 30
0
 11
142.0746896275946
 21
39.28848358513945
 31
0
  0
LINE
  8
1
 62
3
 10
142.0746896275946
 20
39.28848358513945
 30
0
 11
142.1615137164281
 21
39.78088746164546
 31
0
  0
LINE
  8
1
 62
3
 10
142.1615137164281
 20
39.78088746164546
 30
0
 11
143.3398111750634
 21
39.57312182838798
 31
0
  0
LINE
  8
1
 62
3
 10
148.7509998138967
 20
33.68639417018834
 30
0
 11
148.3876034116132
 21
34.68481757977337
 31
0
  0
LINE
  8
1
 62
3
 10
149.2208461242896
 20
33.85740424185106
 30
0
 11
148.7509998138967
 21
33.68639417018834
 31
0
  0
LINE
  8
1
 62
3
 10
148.8116277114066
 20
34.98172259087268
 30
0
 11
149.2208461242896
 21
33.85740424185106
 31
0
  0
LINE
  8
1
 62
3
 10
148.1823416618121
 20
35.50975628299231
 30
0
 11
147.8609478569689
 21
35.12673406143283
 31
0
  0
LINE
  8
1
 62
3
 10
143.9690972246577
 20
39.04508813626835
 30
0
 11
143.6477034198144
 21
38.66206591470878
 31
0
  0
LINE
  8
1
 62
3
 10
149.2015256324271
 20
34.00185574448129
 30
0
 11
149.5550588177546
 21
34.42318018819681
 31
0
  0
LINE
  8
1
 62
3
 10
149.5550588177546
 20
34.42318018819681
 30
0
 11
142.6606588296838
 21
40.20826867537569
 31
0
  0
LINE
  8
1
 62
3
 10
142.6606588296838
 20
40.20826867537569
 30
0
 11
142.3071256443562
 21
39.78694423166023
 31
0
  0
LINE
  8
1
 62
3
 10
142.3071256443562
 20
39.78694423166023
 30
0
 11
142.3550034220511
 21
39.74677000605477
 31
0
  0
LINE
  8
1
 62
3
 10
149.1536478547321
 20
34.04202997008669
 30
0
 11
149.2015256324271
 21
34.00185574448129
 31
0
  0
LINE
  8
1
 62
3
 10
143.1210478651702
 20
39.10398239636835
 30
0
 11
148.3876034116132
 21
34.68481757977337
 31
0
  0
LINE
  8
1
 62
3
 10
148.8116277114066
 20
34.98172259087268
 30
0
 11
143.3398111750634
 21
39.57312182838798
 31
0
  0
LINE
  8
1
 62
3
 10
53.37406147852202
 20
39.04508813626864
 30
0
 11
56.02406147852217
 21
39.04508813626835
 31
0
  0
LINE
  8
1
 62
2
 10
53.37406147852197
 20
38.72634467567731
 30
0
 11
51.97406147852199
 21
38.7263446756776
 31
0
  0
LINE
  8
1
 62
3
 10
53.37406147852197
 20
38.72634467567731
 30
0
 11
56.02406147852189
 21
38.72634467567742
 31
0
  0
LINE
  8
1
 62
3
 10
53.37406147852197
 20
39.28848358513945
 30
0
 11
53.37406147852197
 21
38.72634467567731
 31
0
  0
LINE
  8
1
 62
3
 10
52.37406147852202
 20
39.78088746164546
 30
0
 11
51.97406147852199
 21
39.2187485521834
 31
0
  0
LINE
  8
1
 62
3
 10
52.37406147852197
 20
39.28848358513944
 30
0
 11
51.97406147852199
 21
38.7263446756776
 31
0
  0
LINE
  8
1
 62
3
 10
53.37406147852202
 20
39.78088746164546
 30
0
 11
52.37406147852202
 21
39.78088746164546
 31
0
  0
LINE
  8
1
 62
3
 10
53.37406147852197
 20
39.28848358513945
 30
0
 11
53.37406147852202
 21
39.78088746164546
 31
0
  0
LINE
  8
1
 62
3
 10
52.37406147852197
 20
39.28848358513944
 30
0
 11
53.37406147852197
 21
39.28848358513945
 31
0
  0
LINE
  8
1
 62
3
 10
52.37406147852202
 20
39.78088746164546
 30
0
 11
52.37406147852197
 21
39.28848358513944
 31
0
  0
LINE
  8
1
 62
3
 10
56.02406147852183
 20
24.49024371700754
 30
0
 11
53.37406147852197
 21
24.49024371700754
 31
0
  0
LINE
  8
1
 62
3
 10
53.37406147852197
 20
20.21911253835459
 30
0
 11
53.37406147852197
 21
20.95491186373149
 31
0
  0
LINE
  8
1
 62
3
 10
52.37406147852197
 20
20.21911253835459
 30
0
 11
53.37406147852197
 21
20.21911253835459
 31
0
  0
LINE
  8
1
 62
3
 10
51.97406147852199
 20
20.95491186373146
 30
0
 11
52.37406147852197
 21
20.21911253835459
 31
0
  0
LINE
  8
1
 62
3
 10
52.37406147852197
 20
26.31360582981158
 30
0
 11
51.97406147852198
 21
24.6612537886701
 31
0
  0
LINE
  8
1
 62
3
 10
52.37406147852197
 20
26.31360582981158
 30
0
 11
52.37406147852197
 21
26.14259575814903
 31
0
  0
LINE
  8
1
 62
3
 10
53.37406147852197
 20
26.31360582981158
 30
0
 11
52.37406147852197
 21
26.31360582981158
 31
0
  0
LINE
  8
1
 62
3
 10
53.37406147852197
 20
24.87326593856697
 30
0
 11
56.02406147852217
 21
24.87326593856697
 31
0
  0
LINE
  8
1
 62
3
 10
52.37406147852197
 20
26.14259575814903
 30
0
 11
51.97406147852198
 21
24.49024371700755
 31
0
  0
LINE
  8
1
 62
3
 10
53.37406147852197
 20
26.14259575814903
 30
0
 11
52.37406147852197
 21
26.14259575814903
 31
0
  0
LINE
  8
1
 62
3
 10
53.37406147852197
 20
24.49024371700754
 30
0
 11
53.37406147852197
 21
26.31360582981158
 31
0
  0
LINE
  8
1
 62
3
 10
56.0240614785222
 20
20.95491186373151
 30
0
 11
53.37406147852197
 21
20.95491186373149
 31
0
  0
LINE
  8
1
 62
3
 10
62.37406147852202
 20
38.00394711022457
 30
0
 11
62.37406147852201
 21
36.1446248022976
 31
0
  0
LINE
  8
1
 62
3
 10
62.37406147852202
 20
23.98533380114723
 30
0
 11
62.37406147852202
 21
23.83212491252345
 31
0
  0
LINE
  8
1
 62
3
 10
61.374061478522
 20
24.63222058493472
 30
0
 11
62.37406147852202
 21
23.98533380114723
 31
0
  0
LINE
  8
1
 62
3
 10
61.374061478522
 20
24.63222058493472
 30
0
 11
56.02406147852183
 21
24.6322205849346
 31
0
  0
LINE
  8
1
 62
3
 10
62.37406147852202
 20
38.15715599884835
 30
0
 11
62.37406147852202
 21
38.00394711022457
 31
0
  0
LINE
  8
1
 62
3
 10
61.37406147852202
 20
38.80404278263588
 30
0
 11
62.37406147852202
 21
38.15715599884835
 31
0
  0
LINE
  8
1
 62
3
 10
56.02406147852189
 20
35.06245530046411
 30
0
 11
55.97406147852199
 21
35.06245530046428
 31
0
  0
LINE
  8
1
 62
3
 10
56.02406147852189
 20
35.36777941506495
 30
0
 11
56.02406147852189
 21
35.06245530046411
 31
0
  0
LINE
  8
1
 62
3
 10
61.37406147852202
 20
38.80404278263588
 30
0
 11
61.37406147852201
 21
35.36777941506513
 31
0
  0
LINE
  8
1
 62
3
 10
61.37406147852201
 20
35.36777941506513
 30
0
 11
56.02406147852189
 21
35.36777941506495
 31
0
  0
LINE
  8
1
 62
3
 10
62.37406147852201
 20
36.1446248022976
 30
0
 11
61.37406147852201
 21
35.36777941506513
 31
0
  0
LINE
  8
1
 62
3
 10
62.37406147852202
 20
38.00394711022457
 30
0
 11
62.37406147852202
 21
37.81853179122505
 31
0
  0
LINE
  8
1
 62
3
 10
61.37406147852202
 20
38.4210205610763
 30
0
 11
62.37406147852202
 21
38.00394711022457
 31
0
  0
LINE
  8
1
 62
3
 10
56.02406147852189
 20
38.4210205610763
 30
0
 11
61.37406147852202
 21
38.4210205610763
 31
0
  0
LINE
  8
1
 62
3
 10
56.02406147852183
 20
21.19595721736398
 30
0
 11
56.0240614785222
 21
20.95491186373151
 31
0
  0
LINE
  8
1
 62
3
 10
56.02406147852183
 20
24.2491983633751
 30
0
 11
61.37406147852202
 21
24.2491983633751
 31
0
  0
LINE
  8
1
 62
3
 10
62.37406147852202
 20
23.83212491252345
 30
0
 11
62.37406147852202
 21
21.97280260459639
 31
0
  0
LINE
  8
1
 62
3
 10
61.37406147852202
 20
21.19595721736398
 30
0
 11
56.02406147852183
 21
21.19595721736398
 31
0
  0
LINE
  8
1
 62
3
 10
62.37406147852202
 20
23.83212491252345
 30
0
 11
61.37406147852202
 21
24.2491983633751
 31
0
  0
LINE
  8
1
 62
3
 10
61.37406147852202
 20
21.19595721736398
 30
0
 11
62.37406147852202
 21
21.97280260459639
 31
0
  0
LINE
  8
1
 62
3
 10
61.374061478522
 20
24.63222058493472
 30
0
 11
61.37406147852202
 21
21.19595721736398
 31
0
  0
LINE
  8
1
 62
3
 10
56.02406147852189
 20
38.80404278263588
 30
0
 11
61.37406147852202
 21
38.80404278263588
 31
0
  0
LINE
  8
1
 62
3
 10
56.02406147852217
 20
24.87326593856697
 30
0
 11
56.02406147852183
 21
24.2491983633751
 31
0
  0
LINE
  8
1
 62
3
 10
56.02406147852217
 20
39.04508813626835
 30
0
 11
56.02406147852189
 21
38.4210205610763
 31
0
  0
LINE
  8
1
 62
2
 10
53.37406147852197
 20
24.49024371700754
 30
0
 11
51.97406147852198
 21
24.49024371700755
 31
0
  0
LINE
  8
1
 62
2
 10
53.37406147852197
 20
20.95491186373149
 30
0
 11
51.97406147852199
 21
20.95491186373146
 31
0
  0
LINE
  8
1
 62
3
 10
47.21574445727366
 20
17.53654470742231
 30
0
 11
48.21574445727366
 21
17.53654470742231
 31
0
  0
LINE
  8
1
 62
3
 10
47.21574445727366
 20
18.41650757941457
 30
0
 11
48.21574445727366
 21
18.4165075794146
 31
0
  0
LINE
  8
1
 62
3
 10
46.27406147852194
 20
22.0732023265054
 30
0
 11
46.474061478522
 21
19.80784197545552
 31
0
  0
LINE
  8
1
 62
3
 10
46.474061478522
 20
19.80784197545552
 30
0
 11
46.47406147852199
 21
14.83097624039726
 31
0
  0
LINE
  8
1
 62
3
 10
46.47406147852199
 20
14.83097624039726
 30
0
 11
46.27406147852195
 21
12.05281123541244
 31
0
  0
LINE
  8
1
 62
3
 10
46.27406147852195
 20
12.05281123541244
 30
0
 11
44.27406147852194
 21
12.05281123541249
 31
0
  0
LINE
  8
1
 62
3
 10
44.27406147852194
 20
22.0732023265054
 30
0
 11
46.27406147852194
 21
22.0732023265054
 31
0
  0
LINE
  8
1
 62
3
 10
44.27406147852194
 20
14.28362633512069
 30
0
 11
44.27406147852194
 21
12.05281123541249
 31
0
  0
LINE
  8
1
 62
3
 10
44.27406147852194
 20
22.0732023265054
 30
0
 11
44.27406147852192
 21
18.72580016740602
 31
0
  0
LINE
  8
1
 62
1
 10
47.77406147852398
 20
16.94845483331665
 30
0
 11
44.74086747238287
 21
16.94845483331665
 31
0
  0
LINE
  8
1
 62
3
 10
44.768804071642
 20
17.53990256639264
 30
0
 11
46.47406147852199
 21
17.53990256639264
 31
0
  0
LINE
  8
1
 62
3
 10
44.89557863122304
 20
16.44716362992551
 30
0
 11
46.47406147852199
 21
16.44716362992551
 31
0
  0
LINE
  8
1
 62
3
 10
46.31005646075684
 20
12.55281123541249
 30
0
 11
44.27406147852194
 21
12.55281123541249
 31
0
  0
LINE
  8
1
 62
1
 10
44.74086747238287
 20
16.94845483331665
 30
0
 11
44.27406147852194
 21
16.94845483331665
 31
0
  0
LINE
  8
1
 62
3
 10
49.97406147852199
 20
37.68554699223529
 30
0
 11
51.97406147852199
 21
37.68554699223529
 31
0
  0
LINE
  8
1
 62
3
 10
49.97406147852199
 20
45.34599142342501
 30
0
 11
49.97406147852199
 21
37.68554699223529
 31
0
  0
LINE
  8
1
 62
3
 10
49.97406147852199
 20
45.34599142342501
 30
0
 11
51.97406147852199
 21
45.34599142342501
 31
0
  0
LINE
  8
1
 62
3
 10
46.374061478522
 20
41.43484059608028
 30
0
 11
48.974061478522
 21
41.43484059608028
 31
0
  0
LINE
  8
1
 62
3
 10
46.374061478522
 20
43.64655491543493
 30
0
 11
46.374061478522
 21
41.43484059608028
 31
0
  0
LINE
  8
1
 62
3
 10
48.97406147852199
 20
43.64655491543493
 30
0
 11
46.374061478522
 21
43.64655491543493
 31
0
  0
LINE
  8
1
 62
3
 10
48.97406147852199
 20
13.87331153071493
 30
0
 11
51.97406147852199
 21
13.87331153071493
 31
0
  0
LINE
  8
1
 62
1
 10
-144.4418790494535
 20
37.9999999999993
 30
0
 11
-153.7423619314245
 21
37.9999999999993
 31
0
  0
ARC
  8
1
 62
3
 10
139.9692371512127
 20
30
 30
0
 40
14.99999999999999
 50
112.181860715346
 51
126.5066011784489
  0
ARC
  8
1
 62
3
 10
139.9692371512127
 20
30
 30
0
 40
15
 50
130.40593177314
 51
149.5940682268607
  0
ARC
  8
1
 62
3
 10
139.9692371512127
 20
30
 30
0
 40
14.99999999999998
 50
310.40593177314
 51
329.5940682268608
  0
ARC
  8
1
 62
3
 10
139.9692371512127
 20
30
 30
0
 40
15.0000000000001
 50
292.1818607153462
 51
306.5066011784485
  0
ARC
  8
1
 62
3
 10
129.3440530620329
 20
32.84700949612773
 30
0
 40
9.99999999999989
 50
109.6108770984454
 51
220.3891229015597
  0
ARC
  8
1
 62
3
 10
147.7474117442648
 20
37.77817459305203
 30
0
 40
9.999999999999927
 50
349.6108770984414
 51
100.3891229015551
  0
ARC
  8
1
 62
3
 10
-167.9448202259243
 20
28.99705882352826
 30
0
 40
0.7029473295327242
 50
0.2397298961176267
 51
89.76027010390092
  0
ARC
  8
1
 62
3
 10
-165.9389378729834
 20
28.99705882352826
 30
0
 40
0.7029473295327849
 50
89.76027010387777
 51
179.7602701038821
  0
ARC
  8
1
 62
3
 10
-165.9389378729834
 20
31.00294117647034
 30
0
 40
0.7029473295318433
 50
180.2397298961179
 51
270.2397298961221
  0
ARC
  8
1
 62
3
 10
-167.9448202259243
 20
31.00294117647034
 30
0
 40
0.702947329533011
 50
270.239729896099
 51
359.7602701038824
  0
ARC
  8
1
 62
3
 10
-133.4448202259243
 20
14.49705882352826
 30
0
 40
0.7029473295328375
 50
0.2397298961086113
 51
89.76027010390095
  0
ARC
  8
1
 62
3
 10
-131.4389378729834
 20
14.49705882352826
 30
0
 40
0.7029473295328933
 50
89.7602701038778
 51
179.7602701038911
  0
ARC
  8
1
 62
3
 10
-131.4389378729834
 20
16.50294117647023
 30
0
 40
0.7029473295318433
 50
180.2397298961179
 51
270.2397298961222
  0
ARC
  8
1
 62
3
 10
-133.4448202259243
 20
16.50294117647023
 30
0
 40
0.7029473295329026
 50
270.2397298960991
 51
359.7602701038824
  0
ARC
  8
1
 62
3
 10
-134.4448202259243
 20
44.99705882352826
 30
0
 40
0.7029473295328379
 50
0.2397298961170088
 51
89.76027010390092
  0
ARC
  8
1
 62
3
 10
-132.4389378729834
 20
44.99705882352826
 30
0
 40
0.7029473295327814
 50
89.76027010387776
 51
179.7602701038827
  0
ARC
  8
1
 62
3
 10
-132.4389378729834
 20
47.00294117647034
 30
0
 40
0.7029473295318433
 50
180.2397298961179
 51
270.2397298961221
  0
ARC
  8
1
 62
3
 10
-134.4448202259243
 20
47.00294117647034
 30
0
 40
0.7029473295330074
 50
270.239729896099
 51
359.7602701038824
  0
ARC
  8
1
 62
3
 10
-146.9418790494535
 20
29.9999999999993
 30
0
 40
25
 50
180
 51
0
  0
ARC
  8
1
 62
3
 10
-146.9418790494535
 20
29.9999999999993
 30
0
 40
24.99999999999999
 50
0
 51
180
  0
ARC
  8
1
 62
3
 10
159.9692371512127
 20
30
 30
0
 40
1.349999999999908
 50
96.17922566920724
 51
90
  0
ARC
  8
1
 62
3
 10
159.9692371512127
 20
30
 30
0
 40
1.349999999999991
 50
90
 51
96.17922566920724
  0
ARC
  8
1
 62
3
 10
134.9692371512127
 20
49.50000000000001
 30
0
 40
1.500000000000021
 50
3.41369826489546
 51
0
  0
ARC
  8
1
 62
3
 10
142.8162466473405
 20
19.37481591082036
 30
0
 40
10.00000000000024
 50
229.6108770984445
 51
340.3891229015527
  0
ARC
  8
1
 62
3
 10
139.9692371512127
 20
30
 30
0
 40
14.99999999999999
 50
333.493398821552
 51
339.4712206344908
  0
ARC
  8
1
 62
3
 10
139.9692371512127
 20
30
 30
0
 40
16.99999999999972
 50
216.8368671305258
 51
243.1631328694756
  0
ARC
  8
1
 62
3
 10
139.9692371512127
 20
30
 30
0
 40
17.00000000000002
 50
12.57199445695756
 51
23.29486848053466
  0
ARC
  8
1
 62
3
 10
139.9692371512127
 20
30
 30
0
 40
16.99999999999984
 50
36.83686713052224
 51
63.1631328694749
  0
ARC
  8
1
 62
3
 10
139.9692371512127
 20
30
 30
0
 40
17.00000000000008
 50
192.5719944569572
 51
203.2948684805375
  0
ARC
  8
1
 62
3
 10
139.9692371512127
 20
30
 30
0
 40
9.000000000000014
 50
268.9424412689818
 51
11.05755873101818
  0
ARC
  8
1
 62
3
 10
139.9692371512127
 20
30
 30
0
 40
9.000000000000011
 50
88.94244126898171
 51
191.0575587310186
  0
ARC
  8
1
 62
3
 10
139.9692371512127
 20
30
 30
0
 40
17.0000000000002
 50
76.70513151946263
 51
87.42800554304209
  0
ARC
  8
1
 62
3
 10
139.9692371512127
 20
30
 30
0
 40
17.00000000000065
 50
256.7051315194651
 51
267.4280055430431
  0
ARC
  8
1
 62
3
 10
139.9692371512127
 20
30
 30
0
 40
14.99999999999996
 50
153.4933988215522
 51
159.4712206344905
  0
ARC
  8
1
 62
3
 10
124.7451016797412
 20
33.63671543377872
 30
0
 40
2.000000000000025
 50
320.0000000000011
 51
49.99999999999982
  0
ARC
  8
1
 62
3
 10
139.9692371512127
 20
30
 30
0
 40
16.59999999999995
 50
115.0588752410713
 51
122.4700182669272
  0
ARC
  8
1
 62
3
 10
155.1933726226842
 20
26.36328456622128
 30
0
 40
2.000000000000046
 50
140.0000000000004
 51
229.9999999999994
  0
ARC
  8
1
 62
3
 10
139.9692371512127
 20
30
 30
0
 40
16.60000000000056
 50
295.0588752410727
 51
302.4700182669273
  0
ARC
  8
1
 62
3
 10
139.9692371512127
 20
30
 30
0
 40
15.59999999999986
 50
121.3060590766767
 51
158.6939409233232
  0
ARC
  8
1
 62
3
 10
139.9692371512127
 20
30
 30
0
 40
15.59999999999999
 50
301.3060590766768
 51
338.6939409233231
  0
ARC
  8
1
 62
1
 10
139.9692371512127
 20
30
 30
0
 40
14.99999999999968
 50
90.1709933307084
 51
109.9716332704575
  0
ARC
  8
1
 62
1
 10
139.9692371512127
 20
30
 30
0
 40
14.99999999999971
 50
350.0283667295423
 51
9.829006669291305
  0
ARC
  8
1
 62
1
 10
139.9692371512127
 20
30
 30
0
 40
14.99999999999977
 50
170.0283667295428
 51
189.8290066692919
  0
ARC
  8
1
 62
1
 10
139.9692371512127
 20
30
 30
0
 40
14.99999999999986
 50
270.170993330708
 51
289.9716332704574
  0
ARC
  8
1
 62
3
 10
40.61878701079758
 20
16.50471325126335
 30
0
 40
4.277178804242081
 50
328.7155070856889
 51
31.28449291431132
  0
CIRCLE
  8
1
 62
3
 10
-146.9418790494535
 20
37.9999999999993
 30
0
 40
3
  0
CIRCLE
  8
1
 62
2
 10
44.63769374029403
 20
35.22729415995664
 30
0
 40
2.750000000000014
  0
CIRCLE
  8
1
 62
3
 10
141.9692371512127
 20
51.00000000000001
 30
0
 40
1.5
  0
CIRCLE
  8
1
 62
3
 10
126.4692371512127
 20
46.00000000000001
 30
0
 40
1.350000000000009
  0
CIRCLE
  8
1
 62
3
 10
121.4692371512127
 20
20
 30
0
 40
1.5
  0
CIRCLE
  8
1
 62
3
 10
125.4692371512127
 20
15.5
 30
0
 40
1.349999999999904
  0
CIRCLE
  8
1
 62
3
 10
-129.9418790494535
 20
39.9999999999993
 30
0
 40
1.60000000000008
  0
CIRCLE
  8
1
 62
3
 10
-163.9418790494535
 20
39.9999999999993
 30
0
 40
1.60000000000008
  0
CIRCLE
  8
1
 62
3
 10
-146.9418790494535
 20
9.999999999999194
 30
0
 40
1.60000000000008
  0
CIRCLE
  8
1
 62
3
 10
-166.9418790494535
 20
29.9999999999993
 30
0
 40
2.75
  0
CIRCLE
  8
1
 62
3
 10
-132.4418790494535
 20
15.49999999999919
 30
0
 40
2.75
  0
CIRCLE
  8
1
 62
3
 10
-133.4418790494535
 20
45.9999999999993
 30
0
 40
2.75
  0
CIRCLE
  8
1
 62
3
 10
-166.9418790494535
 20
29.9999999999993
 30
0
 40
3
  0
CIRCLE
  8
1
 62
3
 10
-132.4418790494535
 20
15.49999999999919
 30
0
 40
3
  0
CIRCLE
  8
1
 62
3
 10
-133.4418790494535
 20
45.9999999999993
 30
0
 40
3
  0
CIRCLE
  8
1
 62
3
 10
-146.9418790494535
 20
37.9999999999993
 30
0
 40
6
  0
CIRCLE
  8
1
 62
2
 10
-163.9418790494535
 20
39.9999999999993
 30
0
 40
2
  0
CIRCLE
  8
1
 62
2
 10
-129.9418790494535
 20
39.9999999999993
 30
0
 40
1.999999999999986
  0
CIRCLE
  8
1
 62
3
 10
139.9692371512127
 20
30
 30
0
 40
3.749999999999976
  0
CIRCLE
  8
1
 62
3
 10
139.9692371512127
 20
30
 30
0
 40
8.000000000000007
  0
CIRCLE
  8
1
 62
3
 10
137.3645144862087
 20
44.77211629518297
 30
0
 40
1.500000000000006
  0
CIRCLE
  8
1
 62
3
 10
124.9692371512129
 20
30.00000000000005
 30
0
 40
1.500000000000069
  0
CIRCLE
  8
1
 62
3
 10
154.9692371512127
 20
29.99999999999986
 30
0
 40
1.25000000000003
  0
CIRCLE
  8
1
 62
3
 10
154.9692371512127
 20
29.99999999999986
 30
0
 40
1.500000000000006
  0
CIRCLE
  8
1
 62
3
 10
142.5739598162168
 20
15.22788370481694
 30
0
 40
1.25000000000003
  0
CIRCLE
  8
1
 62
3
 10
142.5739598162168
 20
15.22788370481694
 30
0
 40
1.500000000000006
  0
CIRCLE
  8
1
 62
3
 10
137.3645144862087
 20
44.77211629518297
 30
0
 40
1.25000000000003
  0
CIRCLE
  8
1
 62
3
 10
124.9692371512129
 20
30.00000000000005
 30
0
 40
1.249999999999991
  0
CIRCLE
  8
1
 62
3
 10
124.7451016797412
 20
33.63671543377872
 30
0
 40
0.8499999999999195
  0
CIRCLE
  8
1
 62
3
 10
155.1933726226842
 20
26.36328456622128
 30
0
 40
0.850000000000075
  0
CIRCLE
  8
1
 62
3
 10
139.9692371512127
 20
30
 30
0
 40
2.000000000000018
  0
CIRCLE
  8
1
 62
3
 10
158.7192371512127
 20
22
 30
0
 40
1.5
  0
CIRCLE
  8
1
 62
3
 10
139.9692371512127
 20
30
 30
0
 40
25
  0
CIRCLE
  8
1
 62
3
 10
139.9692371512127
 20
30
 30
0
 40
18.60000000000004
  0
CIRCLE
  8
1
 62
2
 10
-146.9418790494535
 20
9.999999999999194
 30
0
 40
2
  0
CIRCLE
  8
1
 62
2
 10
-146.9418790494535
 20
37.9999999999993
 30
0
 40
2.5
  0
POLYLINE
  8
1
 62
3
 66
1
  0
VERTEX
  8
1
 10
58.5290672274986
 20
36.96185886785643
 30
0
 42
0.05641503938064053
  0
VERTEX
  8
1
 10
58.54879320227765
 20
36.87679580664135
 30
0
 42
0.05301231530509439
  0
VERTEX
  8
1
 10
58.58760677460711
 20
36.79570596045563
 30
0
 42
0.04855994869311441
  0
VERTEX
  8
1
 10
58.64427535880942
 20
36.72106130123366
 30
0
 42
0.04405735961490951
  0
VERTEX
  8
1
 10
58.71703668603026
 20
36.65510718170669
 30
0
 42
0.04012575114961604
  0
VERTEX
  8
1
 10
58.80366273175259
 20
36.5998133561987
 30
0
 42
0.03703674483096273
  0
VERTEX
  8
1
 10
58.90152310126274
 20
36.55682880892042
 30
0
 42
0.03485756434144213
  0
VERTEX
  8
1
 10
59.00765678924266
 20
36.52743717739321
 30
0
 42
0.0335716120926561
  0
VERTEX
  8
1
 10
59.11885613810055
 20
36.51251785831787
 30
0
 42
0.03314799211310922
  0
VERTEX
  8
1
 10
59.2317611999557
 20
36.51251785831799
 30
0
 42
0.03357353949372419
  0
VERTEX
  8
1
 10
59.34296054881358
 20
36.52743717739354
 30
0
 42
0.03486177766772613
  0
VERTEX
  8
1
 10
59.44909423679347
 20
36.55682880892076
 30
0
 42
0.03704398731375323
  0
VERTEX
  8
1
 10
59.54695460630363
 20
36.59981335619884
 30
0
 42
0.0401371084051499
  0
VERTEX
  8
1
 10
59.63358065202603
 20
36.65510718170674
 30
0
 42
0.04407386559788878
  0
VERTEX
  8
1
 10
59.70634197924685
 20
36.72106130123392
 30
0
 42
0.0485813172328936
  0
VERTEX
  8
1
 10
59.76301056344914
 20
36.79570596045597
 30
0
 42
0.05303469827017771
  0
VERTEX
  8
1
 10
59.8018241357786
 20
36.8767958066416
 30
0
 42
0.05643018323422247
  0
VERTEX
  8
1
 10
59.82155011055765
 20
36.96185886785662
 30
0
 42
0.02877218967893975
  0
VERTEX
  8
1
 10
59.82405043570161
 20
37.00506220993605
 30
0
  0
SEQEND
  8
1
  0
POLYLINE
  8
1
 62
3
 66
1
 70
1
  0
VERTEX
  8
1
 10
59.81892398328949
 20
37.03506165212389
 30
0
 42
0.02314791573777223
  0
VERTEX
  8
1
 10
59.8116508349277
 20
37.06431227085419
 30
0
 42
0.05218338461440187
  0
VERTEX
  8
1
 10
59.79907088457709
 20
37.09403428851681
 30
0
 42
0.00349741623995257
  0
VERTEX
  8
1
 10
59.78137189965442
 20
37.12331124629993
 30
0
 42
0.05636961197068193
  0
VERTEX
  8
1
 10
59.73474399685526
 20
37.17566596092056
 30
0
 42
0.04978997351724999
  0
VERTEX
  8
1
 10
59.70348254829308
 20
37.20147303488589
 30
0
 42
0.002116277972219486
  0
VERTEX
  8
1
 10
59.66806482436284
 20
37.22560801086853
 30
0
 42
0.03608533410035447
  0
VERTEX
  8
1
 10
59.59020642040591
 20
37.26644232077404
 30
0
 42
0.03244912457697486
  0
VERTEX
  8
1
 10
59.54450405223
 20
37.28490098398912
 30
0
 42
0.0009256149833609547
  0
VERTEX
  8
1
 10
59.49613396998436
 20
37.30105039519242
 30
0
 42
0.02649238792011272
  0
VERTEX
  8
1
 10
59.39547147044692
 20
37.32569238169992
 30
0
 42
0.02493388193591312
  0
VERTEX
  8
1
 10
59.34115271225052
 20
37.33471216457842
 30
0
 42
0.0002573863459044679
  0
VERTEX
  8
1
 10
59.285846429242
 20
37.34114276584692
 30
0
 42
0.02320647339452918
  0
VERTEX
  8
1
 10
59.17402705592511
 20
37.3462697119128
 30
0
 42
0.02295331378848321
  0
VERTEX
  8
1
 10
59.06220768260825
 20
37.34114276584702
 30
0
 42
0.02309667202026308
  0
VERTEX
  8
1
 10
59.00690139959973
 20
37.33471216457859
 30
0
 42
0.0005516952264474522
  0
VERTEX
  8
1
 10
58.9525826414033
 20
37.32569238170015
 30
0
 42
0.02563715571858572
  0
VERTEX
  8
1
 10
58.85192014186578
 20
37.30105039519265
 30
0
 42
0.02688919904214235
  0
VERTEX
  8
1
 10
58.80355005962016
 20
37.28490098398936
 30
0
 42
0.001432985088382497
  0
VERTEX
  8
1
 10
58.75784769144428
 20
37.26644232077425
 30
0
 42
0.03423917887978174
  0
VERTEX
  8
1
 10
58.6799892874874
 20
37.22560801086865
 30
0
 42
0.03734910603348988
  0
VERTEX
  8
1
 10
58.64457156355712
 20
37.20147303488605
 30
0
 42
0.002943524494621785
  0
VERTEX
  8
1
 10
58.61331011499494
 20
37.17566596092078
 30
0
 42
0.05337418853971844
  0
VERTEX
  8
1
 10
58.56668221219577
 20
37.12331124630018
 30
0
 42
0.06001187217264576
  0
VERTEX
  8
1
 10
58.5489832272731
 20
37.09403428851705
 30
0
 42
0.002755202664485924
  0
VERTEX
  8
1
 10
58.53640327692249
 20
37.06431227085444
 30
0
 42
0.07894576667651837
  0
VERTEX
  8
1
 10
58.52656690235469
 20
37.00506220992855
 30
0
 42
0.07903074068147292
  0
VERTEX
  8
1
 10
58.53640327692249
 20
36.94581214900265
 30
0
 42
0.07818531478861714
  0
VERTEX
  8
1
 10
58.5489832272731
 20
36.91609013133999
 30
0
 42
0.003497416240051272
  0
VERTEX
  8
1
 10
58.56668221219578
 20
36.8868131735568
 30
0
 42
0.0563696119709633
  0
VERTEX
  8
1
 10
58.61331011499494
 20
36.83445845893626
 30
0
 42
0.04978997351190561
  0
VERTEX
  8
1
 10
58.64457156355713
 20
36.80865138497088
 30
0
 42
0.002116277972538753
  0
VERTEX
  8
1
 10
58.6799892874874
 20
36.78451640898815
 30
0
 42
0.03608533410081424
  0
VERTEX
  8
1
 10
58.75784769144433
 20
36.74368209908262
 30
0
 42
0.03244912458000607
  0
VERTEX
  8
1
 10
58.80355005962022
 20
36.72522343586755
 30
0
 42
0.0009256149831286855
  0
VERTEX
  8
1
 10
58.85192014186583
 20
36.70907402466426
 30
0
 42
0.02649238792010077
  0
VERTEX
  8
1
 10
58.9525826414033
 20
36.6844320381568
 30
0
 42
0.02493388193388221
  0
VERTEX
  8
1
 10
59.00690139959973
 20
36.67541225527837
 30
0
 42
0.0002573863457934982
  0
VERTEX
  8
1
 10
59.06220768260825
 20
36.66898165400994
 30
0
 42
0.02320647339422574
  0
VERTEX
  8
1
 10
59.17402705592509
 20
36.66385470794406
 30
0
 42
0.02295331378859577
  0
VERTEX
  8
1
 10
59.28584642924199
 20
36.66898165400981
 30
0
 42
0.02309667203160135
  0
VERTEX
  8
1
 10
59.34115271225051
 20
36.67541225527828
 30
0
 42
0.0005516952264244522
  0
VERTEX
  8
1
 10
59.39547147044693
 20
36.68443203815678
 30
0
 42
0.02563715571850191
  0
VERTEX
  8
1
 10
59.49613396998437
 20
36.70907402466431
 30
0
 42
0.02688919903941614
  0
VERTEX
  8
1
 10
59.54450405223
 20
36.72522343586768
 30
0
 42
0.001432985088449207
  0
VERTEX
  8
1
 10
59.59020642040592
 20
36.74368209908283
 30
0
 42
0.03423917887955051
  0
VERTEX
  8
1
 10
59.66806482436284
 20
36.78451640898834
 30
0
 42
0.03734910603355163
  0
VERTEX
  8
1
 10
59.70348254829305
 20
36.8086513849709
 30
0
 42
0.002943524494667767
  0
VERTEX
  8
1
 10
59.73474399685522
 20
36.83445845893612
 30
0
 42
0.05337418854046257
  0
VERTEX
  8
1
 10
59.78137189965445
 20
36.88681317355661
 30
0
 42
0.06001187217122688
  0
VERTEX
  8
1
 10
59.79907088457709
 20
36.91609013133987
 30
0
 42
0.002755202664439421
  0
VERTEX
  8
1
 10
59.81165083492767
 20
36.94581214900256
 30
0
 42
0.07894576667660919
  0
VERTEX
  8
1
 10
59.82148720949555
 20
37.00506220992823
 30
0
  0
VERTEX
  8
1
 10
59.81892398328949
 20
37.03506165212389
 30
0
  0
SEQEND
  8
1
  0
POLYLINE
  8
1
 62
3
 66
1
 70
1
  0
VERTEX
  8
1
 10
59.82148716714184
 20
22.74938241396555
 30
0
 42
0.02319422093791207
  0
VERTEX
  8
1
 10
59.8141864329706
 20
22.77863053759129
 30
0
 42
0.05235370760086106
  0
VERTEX
  8
1
 10
59.80155415131556
 20
22.80835867486334
 30
0
 42
0.003530698040871908
  0
VERTEX
  8
1
 10
59.78377973342866
 20
22.83764249934573
 30
0
 42
0.0564001275840225
  0
VERTEX
  8
1
 10
59.73697774620749
 20
22.8899844212343
 30
0
 42
0.04976317250078659
  0
VERTEX
  8
1
 10
59.70558828651342
 20
22.91579578159194
 30
0
 42
0.002123444040465248
  0
VERTEX
  8
1
 10
59.67002672738123
 20
22.93993289261256
 30
0
 42
0.03600695432922195
  0
VERTEX
  8
1
 10
59.59187304980249
 20
22.98076082100857
 30
0
 42
0.03236080463009614
  0
VERTEX
  8
1
 10
59.54598781670622
 20
22.99922085181176
 30
0
 42
0.0009259559675235972
  0
VERTEX
  8
1
 10
59.49742554327199
 20
23.01537066607227
 30
0
 42
0.0264013080477069
  0
VERTEX
  8
1
 10
59.39637411165928
 20
23.04001076338435
 30
0
 42
0.02484251681545902
  0
VERTEX
  8
1
 10
59.34184082285226
 20
23.04903072229238
 30
0
 42
0.0002571822918129142
  0
VERTEX
  8
1
 10
59.28631712865946
 20
23.05546120619453
 30
0
 42
0.02311667924000777
  0
VERTEX
  8
1
 10
59.17406098897496
 20
23.0605878308751
 30
0
 42
0.02286373210605527
  0
VERTEX
  8
1
 10
59.0618048640018
 20
23.05546088407522
 30
0
 42
0.02300666719231018
  0
VERTEX
  8
1
 10
59.00628118826153
 20
23.04903024084769
 30
0
 42
0.0005514839271863743
  0
VERTEX
  8
1
 10
58.95174792533751
 20
23.04001012545626
 30
0
 42
0.02554599518831441
  0
VERTEX
  8
1
 10
58.85069656443002
 20
23.01536973817689
 30
0
 42
0.02679703992585556
  0
VERTEX
  8
1
 10
58.80213433733793
 20
22.99921978456686
 30
0
 42
0.001435230806532018
  0
VERTEX
  8
1
 10
58.75624915721298
 20
22.98075962209593
 30
0
 42
0.03415571496247491
  0
VERTEX
  8
1
 10
58.67809559679043
 20
22.93993146943787
 30
0
 42
0.03726934489062359
  0
VERTEX
  8
1
 10
58.64253410691991
 20
22.91579425637335
 30
0
 42
0.00296128007560862
  0
VERTEX
  8
1
 10
58.61114472129175
 20
22.88998280594366
 30
0
 42
0.05337969577792304
  0
VERTEX
  8
1
 10
58.56434288426607
 20
22.83764074975687
 30
0
 42
0.06005786299365703
  0
VERTEX
  8
1
 10
58.54656855040931
 20
22.80835687427085
 30
0
 42
0.00279163470326138
  0
VERTEX
  8
1
 10
58.53393635405931
 20
22.77862870075055
 30
0
 42
0.0792165290863027
  0
VERTEX
  8
1
 10
58.5240614785266
 20
22.71937846371438
 30
0
 42
0.0793035335320457
  0
VERTEX
  8
1
 10
58.533936524078
 20
22.66012825501445
 30
0
 42
0.07843964965941663
  0
VERTEX
  8
1
 10
58.54656880573303
 20
22.63040011774239
 30
0
 42
0.003530698041119627
  0
VERTEX
  8
1
 10
58.56434322361989
 20
22.60111629325999
 30
0
 42
0.05640012758419561
  0
VERTEX
  8
1
 10
58.61114521084107
 20
22.54877437137143
 30
0
 42
0.04976317250150547
  0
VERTEX
  8
1
 10
58.64253467053513
 20
22.52296301101378
 30
0
 42
0.002123444040552423
  0
VERTEX
  8
1
 10
58.6780962296673
 20
22.49882589999316
 30
0
 42
0.03600695432927928
  0
VERTEX
  8
1
 10
58.75624990724607
 20
22.45799797159715
 30
0
 42
0.0323608046341281
  0
VERTEX
  8
1
 10
58.80213514034233
 20
22.43953794079395
 30
0
 42
0.0009259559675174356
  0
VERTEX
  8
1
 10
58.85069741377657
 20
22.42338812653346
 30
0
 42
0.02640130804777447
  0
VERTEX
  8
1
 10
58.95174884538928
 20
22.39874802922137
 30
0
 42
0.02484251682049948
  0
VERTEX
  8
1
 10
59.0062821341963
 20
22.38972807031334
 30
0
 42
0.0002571822919547311
  0
VERTEX
  8
1
 10
59.0618058283891
 20
22.38329758641119
 30
0
 42
0.02311667924011461
  0
VERTEX
  8
1
 10
59.17406196807358
 20
22.37817096173061
 30
0
 42
0.02286373210601821
  0
VERTEX
  8
1
 10
59.28631809304677
 20
22.3832979085305
 30
0
 42
0.02300666718654026
  0
VERTEX
  8
1
 10
59.34184176878704
 20
22.38972855175803
 30
0
 42
0.000551483927080133
  0
VERTEX
  8
1
 10
59.39637503171103
 20
22.39874866714945
 30
0
 42
0.02554599518834038
  0
VERTEX
  8
1
 10
59.49742639261854
 20
22.42338905442884
 30
0
 42
0.02679703992773307
  0
VERTEX
  8
1
 10
59.54598861971061
 20
22.43953900803885
 30
0
 42
0.001435230806668283
  0
VERTEX
  8
1
 10
59.59187379983556
 20
22.45799917050978
 30
0
 42
0.03415571496251563
  0
VERTEX
  8
1
 10
59.67002736025812
 20
22.49882732316784
 30
0
 42
0.03726934488888271
  0
VERTEX
  8
1
 10
59.70558885012865
 20
22.52296453623237
 30
0
 42
0.002961280075793372
  0
VERTEX
  8
1
 10
59.73697823575681
 20
22.54877598666205
 30
0
 42
0.05337969577800549
  0
VERTEX
  8
1
 10
59.78378007278248
 20
22.60111804284885
 30
0
 42
0.06005786299217619
  0
VERTEX
  8
1
 10
59.80155440663926
 20
22.63040191833487
 30
0
 42
0.002791634703122686
  0
VERTEX
  8
1
 10
59.81418660298928
 20
22.66013009185517
 30
0
 42
0.07921652908586292
  0
VERTEX
  8
1
 10
59.82406147852196
 20
22.71938032889133
 30
0
  0
VERTEX
  8
1
 10
59.82148716714184
 20
22.74938241396555
 30
0
  0
SEQEND
  8
1
  0
POLYLINE
  8
1
 62
3
 66
1
  0
VERTEX
  8
1
 10
59.82154854985286
 20
22.67848507738339
 30
0
 42
-0.05947562520207215
  0
VERTEX
  8
1
 10
59.80176145164744
 20
22.59797797019421
 30
0
 42
-0.0549241648579844
  0
VERTEX
  8
1
 10
59.76284163226484
 20
22.52125754128571
 30
0
 42
-0.0492123384898119
  0
VERTEX
  8
1
 10
59.7060409116377
 20
22.45066001156099
 30
0
 42
-0.04369467928986949
  0
VERTEX
  8
1
 10
59.63313238819387
 20
22.38829676490597
 30
0
 42
-0.03907180342622996
  0
VERTEX
  8
1
 10
59.54634683082482
 20
22.33601943398522
 30
0
 42
-0.03555821092019253
  0
VERTEX
  8
1
 10
59.44831496113698
 20
22.29538132634144
 30
0
 42
-0.03313888169218878
  0
VERTEX
  8
1
 10
59.34199922865784
 20
22.26759411738783
 30
0
 42
-0.03173339743432722
  0
VERTEX
  8
1
 10
59.23061060451322
 20
22.25348902674749
 30
0
 42
-0.03127386552081998
  0
VERTEX
  8
1
 10
59.11751368940939
 20
22.25348886448152
 30
0
 42
-0.03173527331849435
  0
VERTEX
  8
1
 10
59.00612502479063
 20
22.26759363549181
 30
0
 42
-0.03314307894080139
  0
VERTEX
  8
1
 10
58.89980921257648
 20
22.29538053937199
 30
0
 42
-0.03556571867263384
  0
VERTEX
  8
1
 10
58.80177722627789
 20
22.33601836571286
 30
0
 42
-0.03908427028366855
  0
VERTEX
  8
1
 10
58.7149915188992
 20
22.38829544760198
 30
0
 42
-0.04371419559256249
  0
VERTEX
  8
1
 10
58.64208281650413
 20
22.45065848504551
 30
0
 42
-0.04923989487425577
  0
VERTEX
  8
1
 10
58.5852818932974
 20
22.5212558517801
 30
0
 42
-0.0549556255520558
  0
VERTEX
  8
1
 10
58.54636185376548
 20
22.59797616900774
 30
0
 42
-0.05949832701095752
  0
VERTEX
  8
1
 10
58.52657452454476
 20
22.67848321941744
 30
0
 42
-0.007083350370090875
  0
VERTEX
  8
1
 10
58.5255381575512
 20
22.68803015578309
 30
0
  0
SEQEND
  8
1
  0
ARC
  8
1
 62
3
 10
-4.72593852147801
 20
47.27817459305173
 30
0
 40
2
 50
0
 51
90
  0
ARC
  8
1
 62
3
 10
-6.625938521478101
 20
50.27817459305173
 30
0
 40
1
 50
180
 51
270
  0
ARC
  8
1
 62
3
 10
-6.625938521478101
 20
6.874815910819752
 30
0
 40
1
 50
90
 51
180
  0
ARC
  8
1
 62
3
 10
-4.72593852147801
 20
9.874815910819752
 30
0
 40
2
 50
270
 51
0
  0
ARC
  8
1
 62
3
 10
-4.72593852147801
 20
47.27817459305173
 30
0
 40
2
 50
0
 51
90
  0
ARC
  8
1
 62
3
 10
-10.72593852147801
 20
6.499999999999194
 30
0
 40
1.5
 50
270
 51
0
  0
ARC
  8
1
 62
3
 10
-10.72593852147801
 20
53.4999999999993
 30
0
 40
1.5
 50
0
 51
90
  0
ARC
  8
1
 62
3
 10
-167.1418790494533
 20
31.39999999999916
 30
0
 40
0.10000000000014
 50
90
 51
180
  0
ARC
  8
1
 62
3
 10
-166.7418790494535
 20
31.39999999999916
 30
0
 40
0.1000000000001933
 50
0
 51
90
  0
ARC
  8
1
 62
3
 10
-165.5418790494534
 20
30.19999999999912
 30
0
 40
0.09999999999990905
 50
0
 51
90
  0
ARC
  8
1
 62
3
 10
-165.5418790494534
 20
29.79999999999925
 30
0
 40
0.1000000000001293
 50
270
 51
0
  0
ARC
  8
1
 62
3
 10
-166.7418790494535
 20
28.59999999999921
 30
0
 40
0.09999999999990905
 50
270
 51
0
  0
ARC
  8
1
 62
3
 10
-167.1418790494533
 20
28.59999999999921
 30
0
 40
0.1000000000001933
 50
180
 51
270
  0
ARC
  8
1
 62
3
 10
-168.3418790494534
 20
29.79999999999925
 30
0
 40
0.1000000000000796
 50
180
 51
270
  0
ARC
  8
1
 62
3
 10
-168.3418790494534
 20
30.19999999999912
 30
0
 40
0.1000000000001293
 50
90
 51
180
  0
ARC
  8
1
 62
3
 10
-132.6418790494533
 20
16.89999999999928
 30
0
 40
0.09999999999991971
 50
90
 51
180
  0
ARC
  8
1
 62
3
 10
-132.2418790494534
 20
16.89999999999928
 30
0
 40
0.1000000000000796
 50
0
 51
90
  0
ARC
  8
1
 62
3
 10
-131.0418790494534
 20
15.69999999999923
 30
0
 40
0.09999999999990905
 50
0
 51
90
  0
ARC
  8
1
 62
3
 10
-131.0418790494534
 20
15.29999999999925
 30
0
 40
0.1000000000000192
 50
270
 51
0
  0
ARC
  8
1
 62
3
 10
-132.2418790494534
 20
14.09999999999921
 30
0
 40
0.1000000000000192
 50
270
 51
0
  0
ARC
  8
1
 62
3
 10
-132.6418790494533
 20
14.09999999999921
 30
0
 40
0.1000000000000796
 50
180
 51
270
  0
ARC
  8
1
 62
3
 10
-133.8418790494534
 20
15.29999999999925
 30
0
 40
0.1000000000000796
 50
180
 51
270
  0
ARC
  8
1
 62
3
 10
-133.8418790494534
 20
15.69999999999923
 30
0
 40
0.1000000000000192
 50
90
 51
180
  0
ARC
  8
1
 62
3
 10
-133.6418790494533
 20
47.39999999999916
 30
0
 40
0.1000000000001364
 50
90
 51
180
  0
ARC
  8
1
 62
3
 10
-133.2418790494534
 20
47.39999999999916
 30
0
 40
0.1000000000000796
 50
0
 51
90
  0
ARC
  8
1
 62
3
 10
-132.0418790494534
 20
46.19999999999912
 30
0
 40
0.09999999999990905
 50
0
 51
90
  0
ARC
  8
1
 62
3
 10
-132.0418790494534
 20
45.79999999999925
 30
0
 40
0.1000000000001293
 50
270
 51
0
  0
ARC
  8
1
 62
3
 10
-133.2418790494534
 20
44.59999999999921
 30
0
 40
0.09999999999991616
 50
270
 51
0
  0
ARC
  8
1
 62
3
 10
-133.6418790494533
 20
44.59999999999921
 30
0
 40
0.1000000000000796
 50
180
 51
270
  0
ARC
  8
1
 62
3
 10
-134.8418790494534
 20
45.79999999999925
 30
0
 40
0.1000000000000796
 50
180
 51
270
  0
ARC
  8
1
 62
3
 10
-134.8418790494534
 20
46.19999999999912
 30
0
 40
0.1000000000001293
 50
90
 51
180
  0
ARC
  8
1
 62
3
 10
54.97406147852199
 20
36.99999999999929
 30
0
 40
1
 50
0
 51
90
  0
ARC
  8
1
 62
3
 10
-0.7259385214780103
 20
13.39999999999927
 30
0
 40
2
 50
180
 51
270
  0
ARC
  8
1
 62
3
 10
-0.7259385214780103
 20
46.59999999999928
 30
0
 40
2
 50
90
 51
180
  0
ARC
  8
1
 62
3
 10
148.1315859868085
 20
24.32584266291019
 30
0
 40
0.499999999999992
 50
140.0000000000005
 51
229.9999999999969
  0
ARC
  8
1
 62
3
 10
150.8127415377248
 20
22.0760860290073
 30
0
 40
0.4999999999999247
 50
230.0000000000015
 51
320.0000000000043
  0
ARC
  8
1
 62
3
 10
149.6557238402892
 20
20.69720603139319
 30
0
 40
0.4999999999999312
 50
319.9999999999936
 51
50.00000000000307
  0
ARC
  8
1
 62
3
 10
146.9745682893727
 20
22.94696266529606
 30
0
 40
0.5000000000000039
 50
49.99999999999636
 51
139.9999999999918
  0
ARC
  8
1
 62
3
 10
132.9639060130534
 20
37.05303733470309
 30
0
 40
0.4999999999999472
 50
230.0000000000079
 51
320.0000000000007
  0
ARC
  8
1
 62
3
 10
130.282750462137
 20
39.30279396860596
 30
0
 40
0.5000000000000057
 50
139.9999999999986
 51
229.9999999999964
  0
ARC
  8
1
 62
3
 10
129.1257327647013
 20
37.92391397099186
 30
0
 40
0.4999999999999328
 50
50.00000000000228
 51
140.0000000000005
  0
ARC
  8
1
 62
3
 10
131.8068883156177
 20
35.67415733708895
 30
0
 40
0.4999999999999312
 50
319.9999999999936
 51
50.00000000000281
  0
ARC
  8
1
 62
3
 10
154.0816553534955
 20
36.64828191970417
 30
0
 40
3.000000000000429
 50
30.95764953691539
 51
65.06537176279431
  0
ARC
  8
1
 62
3
 10
151.6036928865391
 20
43.86540442045344
 30
0
 40
2.499999999999447
 50
214.1097329771739
 51
245.8902670228475
  0
ARC
  8
1
 62
3
 10
151.6036928865391
 20
43.86540442045344
 30
0
 40
2.499999999999447
 50
214.1097329771739
 51
245.8902670228475
  0
ARC
  8
1
 62
3
 10
143.3036945105601
 20
44.11139235223367
 30
0
 40
2.500000000000139
 50
35.34425930260596
 51
76.70513151946983
  0
ARC
  8
1
 62
3
 10
152.1822017352569
 20
44.55484441926057
 30
0
 40
4.999999999999973
 50
216.6758163180807
 51
243.3241836819305
  0
ARC
  8
1
 62
3
 10
153.2872233015317
 20
35.73421702588154
 30
0
 40
2.500000000000715
 50
23.29486848053686
 51
64.65574069741976
  0
ARC
  8
1
 62
3
 10
136.6347797918661
 20
15.88860764776543
 30
0
 40
2.500000000000464
 50
215.3442593025782
 51
256.7051315194645
  0
ARC
  8
1
 62
3
 10
127.7562725671685
 20
15.44515558073944
 30
0
 40
5.000000000000096
 50
36.67581631806923
 51
63.32418368192051
  0
ARC
  8
1
 62
3
 10
127.7562725671685
 20
15.44515558073944
 30
0
 40
5.000000000000096
 50
36.67581631806923
 51
63.32418368192051
  0
ARC
  8
1
 62
3
 10
135.8725532757771
 20
14.94751910066857
 30
0
 40
3.000000000000831
 50
214.9346282372055
 51
254.7751354345056
  0
ARC
  8
1
 62
3
 10
128.3347814158863
 20
16.13459557954641
 30
0
 40
2.499999999999625
 50
34.109732977152
 51
65.89026702282438
  0
ARC
  8
1
 62
3
 10
128.3347814158863
 20
16.13459557954641
 30
0
 40
2.499999999999625
 50
34.109732977152
 51
65.89026702282438
  0
ARC
  8
1
 62
3
 10
126.6512510008944
 20
24.26578297411756
 30
0
 40
2.500000000000498
 50
203.294868480531
 51
244.655740697395
  0
ARC
  8
1
 62
3
 10
150.993379906792
 20
33.80371877307054
 30
0
 40
0.9999999999999324
 50
319.9999999999964
 51
50.00000000000142
  0
ARC
  8
1
 62
3
 10
149.7078046874189
 20
32.27162988683261
 30
0
 40
1.000000000000046
 50
229.9999999999982
 51
320.0000000000002
  0
ARC
  8
1
 62
3
 10
139.4232029324342
 20
20.01491879692898
 30
0
 40
1.000000000000089
 50
320.0000000000034
 51
49.99999999999689
  0
ARC
  8
1
 62
3
 10
138.1376277130612
 20
18.48282991069101
 30
0
 40
0.999999999999962
 50
230.0000000000027
 51
320.0000000000008
  0
ARC
  8
1
 62
3
 10
154.1808145127002
 20
29.82373628151886
 30
0
 40
1.999999999999976
 50
139.999999999999
 51
230.0000000000012
  0
ARC
  8
1
 62
3
 10
142.6106375383426
 20
16.0349363053773
 30
0
 40
1.999999999999993
 50
49.99999999999903
 51
140.0000000000014
  0
ARC
  8
1
 62
3
 10
130.2306696150065
 20
27.72837011316743
 30
0
 40
1.000000000000056
 50
49.99999999999655
 51
139.9999999999966
  0
ARC
  8
1
 62
3
 10
128.9450943956335
 20
26.19628122692946
 30
0
 40
1.000000000000029
 50
140
 51
229.9999999999967
  0
ARC
  8
1
 62
3
 10
141.8008465893643
 20
41.51717008930903
 30
0
 40
0.9999999999998799
 50
50.0000000000051
 51
140.0000000000013
  0
ARC
  8
1
 62
3
 10
140.5152713699912
 20
39.98508120307105
 30
0
 40
1.00000000000012
 50
140.0000000000039
 51
229.9999999999922
  0
ARC
  8
1
 62
3
 10
125.7576597897251
 20
30.17626371848115
 30
0
 40
2.000000000000028
 50
320.000000000001
 51
49.99999999999982
  0
ARC
  8
1
 62
3
 10
137.3278367640828
 20
43.96506369462273
 30
0
 40
1.999999999999999
 50
229.9999999999992
 51
320.0000000000011
  0
ARC
  8
1
 62
3
 10
125.8568189489306
 20
23.35171808029509
 30
0
 40
3.000000000000112
 50
205.2248645654943
 51
245.065371762794
  0
ARC
  8
1
 62
3
 10
144.0659210266489
 20
45.05248089933068
 30
0
 40
3.000000000000799
 50
34.93462823720559
 51
74.77513543450549
  0
TEXT
  8
1
 62
2
 10
-49.1842542287638
 20
95.80784586446229
 30
0
 40
4
  1
ＤＭＥ３７Ｋ５０ＧＡ　ＤＭＥ３７Ｋ５０ＧＢ
 41
0.9
 72
1
 73
2
 11
26.41574577123621
 21
97.80784586446229
 31
0
  0
ENDSEC
  0
EOF
