  0
SECTION
  2
HEADER
  9
$ACADVER
  1
AC1009
  9
$INSBASE
 10
0
 20
0
  9
$EXTMIN
 10
-145.4909600006122
 20
-23.6000000000001
  9
$EXTMAX
 10
123.4990690841397
 20
49.61284614873679
  9
$LIMMIN
 10
-145.4909600006122
 20
-23.6000000000001
  9
$LIMMAX
 10
123.4990690841397
 20
49.61284614873679
  9
$VIEWCTR
 10
10
 20
10
  9
$VIEWSIZE
 40
10
  9
$SNAPMODE
 70
0
  9
$SNAPUNIT
 10
1
 20
1
  9
$SNAPBASE
 10
0
 20
0
  9
$SNAPANG
 50
0
  9
$SNAPSTYLE
 70
0
  9
$SNAPISOPAIR
 70
0
  9
$GRIDMODE
 70
0
  9
$GRIDUNIT
 10
0
 20
0
  9
$ORTHOMODE
 70
0
  9
$REGENMODE
 70
1
  9
$FILLMODE
 70
1
  9
$QTEXTMODE
 70
0
  9
$DRAGMODE
 70
2
  9
$LTSCALE
 40
1
  9
$OSMODE
 70
0
  9
$ATTMODE
 70
1
  9
$TEXTSIZE
 40
3.5
  9
$TRACEWID
 40
0.5
  9
$TEXTSTYLE
  7
STANDARD
  9
$CLAYER
  8
0
  9
$CELTYPE
  6
BYLAYER
  9
$CECOLOR
 62
256
  9
$DIMSCALE
 40
1
  9
$DIMASZ
 40
0.18
  9
$DIMEXO
 40
0.0625
  9
$DIMDLI
 40
0.38
  9
$DIMRND
 40
0
  9
$DIMDLE
 40
0
  9
$DIMEXE
 40
0.18
  9
$DIMTP
 40
0
  9
$DIMTM
 40
0
  9
$DIMTXT
 40
0.18
  9
$DIMCEN
 40
0.09
  9
$DIMTSZ
 40
0
  9
$DIMTOL
 70
0
  9
$DIMLIM
 70
0
  9
$DIMTIH
 70
1
  9
$DIMTOH
 70
1
  9
$DIMSE1
 70
0
  9
$DIMSE2
 70
0
  9
$DIMTAD
 70
0
  9
$DIMZIN
 70
0
  9
$DIMBLK
  1

  9
$DIMASO
 70
1
  9
$DIMSHO
 70
1
  9
$DIMPOST
  1

  9
$DIMAPOST
  1

  9
$DIMALT
 70
0
  9
$DIMALTD
 70
2
  9
$DIMALTF
 40
25.4
  9
$DIMLFAC
 40
1
  9
$DIMTOFL
 70
0
  9
$DIMTVP
 40
0
  9
$DIMTIX
 70
0
  9
$DIMSOXD
 70
0
  9
$DIMSAH
 70
0
  9
$DIMBLK1
  1

  9
$DIMBLK2
  1

  9
$DIMSTYLE
  2
*UNNAMED
  9
$DIMCLRD
 70
0
  9
$DIMCLRE
 70
0
  9
$DIMCLRT
 70
0
  9
$DIMTFAC
 40
1
  9
$DIMGAP
 40
0.09
  9
$LUNITS
 70
2
  9
$LUPREC
 70
4
  9
$AXISMODE
 70
0
  9
$AXISUNIT
 10
0
 20
0
  9
$SKETCHINC
 40
0.1
  9
$FILLETRAD
 40
2
  9
$AUNITS
 70
0
  9
$AUPREC
 70
0
  9
$MENU
  1
ACAD
  9
$ELEVATION
 40
0
  9
$THICKNESS
 40
0
  9
$VIEWDIR
 10
0
 20
0
 30
1
  9
$LIMCHECK
 70
0
  9
$BLIPMODE
 70
1
  9
$CHAMFERA
 40
0
  9
$CHAMFERB
 40
0
  9
$FASTZOOM
 70
1
  9
$SKPOLY
 70
0
  9
$ANGBASE
 50
0
  9
$ANGDIR
 70
0
  9
$PDMODE
 70
0
  9
$PDSIZE
 40
0
  9
$PLINEWID
 40
0
  9
$COORDS
 70
2
  0
ENDSEC
  0
SECTION
  2
TABLES
  0
TABLE
  2
DIMSTYLE
 70
0
  0
ENDTAB
  0
TABLE
  2
LTYPE
 70
9
  0
LTYPE
  2
CONTINUOUS
 70
64
  3
Solid line
 72
65
 73
0
 40
0
  0
LTYPE
  2
BORDER
 70
64
  3
__ __ . __ __ .
 72
65
 73
6
 40
12.38769870785042
 49
3.539342487957262
 49
-1.769671243978631
 49
3.539342487957262
 49
-1.769671243978631
 49
0
 49
-1.769671243978631
  0
LTYPE
  2
CENTER
 70
64
  3
____ _ ____ _
 72
65
 73
4
 40
14.15736995182905
 49
8.848356219893155
 49
-1.769671243978631
 49
1.769671243978631
 49
-1.769671243978631
  0
LTYPE
  2
DASHDOT
 70
64
  3
__ . __ . __ .
 72
65
 73
4
 40
7.078684975914523
 49
3.539342487957262
 49
-1.769671243978631
 49
0
 49
-1.769671243978631
  0
LTYPE
  2
DASHED
 70
64
  3
__ __ __ __ __
 72
65
 73
2
 40
5.309013731935893
 49
3.539342487957262
 49
-1.769671243978631
  0
LTYPE
  2
DIVIDE
 70
64
  3
__ . . __ . . 
 72
65
 73
6
 40
8.848356219893155
 49
3.539342487957262
 49
-1.769671243978631
 49
0
 49
-1.769671243978631
 49
0
 49
-1.769671243978631
  0
LTYPE
  2
DOT
 70
64
  3
..............
 72
65
 73
4
 40
3.539342487957262
 49
0
 49
-1.769671243978631
 49
0
 49
-1.769671243978631
  0
LTYPE
  2
HIDDEN
 70
64
  3
_ _ _ _ _ _ _
 72
65
 73
2
 40
2.654506865967946
 49
1.769671243978631
 49
-0.8848356219893154
  0
LTYPE
  2
PHANTOM
 70
64
  3
_____ _ _ _____ _ _ 
 72
65
 73
6
 40
17.69671243978631
 49
8.848356219893155
 49
-1.769671243978631
 49
1.769671243978631
 49
-1.769671243978631
 49
1.769671243978631
 49
-1.769671243978631
  0
ENDTAB
  0
TABLE
  2
LAYER
 70
3
  0
LAYER
  2
1
 70
0
 62
7
  6
CONTINUOUS
  0
LAYER
  2
0
 70
0
 62
7
  6
CONTINUOUS
  0
ENDTAB
  0
TABLE
  2
STYLE
 70
4
  0
STYLE
  2
STANDARD
 70
0
 40
0
 41
1
 50
0
 71
0
 42
3.5
  3
txt
  4

  0
STYLE
  2
SIMPLEX
 70
0
 40
0
 41
1
 50
0
 71
0
 42
3.5
  3
simplex
  4

  0
STYLE
  2
COMPLEX
 70
0
 40
0
 41
1
 50
0
 71
0
 42
3.5
  3
complex
  4

  0
STYLE
  2
ITALIC
 70
0
 40
0
 41
1
 50
0
 71
0
 42
3.5
  3
italic
  4

  0
ENDTAB
  0
TABLE
  2
VIEW
 70
0
  0
ENDTAB
  0
ENDSEC
  0
SECTION
  2
BLOCKS
  0
ENDSEC
  0
SECTION
  2
ENTITIES
  0
LINE
  8
1
 62
3
 10
116.2990690841398
 20
7.03548559846115
 30
0
 11
116.2990690841397
 21
0.1671724455773642
 31
0
  0
LINE
  8
1
 62
3
 10
116.2990690841396
 20
-4.167172445577933
 30
0
 11
116.2990690841396
 21
-11.03548559846155
 31
0
  0
LINE
  8
1
 62
3
 10
111.8990690841398
 20
-10.99999999999994
 30
0
 11
111.8990690841396
 21
-8.999999999999943
 31
0
  0
LINE
  8
1
 62
3
 10
111.8990690841396
 20
5.000000000000057
 30
0
 11
111.8990690841398
 21
7.000000000000057
 31
0
  0
LINE
  8
1
 62
3
 10
105.3990690841396
 20
-17.20230245719367
 30
0
 11
105.3990690841396
 21
-10.29156197588844
 31
0
  0
LINE
  8
1
 62
3
 10
104.3990690841396
 20
-10.64580823289526
 30
0
 11
104.3990690841396
 21
-17.39837653780418
 31
0
  0
LINE
  8
1
 62
3
 10
99.39906908413961
 20
-17.39837653780418
 30
0
 11
99.39906908413961
 21
-10.64580823289526
 31
0
  0
LINE
  8
1
 62
3
 10
98.39906908413961
 20
-10.29156197588844
 30
0
 11
98.39906908413961
 21
-17.20230245719367
 31
0
  0
LINE
  8
1
 62
3
 10
104.3990690841396
 20
13.39837653780421
 30
0
 11
104.3990690841396
 21
6.64580823289532
 31
0
  0
LINE
  8
1
 62
3
 10
105.3990690841396
 20
6.291561975888556
 30
0
 11
105.3990690841396
 21
13.20230245719375
 31
0
  0
LINE
  8
1
 62
3
 10
99.39906908413961
 20
6.64580823289532
 30
0
 11
99.39906908413961
 21
13.39837653780421
 31
0
  0
LINE
  8
1
 62
3
 10
98.39906908413961
 20
13.20230245719375
 30
0
 11
98.39906908413961
 21
6.291561975888556
 31
0
  0
LINE
  8
1
 62
3
 10
91.89906908413931
 20
7.000000000000057
 30
0
 11
91.89906908413961
 21
5.000000000000028
 31
0
  0
LINE
  8
1
 62
3
 10
91.89906908413961
 20
-8.999999999999972
 30
0
 11
91.89906908413931
 21
-10.99999999999994
 31
0
  0
LINE
  8
1
 62
3
 10
87.49906908413951
 20
-11.03548559846155
 30
0
 11
87.49906908413951
 21
-4.167172445577933
 31
0
  0
LINE
  8
1
 62
3
 10
87.49906908413951
 20
0.1671724455773642
 30
0
 11
87.49906908413951
 21
7.03548559846115
 31
0
  0
LINE
  8
1
 62
1
 10
80.2990690841395
 20
-1.999999999999943
 30
0
 11
123.4990690841397
 21
-1.999999999999943
 31
0
  0
LINE
  8
1
 62
3
 10
92.39906908413941
 20
0.3750000000000284
 30
0
 11
92.89906908413941
 21
0.3750000000000284
 31
0
  0
LINE
  8
1
 62
3
 10
92.39906908413941
 20
-4.374999999999972
 30
0
 11
92.89906908413941
 21
-4.374999999999972
 31
0
  0
LINE
  8
1
 62
3
 10
93.43031908413941
 20
2.357651991521038
 30
0
 11
92.89906908413941
 21
1.437500000000028
 31
0
  0
LINE
  8
1
 62
3
 10
92.99730638224742
 20
2.607651991521038
 30
0
 11
93.43031908413941
 21
2.357651991521038
 31
0
  0
LINE
  8
1
 62
3
 10
92.39906908413941
 20
1.571474596215637
 30
0
 11
92.99730638224742
 21
2.607651991521038
 31
0
  0
LINE
  8
1
 62
3
 10
92.89906908413941
 20
-5.437499999999972
 30
0
 11
93.43031908413941
 21
-6.357651991520982
 31
0
  0
LINE
  8
1
 62
3
 10
93.43031908413941
 20
-6.357651991520982
 30
0
 11
92.99730638224742
 21
-6.607651991520982
 31
0
  0
LINE
  8
1
 62
3
 10
92.99730638224742
 20
-6.607651991520982
 30
0
 11
92.39906908413941
 21
-5.57147459621558
 31
0
  0
LINE
  8
1
 62
3
 10
92.89906908413941
 20
-4.749999999999972
 30
0
 11
92.39906908413941
 21
-4.749999999999972
 31
0
  0
LINE
  8
1
 62
3
 10
92.89906908413941
 20
0.7500000000000284
 30
0
 11
92.39906908413941
 21
0.7500000000000284
 31
0
  0
LINE
  8
1
 62
3
 10
92.34906908413952
 20
-6.499999999999972
 30
0
 11
92.89906908413961
 21
-6.499999999999972
 31
0
  0
LINE
  8
1
 62
3
 10
92.34906908413952
 20
2.500000000000057
 30
0
 11
92.34906908413952
 21
-6.499999999999972
 31
0
  0
LINE
  8
1
 62
3
 10
92.89906908413961
 20
2.500000000000028
 30
0
 11
92.34906908413952
 21
2.500000000000057
 31
0
  0
LINE
  8
1
 62
3
 10
92.89906908413961
 20
2.437500000000028
 30
0
 11
92.89906908413961
 21
2.500000000000028
 31
0
  0
LINE
  8
1
 62
3
 10
92.89906908413961
 20
-6.499999999999972
 30
0
 11
92.89906908413961
 21
-6.437499999999972
 31
0
  0
LINE
  8
1
 62
3
 10
92.89906908413941
 20
-5.437499999999972
 30
0
 11
92.89906908413941
 21
1.437500000000028
 31
0
  0
LINE
  8
1
 62
3
 10
92.39906908413941
 20
1.571474596215637
 30
0
 11
92.39906908413941
 21
-5.57147459621558
 31
0
  0
LINE
  8
1
 62
1
 10
92.62406908413951
 20
3.366206426214035
 30
0
 11
92.62406908413951
 21
-7.633793573785994
 31
0
  0
LINE
  8
1
 62
1
 10
111.1740690841393
 20
-7.633793573785994
 30
0
 11
111.1740690841393
 21
3.366206426214035
 31
0
  0
LINE
  8
1
 62
3
 10
110.8990690841396
 20
0.3750000000000284
 30
0
 11
111.3990690841396
 21
0.3750000000000284
 31
0
  0
LINE
  8
1
 62
3
 10
110.8990690841396
 20
-4.374999999999972
 30
0
 11
111.3990690841396
 21
-4.374999999999972
 31
0
  0
LINE
  8
1
 62
3
 10
110.8990690841396
 20
1.437500000000028
 30
0
 11
110.3678190841396
 21
2.357651991521038
 31
0
  0
LINE
  8
1
 62
3
 10
110.3678190841396
 20
2.357651991521038
 30
0
 11
110.8008317860317
 21
2.607651991521038
 31
0
  0
LINE
  8
1
 62
3
 10
110.8008317860317
 20
2.607651991521038
 30
0
 11
111.3990690841396
 21
1.571474596215637
 31
0
  0
LINE
  8
1
 62
3
 10
110.3678190841396
 20
-6.357651991520982
 30
0
 11
110.8990690841396
 21
-5.437499999999972
 31
0
  0
LINE
  8
1
 62
3
 10
110.8008317860317
 20
-6.607651991520982
 30
0
 11
110.3678190841396
 21
-6.357651991520982
 31
0
  0
LINE
  8
1
 62
3
 10
111.3990690841396
 20
-5.57147459621558
 30
0
 11
110.8008317860317
 21
-6.607651991520982
 31
0
  0
LINE
  8
1
 62
3
 10
111.3990690841396
 20
-4.749999999999972
 30
0
 11
110.8990690841396
 21
-4.749999999999972
 31
0
  0
LINE
  8
1
 62
3
 10
111.3990690841396
 20
0.7500000000000284
 30
0
 11
110.8990690841396
 21
0.7500000000000284
 31
0
  0
LINE
  8
1
 62
3
 10
110.8990690841396
 20
-6.499999999999972
 30
0
 11
111.4490690841396
 21
-6.499999999999972
 31
0
  0
LINE
  8
1
 62
3
 10
111.4490690841396
 20
-6.499999999999972
 30
0
 11
111.4490690841396
 21
2.500000000000057
 31
0
  0
LINE
  8
1
 62
3
 10
111.4490690841396
 20
2.500000000000057
 30
0
 11
110.8990690841396
 21
2.500000000000057
 31
0
  0
LINE
  8
1
 62
3
 10
110.8990690841396
 20
2.500000000000057
 30
0
 11
110.8990690841396
 21
2.437500000000028
 31
0
  0
LINE
  8
1
 62
3
 10
110.8990690841396
 20
-6.437499999999972
 30
0
 11
110.8990690841396
 21
-6.499999999999972
 31
0
  0
LINE
  8
1
 62
3
 10
110.8990690841396
 20
1.437500000000028
 30
0
 11
110.8990690841396
 21
-5.437499999999972
 31
0
  0
LINE
  8
1
 62
3
 10
111.3990690841396
 20
-5.57147459621558
 30
0
 11
111.3990690841396
 21
1.571474596215637
 31
0
  0
LINE
  8
1
 62
1
 10
90.79176517620451
 20
-15.23716933631749
 30
0
 11
93.72613566871951
 21
-11.74012275985987
 31
0
  0
LINE
  8
1
 62
1
 10
93.72613566871951
 20
7.740122759859929
 30
0
 11
90.79176517620451
 21
11.23716933631752
 31
0
  0
LINE
  8
1
 62
1
 10
110.0720024995596
 20
-11.74012275985987
 30
0
 11
113.0063729920746
 21
-15.23716933631749
 31
0
  0
LINE
  8
1
 62
1
 10
113.0063729920746
 20
11.23716933631752
 30
0
 11
110.0720024995596
 21
7.740122759859929
 31
0
  0
LINE
  8
1
 62
3
 10
96.89906908413961
 20
12.77700916965264
 30
0
 11
96.89906908413961
 21
15.91535654124681
 31
0
  0
LINE
  8
1
 62
3
 10
108.8990690841396
 20
-13.99999999999997
 30
0
 11
108.8990690841396
 21
-12.99999999999997
 31
0
  0
LINE
  8
1
 62
3
 10
96.89906908413961
 20
-16.77700916965267
 30
0
 11
96.89906908413961
 21
-19.91535654124689
 31
0
  0
LINE
  8
1
 62
3
 10
106.8990690841396
 20
-15.99999999999997
 30
0
 11
106.8990690841396
 21
-19.91535654124689
 31
0
  0
LINE
  8
1
 62
3
 10
106.8990690841396
 20
12.77700916965264
 30
0
 11
106.8990690841396
 21
15.91535654124681
 31
0
  0
LINE
  8
1
 62
3
 10
96.89906908413961
 20
12.00000000000003
 30
0
 11
96.89906908413961
 21
12.77700916965264
 31
0
  0
LINE
  8
1
 62
1
 10
101.8990690841396
 20
19.60000000000017
 30
0
 11
101.8990690841396
 21
-23.60000000000008
 31
0
  0
LINE
  8
1
 62
3
 10
88.39906908413961
 20
7.000000000000028
 30
0
 11
92.89906908413961
 21
7.000000000000028
 31
0
  0
LINE
  8
1
 62
3
 10
115.3990690841396
 20
10.79492086728152
 30
0
 11
115.3990690841396
 21
7.000000000000028
 31
0
  0
LINE
  8
1
 62
3
 10
88.39906908413961
 20
10.79492086728172
 30
0
 11
88.39906908413961
 21
7.000000000000028
 31
0
  0
LINE
  8
1
 62
3
 10
92.89906908413961
 20
-10.99999999999997
 30
0
 11
88.39906908413961
 21
-10.99999999999997
 31
0
  0
LINE
  8
1
 62
3
 10
90.89906908413961
 20
7.000000000000028
 30
0
 11
90.89906908413961
 21
4.000000000000028
 31
0
  0
LINE
  8
1
 62
3
 10
94.89906908413961
 20
-17.05191017778199
 30
0
 11
94.89906908413961
 21
-12.99999999999997
 31
0
  0
LINE
  8
1
 62
3
 10
115.3990690841396
 20
7.000000000000028
 30
0
 11
110.8990690841396
 21
7.000000000000028
 31
0
  0
LINE
  8
1
 62
3
 10
112.8990690841396
 20
-10.99999999999997
 30
0
 11
112.8990690841396
 21
-7.999999999999972
 31
0
  0
LINE
  8
1
 62
3
 10
108.8990690841396
 20
4.000000000000057
 30
0
 11
108.8990690841396
 21
3.656854249492426
 31
0
  0
LINE
  8
1
 62
3
 10
112.8990690841396
 20
4.000000000000028
 30
0
 11
112.8990690841396
 21
7.000000000000057
 31
0
  0
LINE
  8
1
 62
3
 10
109.8990690841396
 20
5.000000000000028
 30
0
 11
111.8990690841396
 21
5.000000000000057
 31
0
  0
LINE
  8
1
 62
3
 10
93.89906908413961
 20
5.000000000000028
 30
0
 11
91.89906908413961
 21
5.000000000000028
 31
0
  0
LINE
  8
1
 62
3
 10
90.89906908413961
 20
4.000000000000028
 30
0
 11
90.89906908413961
 21
-7.999999999999972
 31
0
  0
LINE
  8
1
 62
3
 10
94.89906908413961
 20
9.000000000000028
 30
0
 11
94.89906908413961
 21
10.00000000000003
 31
0
  0
LINE
  8
1
 62
3
 10
91.89906908413961
 20
-8.999999999999972
 30
0
 11
93.89906908413961
 21
-8.999999999999972
 31
0
  0
LINE
  8
1
 62
3
 10
90.89906908413961
 20
-7.999999999999972
 30
0
 11
90.89906908413961
 21
-10.99999999999997
 31
0
  0
LINE
  8
1
 62
3
 10
94.89906908413961
 20
-7.999999999999972
 30
0
 11
94.89906908413961
 21
-7.656854249492398
 31
0
  0
LINE
  8
1
 62
3
 10
109.8990690841396
 20
-8.999999999999943
 30
0
 11
111.8990690841396
 21
-8.999999999999943
 31
0
  0
LINE
  8
1
 62
3
 10
112.8990690841396
 20
-7.999999999999972
 30
0
 11
112.8990690841396
 21
4.000000000000028
 31
0
  0
LINE
  8
1
 62
3
 10
88.39906908413961
 20
-10.99999999999997
 30
0
 11
88.39906908413961
 21
-14.79492086728155
 31
0
  0
LINE
  8
1
 62
3
 10
115.3990690841396
 20
-10.99999999999997
 30
0
 11
115.3990690841396
 21
-14.79492086728169
 31
0
  0
LINE
  8
1
 62
3
 10
115.3990690841396
 20
-10.99999999999997
 30
0
 11
110.8990690841396
 21
-10.99999999999997
 31
0
  0
LINE
  8
1
 62
3
 10
94.89906908413961
 20
3.656854249492426
 30
0
 11
94.89906908413961
 21
4.000000000000028
 31
0
  0
LINE
  8
1
 62
3
 10
108.8990690841396
 20
-7.656854249492398
 30
0
 11
108.8990690841396
 21
-7.999999999999943
 31
0
  0
LINE
  8
1
 62
3
 10
108.8990690841396
 20
13.05191017778142
 30
0
 11
108.8990690841396
 21
9.000000000000028
 31
0
  0
LINE
  8
1
 62
3
 10
118.8778057862616
 20
-1.149999999999949
 30
0
 11
117.8990690841396
 21
-1.149999999999977
 31
0
  0
LINE
  8
1
 62
3
 10
118.8778057862616
 20
-2.849999999999966
 30
0
 11
117.8990690841396
 21
-2.849999999999966
 31
0
  0
LINE
  8
1
 62
3
 10
117.8990690841396
 20
-1.149999999999977
 30
0
 11
117.8990690841396
 21
-2.849999999999966
 31
0
  0
LINE
  8
1
 62
3
 10
84.92033238201741
 20
-1.149999999999949
 30
0
 11
85.89906908413961
 21
-1.149999999999949
 31
0
  0
LINE
  8
1
 62
3
 10
84.92033238201741
 20
-2.849999999999994
 30
0
 11
85.89906908413961
 21
-2.849999999999994
 31
0
  0
LINE
  8
1
 62
3
 10
85.89906908413961
 20
-1.149999999999949
 30
0
 11
85.89906908413961
 21
-2.849999999999994
 31
0
  0
LINE
  8
1
 62
3
 10
86.2035386686625
 20
-1.315510396645067
 30
0
 11
84.83801240789141
 21
3.757543443480017
 31
0
  0
LINE
  8
1
 62
3
 10
86.2035386686625
 20
-1.315510396645067
 30
0
 11
84.83801240789141
 21
3.757543443480017
 31
0
  0
LINE
  8
1
 62
3
 10
84.83801240789141
 20
-7.757543443480898
 30
0
 11
86.2035386686625
 21
-2.684489603355985
 31
0
  0
LINE
  8
1
 62
3
 10
87.7644775120236
 20
-0.8476975961688993
 30
0
 11
86.5271088006545
 21
3.883758920768145
 31
0
  0
LINE
  8
1
 62
3
 10
87.7644775120236
 20
-0.8476975961688993
 30
0
 11
86.5271088006545
 21
3.883758920768145
 31
0
  0
LINE
  8
1
 62
3
 10
86.5271088006545
 20
-7.883758920767974
 30
0
 11
87.7644775120236
 21
-3.152302403831982
 31
0
  0
LINE
  8
1
 62
3
 10
86.5271088006545
 20
-7.883758920767974
 30
0
 11
87.7644775120236
 21
-3.152302403831982
 31
0
  0
LINE
  8
1
 62
3
 10
116.0336606562555
 20
-3.152302403831982
 30
0
 11
117.2710293676245
 21
-7.883758920767974
 31
0
  0
LINE
  8
1
 62
3
 10
116.0336606562555
 20
-3.152302403831982
 30
0
 11
117.2710293676245
 21
-7.883758920767974
 31
0
  0
LINE
  8
1
 62
3
 10
117.2710293676245
 20
3.883758920768145
 30
0
 11
116.0336606562555
 21
-0.8476975961688993
 31
0
  0
LINE
  8
1
 62
3
 10
118.9601257603876
 20
3.757543443480017
 30
0
 11
117.5945994996166
 21
-1.315510396645067
 31
0
  0
LINE
  8
1
 62
3
 10
118.9601257603876
 20
3.757543443480017
 30
0
 11
117.5945994996166
 21
-1.315510396645067
 31
0
  0
LINE
  8
1
 62
3
 10
118.9601257603876
 20
3.757543443480017
 30
0
 11
117.5945994996166
 21
-1.315510396645067
 31
0
  0
LINE
  8
1
 62
3
 10
117.5945994996166
 20
-2.684489603355985
 30
0
 11
118.9601257603876
 21
-7.75754344348087
 31
0
  0
LINE
  8
1
 62
3
 10
117.5945994996166
 20
-2.684489603355985
 30
0
 11
118.9601257603876
 21
-7.75754344348087
 31
0
  0
LINE
  8
1
 62
3
 10
118.7142408049396
 20
0.5000000000000568
 30
0
 11
120.3175887501994
 21
0.5000000000000568
 31
0
  0
LINE
  8
1
 62
3
 10
118.7142408049396
 20
-4.499999999999943
 30
0
 11
120.3175887501994
 21
-4.499999999999943
 31
0
  0
LINE
  8
1
 62
3
 10
85.0838973633394
 20
0.5000000000000284
 30
0
 11
83.48054941807951
 21
0.5000000000000284
 31
0
  0
LINE
  8
1
 62
3
 10
85.0838973633394
 20
-4.499999999999972
 30
0
 11
83.48054941807951
 21
-4.499999999999972
 31
0
  0
LINE
  8
1
 62
3
 10
100.2990690841395
 20
11.89999999999901
 30
0
 11
99.74906908413952
 21
11.89999999999901
 31
0
  0
LINE
  8
1
 62
3
 10
99.74906908413952
 20
7.399999999999039
 30
0
 11
100.2990690841395
 21
7.399999999999039
 31
0
  0
LINE
  8
1
 62
3
 10
99.74906908413952
 20
11.89999999999901
 30
0
 11
99.74906908413952
 21
7.399999999999039
 31
0
  0
LINE
  8
1
 62
3
 10
104.0490690841394
 20
11.89999999999901
 30
0
 11
103.4990690841395
 21
11.89999999999901
 31
0
  0
LINE
  8
1
 62
3
 10
104.0490690841394
 20
7.399999999999039
 30
0
 11
104.0490690841394
 21
11.89999999999901
 31
0
  0
LINE
  8
1
 62
3
 10
103.4990690841395
 20
7.399999999999039
 30
0
 11
104.0490690841394
 21
7.399999999999039
 31
0
  0
LINE
  8
1
 62
3
 10
99.7990690841395
 20
11.89999999999901
 30
0
 11
100.9990690841395
 21
11.89999999999901
 31
0
  0
LINE
  8
1
 62
3
 10
101.4990690841395
 20
11.39999999999901
 30
0
 11
101.4990690841395
 21
7.899999999999039
 31
0
  0
LINE
  8
1
 62
3
 10
100.9990690841395
 20
7.399999999999039
 30
0
 11
99.7990690841395
 21
7.399999999999039
 31
0
  0
LINE
  8
1
 62
3
 10
100.2990690841395
 20
11.89999999999901
 30
0
 11
99.74906908413952
 21
11.89999999999901
 31
0
  0
LINE
  8
1
 62
3
 10
99.74906908413952
 20
11.89999999999901
 30
0
 11
99.74906908413952
 21
7.399999999999039
 31
0
  0
LINE
  8
1
 62
3
 10
99.74906908413952
 20
7.399999999999039
 30
0
 11
100.2990690841395
 21
7.399999999999039
 31
0
  0
LINE
  8
1
 62
3
 10
102.2990690841395
 20
11.39999999999901
 30
0
 11
102.2990690841395
 21
7.899999999999039
 31
0
  0
LINE
  8
1
 62
3
 10
103.9990690841395
 20
11.89999999999901
 30
0
 11
102.7990690841395
 21
11.89999999999901
 31
0
  0
LINE
  8
1
 62
3
 10
104.0490690841394
 20
7.399999999999039
 30
0
 11
104.0490690841394
 21
11.89999999999901
 31
0
  0
LINE
  8
1
 62
3
 10
104.0490690841394
 20
11.89999999999901
 30
0
 11
103.4990690841395
 21
11.89999999999901
 31
0
  0
LINE
  8
1
 62
3
 10
102.7990690841395
 20
7.399999999999039
 30
0
 11
103.9990690841395
 21
7.399999999999039
 31
0
  0
LINE
  8
1
 62
3
 10
99.74906908413952
 20
-15.90000000000009
 30
0
 11
100.2990690841395
 21
-15.90000000000009
 31
0
  0
LINE
  8
1
 62
3
 10
103.4990690841395
 20
-15.90000000000097
 30
0
 11
104.0490690841394
 21
-15.90000000000009
 31
0
  0
LINE
  8
1
 62
3
 10
99.74906908413952
 20
-15.90000000000009
 30
0
 11
100.2990690841395
 21
-15.90000000000009
 31
0
  0
LINE
  8
1
 62
3
 10
100.2990690841395
 20
-11.40000000000097
 30
0
 11
99.74906908413952
 21
-11.40000000000009
 31
0
  0
LINE
  8
1
 62
3
 10
99.74906908413952
 20
-11.40000000000009
 30
0
 11
99.74906908413952
 21
-15.90000000000009
 31
0
  0
LINE
  8
1
 62
3
 10
103.4990690841395
 20
-15.90000000000097
 30
0
 11
104.0490690841394
 21
-15.90000000000009
 31
0
  0
LINE
  8
1
 62
3
 10
104.0490690841394
 20
-15.90000000000009
 30
0
 11
104.0490690841394
 21
-11.40000000000009
 31
0
  0
LINE
  8
1
 62
3
 10
104.0490690841394
 20
-11.40000000000009
 30
0
 11
103.4990690841395
 21
-11.40000000000009
 31
0
  0
LINE
  8
1
 62
3
 10
100.9990690841395
 20
-15.90000000000097
 30
0
 11
99.7990690841395
 21
-15.89999999999998
 31
0
  0
LINE
  8
1
 62
3
 10
101.4990690841395
 20
-11.90000000000009
 30
0
 11
101.4990690841395
 21
-15.40000000000009
 31
0
  0
LINE
  8
1
 62
3
 10
99.7990690841395
 20
-11.40000000000009
 30
0
 11
100.9990690841395
 21
-11.40000000000009
 31
0
  0
LINE
  8
1
 62
3
 10
99.74906908413952
 20
-15.90000000000009
 30
0
 11
100.2990690841395
 21
-15.90000000000009
 31
0
  0
LINE
  8
1
 62
3
 10
99.74906908413952
 20
-11.40000000000009
 30
0
 11
99.74906908413952
 21
-15.90000000000009
 31
0
  0
LINE
  8
1
 62
3
 10
100.2990690841395
 20
-11.40000000000097
 30
0
 11
99.74906908413952
 21
-11.40000000000009
 31
0
  0
LINE
  8
1
 62
3
 10
102.2990690841395
 20
-11.90000000000009
 30
0
 11
102.2990690841395
 21
-15.39999999999998
 31
0
  0
LINE
  8
1
 62
3
 10
102.7990690841395
 20
-15.89999999999998
 30
0
 11
103.9990690841395
 21
-15.90000000000097
 31
0
  0
LINE
  8
1
 62
3
 10
104.0490690841394
 20
-15.90000000000009
 30
0
 11
104.0490690841394
 21
-11.40000000000009
 31
0
  0
LINE
  8
1
 62
3
 10
103.4990690841395
 20
-15.90000000000097
 30
0
 11
104.0490690841394
 21
-15.90000000000009
 31
0
  0
LINE
  8
1
 62
3
 10
103.9990690841395
 20
-11.40000000000009
 30
0
 11
102.7990690841395
 21
-11.40000000000009
 31
0
  0
LINE
  8
1
 62
2
 10
-1.573136876916081
 20
5.08387375305702
 30
0
 11
-1.573136876916085
 21
16.60000000000003
 31
0
  0
LINE
  8
1
 62
2
 10
-21.57313687691608
 20
5.08387375305702
 30
0
 11
-1.573136876916081
 21
5.08387375305702
 31
0
  0
LINE
  8
1
 62
2
 10
-21.57313687691609
 20
16.60000000000003
 30
0
 11
-21.57313687691608
 21
5.08387375305702
 31
0
  0
LINE
  8
1
 62
3
 10
14.57741216365598
 20
16.60000000000003
 30
0
 11
-38.12258783634408
 21
16.60000000000003
 31
0
  0
LINE
  8
1
 62
3
 10
-38.12258783634409
 20
-20.59999999999998
 30
0
 11
14.577412163656
 21
-20.59999999999998
 31
0
  0
LINE
  8
1
 62
3
 10
9.57741216365598
 20
3.785714285714036
 30
0
 11
9.57741216365598
 21
-7.785714285713979
 31
0
  0
LINE
  8
1
 62
3
 10
9.57741216365598
 20
-2.999999999999957
 30
0
 11
7.972409509322951
 21
-2.999999999999957
 31
0
  0
LINE
  8
1
 62
3
 10
9.57741216365598
 20
-0.9999999999999574
 30
0
 11
7.972409509322951
 21
-0.9999999999999574
 31
0
  0
LINE
  8
1
 62
3
 10
11.07577043119503
 20
-3.499999999999957
 30
0
 11
10.57577043119503
 21
-3.499999999999957
 31
0
  0
LINE
  8
1
 62
3
 10
10.57577043119503
 20
-0.4999999999999574
 30
0
 11
11.07577043119503
 21
-0.4999999999999574
 31
0
  0
LINE
  8
1
 62
3
 10
9.57741216365598
 20
-7.785714285713979
 30
0
 11
9.377412163655921
 21
-9.499999999999957
 31
0
  0
LINE
  8
1
 62
3
 10
9.57741216365598
 20
3.785714285714036
 30
0
 11
10.07741216365598
 21
-0.4999999999999574
 31
0
  0
LINE
  8
1
 62
3
 10
9.377412163655921
 20
-9.499999999999957
 30
0
 11
7.377412163655929
 21
-9.499999999999957
 31
0
  0
LINE
  8
1
 62
3
 10
10.07741216365598
 20
-3.499999999999957
 30
0
 11
9.57741216365598
 21
-7.785714285713979
 31
0
  0
LINE
  8
1
 62
3
 10
10.07741216365598
 20
-0.4999999999999574
 30
0
 11
10.07741216365598
 21
-3.499999999999957
 31
0
  0
LINE
  8
1
 62
3
 10
9.377412163655921
 20
5.500000000000043
 30
0
 11
9.57741216365598
 21
3.785714285714036
 31
0
  0
LINE
  8
1
 62
3
 10
7.377412163655929
 20
5.500000000000043
 30
0
 11
9.377412163655921
 21
5.500000000000043
 31
0
  0
LINE
  8
1
 62
3
 10
7.377412163655929
 20
-4.499999999999957
 30
0
 11
7.377412163655929
 21
-9.499999999999957
 31
0
  0
LINE
  8
1
 62
3
 10
7.377412163655929
 20
5.500000000000043
 30
0
 11
7.377412163655929
 21
0.5000000000000426
 31
0
  0
LINE
  8
1
 62
1
 10
27.86541361642393
 20
-1.999999999999957
 30
0
 11
22.62241216365604
 21
-1.999999999999957
 31
0
  0
LINE
  8
1
 62
3
 10
14.57741216365598
 20
-8.999999999999957
 30
0
 11
11.57741216365598
 21
-8.999999999999957
 31
0
  0
LINE
  8
1
 62
3
 10
11.57741216365598
 20
-20.59999999999998
 30
0
 11
11.57741216365598
 21
16.60000000000003
 31
0
  0
LINE
  8
1
 62
3
 10
14.57741216365597
 20
5.000000000000043
 30
0
 11
11.57741216365597
 21
5.000000000000043
 31
0
  0
LINE
  8
1
 62
3
 10
14.57741216365598
 20
16.60000000000003
 30
0
 11
14.577412163656
 21
-20.59999999999998
 31
0
  0
LINE
  8
1
 62
3
 10
11.57741216365598
 20
-14.79492086728208
 30
0
 11
14.57741216365598
 21
-14.79492086728208
 31
0
  0
LINE
  8
1
 62
3
 10
11.57741216365598
 20
10.79492086728102
 30
0
 11
14.57741216365598
 21
10.79492086728102
 31
0
  0
LINE
  8
1
 62
3
 10
11.57741216365598
 20
-10.99999999999996
 30
0
 11
14.57741216365598
 21
-10.99999999999996
 31
0
  0
LINE
  8
1
 62
3
 10
11.57741216365598
 20
6.999999999998934
 30
0
 11
14.57741216365598
 21
6.999999999998934
 31
0
  0
LINE
  8
1
 62
3
 10
-40.12258783634409
 20
-18.59999999999998
 30
0
 11
-40.12258783634409
 21
14.60000000000003
 31
0
  0
LINE
  8
1
 62
3
 10
14.57741216365597
 20
6.000000000000043
 30
0
 11
17.57741216365597
 21
6.000000000000043
 31
0
  0
LINE
  8
1
 62
3
 10
17.57741216365597
 20
-9.999999999999957
 30
0
 11
14.57741216365597
 21
-9.999999999999957
 31
0
  0
LINE
  8
1
 62
3
 10
18.57741216365597
 20
5.000000000000043
 30
0
 11
18.57741216365598
 21
0.7500000000000426
 31
0
  0
LINE
  8
1
 62
3
 10
18.62741216365593
 20
0.7500000000000426
 30
0
 11
18.62741216365593
 21
0.3750000000000426
 31
0
  0
LINE
  8
1
 62
3
 10
18.62741216365593
 20
0.3750000000000426
 30
0
 11
23.97741216365606
 21
0.3750000000000426
 31
0
  0
LINE
  8
1
 62
3
 10
24.97741216365606
 20
-0.6249999999999574
 30
0
 11
24.97741216365606
 21
-3.374999999999957
 31
0
  0
LINE
  8
1
 62
3
 10
23.97741216365606
 20
-4.374999999999957
 30
0
 11
18.62741216365593
 21
-4.374999999999957
 31
0
  0
LINE
  8
1
 62
3
 10
18.62741216365593
 20
-4.374999999999957
 30
0
 11
18.62741216365593
 21
-4.749999999999957
 31
0
  0
LINE
  8
1
 62
3
 10
18.62741216365593
 20
-4.749999999999957
 30
0
 11
15.97741216365598
 21
-4.749999999999957
 31
0
  0
LINE
  8
1
 62
3
 10
24.97741216365606
 20
-0.6249999999999574
 30
0
 11
23.97741216365606
 21
0.3750000000000426
 31
0
  0
LINE
  8
1
 62
3
 10
23.97741216365606
 20
-4.374999999999957
 30
0
 11
24.97741216365606
 21
-3.374999999999957
 31
0
  0
LINE
  8
1
 62
3
 10
23.97741216365606
 20
0.3750000000000426
 30
0
 11
23.97741216365606
 21
-4.374999999999957
 31
0
  0
LINE
  8
1
 62
1
 10
22.42741216365611
 20
-1.999999999999957
 30
0
 11
20.93241216365599
 21
-1.999999999999957
 31
0
  0
LINE
  8
1
 62
1
 10
21.77741216365602
 20
-1.154999999999959
 30
0
 11
21.77741216365602
 21
-2.844999999999985
 31
0
  0
LINE
  8
1
 62
1
 10
20.93241216365599
 20
-1.999999999999957
 30
0
 11
22.62241216365604
 21
-1.999999999999957
 31
0
  0
LINE
  8
1
 62
1
 10
22.62241216365604
 20
-1.999999999999957
 30
0
 11
22.42741216365611
 21
-1.999999999999957
 31
0
  0
LINE
  8
1
 62
1
 10
20.93241216365599
 20
-1.999999999999957
 30
0
 11
-64.12258783634408
 21
-1.999999999999957
 31
0
  0
LINE
  8
1
 62
3
 10
18.57741216365598
 20
-4.749999999999957
 30
0
 11
18.57741216365598
 21
-8.999999999999957
 31
0
  0
LINE
  8
1
 62
1
 10
-117.4909600006121
 20
-13.08512516844069
 30
0
 11
-117.6409600006122
 21
-12.82531754730546
 31
0
  0
LINE
  8
1
 62
1
 10
-117.4909600006121
 20
9.085125168440543
 30
0
 11
-117.6409600006122
 21
8.825317547305312
 31
0
  0
LINE
  8
1
 62
1
 10
-115.8247202361591
 20
11.97113709806613
 30
0
 11
-117.980692166934
 21
8.236884174270232
 31
0
  0
LINE
  8
1
 62
1
 10
-117.980692166934
 20
-12.23688417427018
 30
0
 11
-115.8247202361591
 21
-15.97113709806608
 31
0
  0
LINE
  8
1
 62
3
 10
-42.52258783634397
 20
4.000000000000043
 30
0
 11
-40.12258783634409
 21
4.000000000000043
 31
0
  0
LINE
  8
1
 62
3
 10
-42.52258783634397
 20
4.000000000000043
 30
0
 11
-43.62258783634397
 21
3.800000000000111
 31
0
  0
LINE
  8
1
 62
3
 10
-40.12258783634409
 20
-7.999999999999957
 30
0
 11
-42.52258783634397
 21
-7.999999999999957
 31
0
  0
LINE
  8
1
 62
3
 10
-43.62258783634397
 20
-7.799999999999914
 30
0
 11
-42.52258783634397
 21
-7.999999999999957
 31
0
  0
LINE
  8
1
 62
3
 10
-43.62258783634397
 20
3.800000000000111
 30
0
 11
-43.62258783634397
 21
-7.799999999999914
 31
0
  0
LINE
  8
1
 62
3
 10
-61.12258783634407
 20
-3.699999999999946
 30
0
 11
-61.12258783634407
 21
-0.2999999999999403
 31
0
  0
LINE
  8
1
 62
3
 10
-60.82258783634389
 20
-4.000000000000043
 30
0
 11
-43.62258783634397
 21
-3.999999999999844
 31
0
  0
LINE
  8
1
 62
3
 10
-43.62258783634397
 20
1.567634910770721e-013
 30
0
 11
-60.82258783634389
 21
-4.241051954068098e-014
 31
0
  0
LINE
  8
1
 62
3
 10
-42.52258783634397
 20
4.000000000000043
 30
0
 11
-42.52258783634397
 21
-7.999999999999957
 31
0
  0
LINE
  8
1
 62
1
 10
-123.8909600006122
 20
19.60000000000018
 30
0
 11
-123.8909600006122
 21
-23.6000000000001
 31
0
  0
LINE
  8
1
 62
1
 10
-145.4909600006122
 20
-1.999999999999957
 30
0
 11
-102.290960000612
 21
-1.999999999999957
 31
0
  0
LINE
  8
1
 62
3
 10
14.57741216365598
 20
0.7500000000000426
 30
0
 11
14.97741216365598
 21
2.607651991521037
 31
0
  0
LINE
  8
1
 62
3
 10
14.97741216365598
 20
2.607651991521037
 30
0
 11
15.97741216365598
 21
2.607651991521037
 31
0
  0
LINE
  8
1
 62
3
 10
15.97741216365598
 20
2.607651991521037
 30
0
 11
15.97741216365598
 21
0.7500000000000426
 31
0
  0
LINE
  8
1
 62
3
 10
14.97741216365598
 20
-6.607651991520989
 30
0
 11
14.57741216365598
 21
-4.749999999999957
 31
0
  0
LINE
  8
1
 62
3
 10
15.97741216365598
 20
-6.607651991520989
 30
0
 11
14.97741216365598
 21
-6.607651991520989
 31
0
  0
LINE
  8
1
 62
3
 10
15.97741216365598
 20
-4.749999999999957
 30
0
 11
15.97741216365598
 21
-6.607651991520989
 31
0
  0
LINE
  8
1
 62
3
 10
15.97741216365598
 20
0.7500000000000426
 30
0
 11
18.62741216365593
 21
0.7500000000000426
 31
0
  0
ARC
  8
1
 62
3
 10
101.8990690841396
 20
-1.999999999999957
 30
0
 40
14.99999999999997
 50
260.4059317731396
 51
279.5940682268605
  0
ARC
  8
1
 62
3
 10
101.8990690841396
 20
-1.999999999999957
 30
0
 40
15.0000000000001
 50
242.1818607153463
 51
256.5066011784484
  0
ARC
  8
1
 62
3
 10
101.8990690841396
 20
-1.999999999999957
 30
0
 40
14.99999999999998
 50
62.18186071534603
 51
76.50660117844835
  0
ARC
  8
1
 62
3
 10
101.8990690841396
 20
-1.999999999999957
 30
0
 40
15.00000000000003
 50
80.40593177313956
 51
99.59406822686039
  0
ARC
  8
1
 62
1
 10
101.8990690841396
 20
-1.999999999999957
 30
0
 40
14.99999999999986
 50
220.1709933307081
 51
239.9716332704574
  0
ARC
  8
1
 62
1
 10
101.8990690841396
 20
-1.999999999999957
 30
0
 40
14.99999999999977
 50
120.0283667295427
 51
139.8290066692921
  0
ARC
  8
1
 62
1
 10
101.8990690841396
 20
-1.999999999999957
 30
0
 40
14.99999999999976
 50
300.0283667295423
 51
319.8290066692912
  0
ARC
  8
1
 62
1
 10
101.8990690841396
 20
-1.999999999999957
 30
0
 40
14.99999999999961
 50
40.17099333070863
 51
59.97163327045759
  0
ARC
  8
1
 62
3
 10
101.8990690841396
 20
-1.999999999999957
 30
0
 40
15.60000000000001
 50
251.306059076677
 51
288.693940923323
  0
ARC
  8
1
 62
3
 10
101.8990690841396
 20
-1.999999999999957
 30
0
 40
15.5999999999999
 50
71.30605907667685
 51
108.6939409233231
  0
ARC
  8
1
 62
3
 10
101.8990690841396
 20
-1.999999999999957
 30
0
 40
16.60000000000055
 50
245.0588752410725
 51
252.4700182669271
  0
ARC
  8
1
 62
3
 10
108.8990690841396
 20
-15.99999999999997
 30
0
 40
2
 50
90
 51
180
  0
ARC
  8
1
 62
3
 10
101.8990690841396
 20
-1.999999999999957
 30
0
 40
16.59999999999996
 50
65.05887524107145
 51
72.47001826692686
  0
ARC
  8
1
 62
3
 10
94.89906908413961
 20
12.00000000000003
 30
0
 40
2
 50
270
 51
0
  0
ARC
  8
1
 62
3
 10
101.8990690841396
 20
-1.999999999999957
 30
0
 40
15.00000000000003
 50
103.4933988215516
 51
109.4712206344906
  0
ARC
  8
1
 62
3
 10
101.8990690841396
 20
-1.999999999999957
 30
0
 40
17.00000000000063
 50
206.7051315194654
 51
217.4280055430432
  0
ARC
  8
1
 62
3
 10
101.8990690841396
 20
-1.999999999999957
 30
0
 40
18.59999999999978
 50
204.7751354345108
 51
335.224864565489
  0
ARC
  8
1
 62
3
 10
101.8990690841396
 20
-1.999999999999957
 30
0
 40
17.00000000000023
 50
26.70513151946255
 51
37.42800554304215
  0
ARC
  8
1
 62
3
 10
101.8990690841396
 20
-1.999999999999957
 30
0
 40
9.000000000000002
 50
38.9424412689814
 51
141.0575587310186
  0
ARC
  8
1
 62
3
 10
101.8990690841396
 20
-1.999999999999957
 30
0
 40
9.000000000000027
 50
218.9424412689818
 51
321.0575587310183
  0
ARC
  8
1
 62
3
 10
101.8990690841396
 20
-1.999999999999957
 30
0
 40
16.99999999999938
 50
142.5719944569601
 51
153.2948684805374
  0
ARC
  8
1
 62
3
 10
101.8990690841396
 20
-1.999999999999957
 30
0
 40
18.59999999999922
 50
24.77513543450839
 51
155.2248645654919
  0
ARC
  8
1
 62
3
 10
101.8990690841396
 20
-1.999999999999957
 30
0
 40
18.58741151126262
 50
156.1486304767352
 51
203.8513695232673
  0
ARC
  8
1
 62
3
 10
101.8990690841396
 20
-1.999999999999957
 30
0
 40
17.00000000000004
 50
142.5719944569572
 51
153.2948684805374
  0
ARC
  8
1
 62
3
 10
101.8990690841396
 20
-1.999999999999957
 30
0
 40
16.99999999999994
 50
322.5719944569577
 51
333.2948684805347
  0
ARC
  8
1
 62
3
 10
101.8990690841396
 20
-1.999999999999957
 30
0
 40
16.99999999999963
 50
166.8368671305259
 51
193.1631328694758
  0
ARC
  8
1
 62
3
 10
101.8990690841396
 20
-1.999999999999957
 30
0
 40
18.58741151126299
 50
336.1486304767328
 51
23.85136952326481
  0
ARC
  8
1
 62
3
 10
101.8990690841396
 20
-1.999999999999957
 30
0
 40
16.99999999999976
 50
346.8368671305224
 51
13.16313286947491
  0
ARC
  8
1
 62
3
 10
101.8990690841396
 20
-1.999999999999957
 30
0
 40
14.99999999999998
 50
283.4933988215517
 51
289.4712206344908
  0
ARC
  8
1
 62
3
 10
3.263126449353001
 20
-1.999999999999957
 30
0
 40
4.814285714300426
 50
328.7155070856889
 51
31.28449291431107
  0
CIRCLE
  8
1
 62
3
 10
101.8990690841396
 20
-1.999999999999957
 30
0
 40
2
  0
CIRCLE
  8
1
 62
3
 10
108.8990690841396
 20
-15.99999999999997
 30
0
 40
0.8500000000001933
  0
CIRCLE
  8
1
 62
3
 10
94.89906908413961
 20
12.00000000000003
 30
0
 40
0.8499999999998948
  0
CIRCLE
  8
1
 62
3
 10
92.25725493884171
 20
9.490666646784632
 30
0
 40
1.25
  0
CIRCLE
  8
1
 62
3
 10
111.5408832294376
 20
9.490666646784632
 30
0
 40
1.25
  0
CIRCLE
  8
1
 62
3
 10
92.25725493884171
 20
-13.49066664678469
 30
0
 40
1.5
  0
CIRCLE
  8
1
 62
3
 10
92.25725493884171
 20
-13.49066664678469
 30
0
 40
1.25
  0
CIRCLE
  8
1
 62
3
 10
111.5408832294376
 20
-13.49066664678469
 30
0
 40
1.5
  0
CIRCLE
  8
1
 62
3
 10
111.5408832294376
 20
-13.49066664678469
 30
0
 40
1.25
  0
CIRCLE
  8
1
 62
3
 10
92.25725493884171
 20
9.490666646784632
 30
0
 40
1.5
  0
CIRCLE
  8
1
 62
3
 10
111.5408832294376
 20
9.490666646784632
 30
0
 40
1.5
  0
CIRCLE
  8
1
 62
3
 10
101.8990690841396
 20
-1.999999999999957
 30
0
 40
8
  0
CIRCLE
  8
1
 62
3
 10
101.8990690841396
 20
-1.999999999999957
 30
0
 40
3.75
  0
CIRCLE
  8
1
 62
2
 10
6.48797541439151
 20
11.44634928422209
 30
0
 40
2.5
  0
CIRCLE
  8
1
 62
3
 10
21.77741216365602
 20
-1.999999999999957
 30
0
 40
0.650000000000091
  0
CIRCLE
  8
1
 62
3
 10
-123.8909600006122
 20
-1.999999999999957
 30
0
 40
5.799999999999997
  0
CIRCLE
  8
1
 62
3
 10
-123.8909600006122
 20
-1.999999999999957
 30
0
 40
6
  0
CIRCLE
  8
1
 62
3
 10
-123.8909600006122
 20
-1.999999999999957
 30
0
 40
18.60000000000019
  0
CIRCLE
  8
1
 62
3
 10
-123.8909600006122
 20
-1.999999999999957
 30
0
 40
4.799999999999997
  0
CIRCLE
  8
1
 62
1
  6
CENTER
 10
-123.8909600006122
 20
-1.999999999999957
 30
0
 40
14
  0
CIRCLE
  8
1
 62
1
 10
-137.8909600006122
 20
-1.999999999999957
 30
0
 40
1.5
  0
CIRCLE
  8
1
 62
3
 10
-137.8909600006122
 20
-1.999999999999957
 30
0
 40
1.200000000000102
  0
CIRCLE
  8
1
 62
1
 10
-116.8909600006122
 20
-14.12435565298206
 30
0
 40
1.499999999999951
  0
CIRCLE
  8
1
 62
3
 10
-116.8909600006122
 20
-14.12435565298206
 30
0
 40
1.199999999999993
  0
CIRCLE
  8
1
 62
1
 10
-116.8909600006122
 20
10.12435565298192
 30
0
 40
1.499999999999957
  0
CIRCLE
  8
1
 62
3
 10
-116.8909600006122
 20
10.12435565298192
 30
0
 40
1.199999999999999
  0
CIRCLE
  8
1
 62
3
 10
-123.8909600006122
 20
-1.999999999999957
 30
0
 40
2
  0
ARC
  8
1
 62
3
 10
110.8990690841396
 20
9.000000000000028
 30
0
 40
2
 50
180
 51
270
  0
ARC
  8
1
 62
3
 10
92.89906908413961
 20
9.000000000000028
 30
0
 40
2
 50
270
 51
0
  0
ARC
  8
1
 62
3
 10
109.8990690841396
 20
4.000000000000057
 30
0
 40
0.9999999999999716
 50
90
 51
180
  0
ARC
  8
1
 62
3
 10
111.8990690841396
 20
4.000000000000057
 30
0
 40
1
 50
359.9999999999984
 51
90
  0
ARC
  8
1
 62
3
 10
91.89906908413961
 20
4.000000000000028
 30
0
 40
1
 50
90
 51
180
  0
ARC
  8
1
 62
3
 10
93.89906908413961
 20
4.000000000000028
 30
0
 40
1
 50
0
 51
90
  0
ARC
  8
1
 62
3
 10
92.89906908413961
 20
-12.99999999999997
 30
0
 40
2
 50
0
 51
90
  0
ARC
  8
1
 62
3
 10
110.8990690841396
 20
-12.99999999999997
 30
0
 40
2
 50
90
 51
180
  0
ARC
  8
1
 62
3
 10
91.89906908413961
 20
-7.999999999999972
 30
0
 40
1
 50
180
 51
270
  0
ARC
  8
1
 62
3
 10
93.89906908413961
 20
-7.999999999999972
 30
0
 40
1
 50
270
 51
0
  0
ARC
  8
1
 62
3
 10
109.8990690841396
 20
-7.999999999999943
 30
0
 40
1
 50
180
 51
270
  0
ARC
  8
1
 62
3
 10
111.8990690841396
 20
-7.999999999999943
 30
0
 40
1
 50
270
 51
0
  0
ARC
  8
1
 62
3
 10
88.94576751242261
 20
4.516285628496036
 30
0
 40
2.500000000000578
 50
153.2948684805301
 51
194.6557406973938
  0
ARC
  8
1
 62
3
 10
87.73490210011961
 20
4.537306299140056
 30
0
 40
3.00000000000011
 50
155.224864565495
 51
195.0653717627935
  0
ARC
  8
1
 62
3
 10
83.7990690841395
 20
-1.999999999999943
 30
0
 40
2.499999999999743
 50
344.10973297715
 51
15.89026702282432
  0
ARC
  8
1
 62
3
 10
83.7990690841395
 20
-1.999999999999943
 30
0
 40
2.499999999999743
 50
344.10973297715
 51
15.89026702282432
  0
ARC
  8
1
 62
3
 10
87.73490210011961
 20
-8.537306299140852
 30
0
 40
3.000000000000827
 50
164.9346282372081
 51
204.7751354345061
  0
ARC
  8
1
 62
3
 10
82.89906908413961
 20
-1.999999999999943
 30
0
 40
5.000000000000167
 50
346.675816318069
 51
13.32418368191992
  0
ARC
  8
1
 62
3
 10
82.89906908413961
 20
-1.999999999999943
 30
0
 40
5.000000000000167
 50
346.675816318069
 51
13.32418368191992
  0
ARC
  8
1
 62
3
 10
88.94576751242261
 20
-8.516285628497059
 30
0
 40
2.500000000000467
 50
165.3442593025797
 51
206.7051315194664
  0
ARC
  8
1
 62
3
 10
114.8523706558564
 20
-8.516285628497087
 30
0
 40
2.500000000000667
 50
333.2948684805369
 51
14.65574069742101
  0
ARC
  8
1
 62
3
 10
120.8990690841396
 20
-1.999999999999943
 30
0
 40
5.000000000000034
 50
166.6758163180803
 51
193.3241836819308
  0
ARC
  8
1
 62
3
 10
114.8523706558564
 20
4.516285628496007
 30
0
 40
2.500000000000143
 50
345.3442593026068
 51
26.70513151946831
  0
ARC
  8
1
 62
3
 10
119.9990690841395
 20
-1.999999999999943
 30
0
 40
2.499999999999329
 50
164.109732977175
 51
195.8902670228507
  0
ARC
  8
1
 62
3
 10
119.9990690841395
 20
-1.999999999999943
 30
0
 40
2.499999999999329
 50
164.109732977175
 51
195.8902670228507
  0
ARC
  8
1
 62
3
 10
116.0632360681595
 20
-8.53730629914088
 30
0
 40
3.000000000000031
 50
335.2248645654937
 51
15.06537176279347
  0
ARC
  8
1
 62
3
 10
100.9990690841395
 20
7.899999999999039
 30
0
 40
0.5
 50
270
 51
0
  0
ARC
  8
1
 62
3
 10
100.9990690841395
 20
11.39999999999901
 30
0
 40
0.5
 50
0
 51
90
  0
ARC
  8
1
 62
3
 10
102.7990690841395
 20
11.39999999999901
 30
0
 40
0.5
 50
90
 51
180
  0
ARC
  8
1
 62
3
 10
102.7990690841395
 20
7.899999999999039
 30
0
 40
0.5
 50
180
 51
270
  0
ARC
  8
1
 62
3
 10
100.9990690841395
 20
-11.90000000000009
 30
0
 40
0.5
 50
0
 51
90
  0
ARC
  8
1
 62
3
 10
100.9990690841395
 20
-15.40000000000009
 30
0
 40
0.5000000000008811
 50
270
 51
0
  0
ARC
  8
1
 62
3
 10
102.7990690841395
 20
-15.40000000000009
 30
0
 40
0.5
 50
179.9999999999876
 51
270
  0
ARC
  8
1
 62
3
 10
102.7990690841395
 20
-11.90000000000009
 30
0
 40
0.5
 50
90
 51
180
  0
ARC
  8
1
 62
3
 10
116.0632360681595
 20
4.537306299140028
 30
0
 40
3.000000000000746
 50
344.9346282372065
 51
24.77513543450632
  0
ARC
  8
1
 62
3
 10
-38.12258783634409
 20
14.60000000000003
 30
0
 40
2
 50
90
 51
180
  0
ARC
  8
1
 62
3
 10
-38.12258783634409
 20
-18.59999999999998
 30
0
 40
2
 50
180
 51
270
  0
ARC
  8
1
 62
3
 10
17.57741216365597
 20
5.000000000000043
 30
0
 40
1
 50
0
 51
90
  0
ARC
  8
1
 62
3
 10
17.57741216365598
 20
-8.999999999999957
 30
0
 40
1
 50
270
 51
0
  0
ARC
  8
1
 62
3
 10
-60.82258783634411
 20
-3.699999999999946
 30
0
 40
0.2999999999999545
 50
180
 51
270
  0
ARC
  8
1
 62
3
 10
-60.82258783634411
 20
-0.2999999999999403
 30
0
 40
0.2999999999998979
 50
90
 51
180
  0
TEXT
  8
1
 62
2
 10
-75.13743114707334
 20
44.61284614873679
 30
0
 40
5
  1
ＤＭＥ３７ＫＡ　ＤＭＥ３７ＫＢ
 41
0.9
 72
1
 73
2
 11
-7.637431147073341
 21
47.11284614873679
 31
0
  0
ENDSEC
  0
EOF
