  0
SECTION
  2
HEADER
  9
$ACADVER
  1
AC1009
  9
$INSBASE
 10
0
 20
0
  9
$EXTMIN
 10
-192.2424517716661
 20
-35
  9
$EXTMAX
 10
168.5999999999999
 20
88.58553698237481
  9
$LIMMIN
 10
-192.2424517716661
 20
-35
  9
$LIMMAX
 10
168.5999999999999
 20
88.58553698237481
  9
$VIEWCTR
 10
10
 20
10
  9
$VIEWSIZE
 40
10
  9
$SNAPMODE
 70
0
  9
$SNAPUNIT
 10
1
 20
1
  9
$SNAPBASE
 10
0
 20
0
  9
$SNAPANG
 50
0
  9
$SNAPSTYLE
 70
0
  9
$SNAPISOPAIR
 70
0
  9
$GRIDMODE
 70
0
  9
$GRIDUNIT
 10
0
 20
0
  9
$ORTHOMODE
 70
0
  9
$REGENMODE
 70
1
  9
$FILLMODE
 70
1
  9
$QTEXTMODE
 70
0
  9
$DRAGMODE
 70
2
  9
$LTSCALE
 40
1
  9
$OSMODE
 70
0
  9
$ATTMODE
 70
1
  9
$TEXTSIZE
 40
3.5
  9
$TRACEWID
 40
0.5
  9
$TEXTSTYLE
  7
STANDARD
  9
$CLAYER
  8
0
  9
$CELTYPE
  6
BYLAYER
  9
$CECOLOR
 62
256
  9
$DIMSCALE
 40
1
  9
$DIMASZ
 40
0.18
  9
$DIMEXO
 40
0.0625
  9
$DIMDLI
 40
0.38
  9
$DIMRND
 40
0
  9
$DIMDLE
 40
0
  9
$DIMEXE
 40
0.18
  9
$DIMTP
 40
0
  9
$DIMTM
 40
0
  9
$DIMTXT
 40
0.18
  9
$DIMCEN
 40
0.09
  9
$DIMTSZ
 40
0
  9
$DIMTOL
 70
0
  9
$DIMLIM
 70
0
  9
$DIMTIH
 70
1
  9
$DIMTOH
 70
1
  9
$DIMSE1
 70
0
  9
$DIMSE2
 70
0
  9
$DIMTAD
 70
0
  9
$DIMZIN
 70
0
  9
$DIMBLK
  1

  9
$DIMASO
 70
1
  9
$DIMSHO
 70
1
  9
$DIMPOST
  1

  9
$DIMAPOST
  1

  9
$DIMALT
 70
0
  9
$DIMALTD
 70
2
  9
$DIMALTF
 40
25.4
  9
$DIMLFAC
 40
1
  9
$DIMTOFL
 70
0
  9
$DIMTVP
 40
0
  9
$DIMTIX
 70
0
  9
$DIMSOXD
 70
0
  9
$DIMSAH
 70
0
  9
$DIMBLK1
  1

  9
$DIMBLK2
  1

  9
$DIMSTYLE
  2
*UNNAMED
  9
$DIMCLRD
 70
0
  9
$DIMCLRE
 70
0
  9
$DIMCLRT
 70
0
  9
$DIMTFAC
 40
1
  9
$DIMGAP
 40
0.09
  9
$LUNITS
 70
2
  9
$LUPREC
 70
4
  9
$AXISMODE
 70
0
  9
$AXISUNIT
 10
0
 20
0
  9
$SKETCHINC
 40
0.1
  9
$FILLETRAD
 40
2
  9
$AUNITS
 70
0
  9
$AUPREC
 70
0
  9
$MENU
  1
ACAD
  9
$ELEVATION
 40
0
  9
$THICKNESS
 40
0
  9
$VIEWDIR
 10
0
 20
0
 30
1
  9
$LIMCHECK
 70
0
  9
$BLIPMODE
 70
1
  9
$CHAMFERA
 40
0
  9
$CHAMFERB
 40
0
  9
$FASTZOOM
 70
1
  9
$SKPOLY
 70
0
  9
$ANGBASE
 50
0
  9
$ANGDIR
 70
0
  9
$PDMODE
 70
0
  9
$PDSIZE
 40
0
  9
$PLINEWID
 40
0
  9
$COORDS
 70
2
  0
ENDSEC
  0
SECTION
  2
TABLES
  0
TABLE
  2
DIMSTYLE
 70
0
  0
ENDTAB
  0
TABLE
  2
LTYPE
 70
9
  0
LTYPE
  2
CONTINUOUS
 70
64
  3
Solid line
 72
65
 73
0
 40
0
  0
LTYPE
  2
BORDER
 70
64
  3
__ __ . __ __ .
 72
65
 73
6
 40
16.61774448948462
 49
4.747926996995605
 49
-2.373963498497802
 49
4.747926996995605
 49
-2.373963498497802
 49
0
 49
-2.373963498497802
  0
LTYPE
  2
CENTER
 70
64
  3
____ _ ____ _
 72
65
 73
4
 40
18.99170798798242
 49
11.86981749248901
 49
-2.373963498497802
 49
2.373963498497802
 49
-2.373963498497802
  0
LTYPE
  2
DASHDOT
 70
64
  3
__ . __ . __ .
 72
65
 73
4
 40
9.49585399399121
 49
4.747926996995605
 49
-2.373963498497802
 49
0
 49
-2.373963498497802
  0
LTYPE
  2
DASHED
 70
64
  3
__ __ __ __ __
 72
65
 73
2
 40
7.121890495493407
 49
4.747926996995605
 49
-2.373963498497802
  0
LTYPE
  2
DIVIDE
 70
64
  3
__ . . __ . . 
 72
65
 73
6
 40
11.86981749248901
 49
4.747926996995605
 49
-2.373963498497802
 49
0
 49
-2.373963498497802
 49
0
 49
-2.373963498497802
  0
LTYPE
  2
DOT
 70
64
  3
..............
 72
65
 73
4
 40
4.747926996995605
 49
0
 49
-2.373963498497802
 49
0
 49
-2.373963498497802
  0
LTYPE
  2
HIDDEN
 70
64
  3
_ _ _ _ _ _ _
 72
65
 73
2
 40
3.560945247746703
 49
2.373963498497802
 49
-1.186981749248901
  0
LTYPE
  2
PHANTOM
 70
64
  3
_____ _ _ _____ _ _ 
 72
65
 73
6
 40
23.73963498497803
 49
11.86981749248901
 49
-2.373963498497802
 49
2.373963498497802
 49
-2.373963498497802
 49
2.373963498497802
 49
-2.373963498497802
  0
ENDTAB
  0
TABLE
  2
LAYER
 70
4
  0
LAYER
  2
1
 70
0
 62
7
  6
CONTINUOUS
  0
LAYER
  2
CONSTRUCTION
 70
0
 62
7
  6
CONTINUOUS
  0
LAYER
  2
0
 70
0
 62
7
  6
CONTINUOUS
  0
ENDTAB
  0
TABLE
  2
STYLE
 70
4
  0
STYLE
  2
STANDARD
 70
0
 40
0
 41
1
 50
0
 71
0
 42
3.5
  3
txt
  4

  0
STYLE
  2
SIMPLEX
 70
0
 40
0
 41
1
 50
0
 71
0
 42
3.5
  3
simplex
  4

  0
STYLE
  2
COMPLEX
 70
0
 40
0
 41
1
 50
0
 71
0
 42
3.5
  3
complex
  4

  0
STYLE
  2
ITALIC
 70
0
 40
0
 41
1
 50
0
 71
0
 42
3.5
  3
italic
  4

  0
ENDTAB
  0
TABLE
  2
VIEW
 70
0
  0
ENDTAB
  0
ENDSEC
  0
SECTION
  2
BLOCKS
  0
ENDSEC
  0
SECTION
  2
ENTITIES
  0
LINE
  8
1
 62
1
 10
-181.9924517716661
 20
16.25
 30
0
 11
-181.9924517716661
 21
33.25
 31
0
  0
LINE
  8
1
 62
1
 10
-190.4924517716661
 20
24.75
 30
0
 11
-173.4924517716661
 21
24.75
 31
0
  0
LINE
  8
1
 62
3
 10
-185.4924517716661
 20
22.72927405783631
 30
0
 11
-185.4924517716661
 21
26.77072594216369
 31
0
  0
LINE
  8
1
 62
3
 10
-181.9924517716661
 20
20.70854811567261
 30
0
 11
-185.4924517716661
 21
22.72927405783631
 31
0
  0
LINE
  8
1
 62
3
 10
-178.4924517716661
 20
22.72927405783631
 30
0
 11
-181.9924517716661
 21
20.70854811567261
 31
0
  0
LINE
  8
1
 62
3
 10
-178.4924517716661
 20
26.77072594216367
 30
0
 11
-178.4924517716661
 21
22.72927405783631
 31
0
  0
LINE
  8
1
 62
3
 10
-181.9924517716661
 20
28.79145188432737
 30
0
 11
-178.4924517716661
 21
26.77072594216367
 31
0
  0
LINE
  8
1
 62
3
 10
-185.4924517716661
 20
26.77072594216369
 30
0
 11
-181.9924517716661
 21
28.79145188432737
 31
0
  0
LINE
  8
1
 62
3
 10
-181.9924517716661
 20
-28.79145188432737
 30
0
 11
-185.4924517716661
 21
-26.77072594216369
 31
0
  0
LINE
  8
1
 62
3
 10
-178.4924517716661
 20
-26.77072594216367
 30
0
 11
-181.9924517716661
 21
-28.79145188432737
 31
0
  0
LINE
  8
1
 62
3
 10
-178.4924517716661
 20
-22.72927405783631
 30
0
 11
-178.4924517716661
 21
-26.77072594216367
 31
0
  0
LINE
  8
1
 62
3
 10
-181.9924517716661
 20
-20.70854811567261
 30
0
 11
-178.4924517716661
 21
-22.72927405783631
 31
0
  0
LINE
  8
1
 62
3
 10
-185.4924517716661
 20
-22.72927405783631
 30
0
 11
-181.9924517716661
 21
-20.70854811567261
 31
0
  0
LINE
  8
1
 62
3
 10
-185.4924517716661
 20
-26.77072594216369
 30
0
 11
-185.4924517716661
 21
-22.72927405783631
 31
0
  0
LINE
  8
1
 62
1
 10
-173.4924517716661
 20
-24.75
 30
0
 11
-190.4924517716661
 21
-24.75
 31
0
  0
LINE
  8
1
 62
1
 10
-181.9924517716661
 20
-33.25
 30
0
 11
-181.9924517716661
 21
-16.25
 31
0
  0
LINE
  8
1
 62
3
 10
-132.4924517716661
 20
28.79145188432737
 30
0
 11
-128.9924517716661
 21
26.77072594216369
 31
0
  0
LINE
  8
1
 62
3
 10
-135.9924517716661
 20
26.77072594216367
 30
0
 11
-132.4924517716661
 21
28.79145188432737
 31
0
  0
LINE
  8
1
 62
3
 10
-135.9924517716661
 20
22.72927405783631
 30
0
 11
-135.9924517716661
 21
26.77072594216367
 31
0
  0
LINE
  8
1
 62
3
 10
-132.4924517716661
 20
20.70854811567261
 30
0
 11
-135.9924517716661
 21
22.72927405783631
 31
0
  0
LINE
  8
1
 62
3
 10
-128.9924517716661
 20
22.72927405783631
 30
0
 11
-132.4924517716661
 21
20.70854811567261
 31
0
  0
LINE
  8
1
 62
3
 10
-128.9924517716661
 20
26.77072594216369
 30
0
 11
-128.9924517716661
 21
22.72927405783631
 31
0
  0
LINE
  8
1
 62
1
 10
-140.9924517716661
 20
24.75
 30
0
 11
-123.9924517716661
 21
24.75
 31
0
  0
LINE
  8
1
 62
1
 10
-132.4924517716661
 20
33.25
 30
0
 11
-132.4924517716661
 21
16.25
 31
0
  0
LINE
  8
1
 62
1
 10
-132.4924517716661
 20
-16.25
 30
0
 11
-132.4924517716661
 21
-33.25
 31
0
  0
LINE
  8
1
 62
1
 10
-123.9924517716661
 20
-24.75
 30
0
 11
-140.9924517716661
 21
-24.75
 31
0
  0
LINE
  8
1
 62
3
 10
-128.9924517716661
 20
-22.72927405783631
 30
0
 11
-128.9924517716661
 21
-26.77072594216369
 31
0
  0
LINE
  8
1
 62
3
 10
-132.4924517716661
 20
-20.70854811567261
 30
0
 11
-128.9924517716661
 21
-22.72927405783631
 31
0
  0
LINE
  8
1
 62
3
 10
-135.9924517716661
 20
-22.72927405783631
 30
0
 11
-132.4924517716661
 21
-20.70854811567261
 31
0
  0
LINE
  8
1
 62
3
 10
-135.9924517716661
 20
-26.77072594216367
 30
0
 11
-135.9924517716661
 21
-22.72927405783631
 31
0
  0
LINE
  8
1
 62
3
 10
-132.4924517716661
 20
-28.79145188432737
 30
0
 11
-135.9924517716661
 21
-26.77072594216367
 31
0
  0
LINE
  8
1
 62
3
 10
-128.9924517716661
 20
-26.77072594216369
 30
0
 11
-132.4924517716661
 21
-28.79145188432737
 31
0
  0
LINE
  8
1
 62
3
 10
-51.50000000000016
 20
-26.75000000000023
 30
0
 11
-51.50000000000016
 21
-26.3711138000002
 31
0
  0
LINE
  8
1
 62
1
 10
-51.50000000000016
 20
-26.3711138000002
 30
0
 11
-39.7000000000004
 21
-26.37111380000025
 31
0
  0
LINE
  8
1
 62
3
 10
-51.50000000000016
 20
-26.3711138000002
 30
0
 11
-51.50000000000016
 21
-23.12888620000028
 31
0
  0
LINE
  8
1
 62
1
 10
-51.50000000000016
 20
-23.12888620000028
 30
0
 11
-39.7000000000004
 21
-23.12888620000024
 31
0
  0
LINE
  8
1
 62
3
 10
-51.50000000000016
 20
-23.12888620000028
 30
0
 11
-51.50000000000016
 21
-22.75000000000023
 31
0
  0
LINE
  8
1
 62
3
 10
-51.50000000000016
 20
-22.75000000000023
 30
0
 11
-39.7000000000004
 21
-22.75000000000023
 31
0
  0
LINE
  8
1
 62
3
 10
-39.7000000000004
 20
-26.75000000000023
 30
0
 11
-51.50000000000016
 21
-26.75000000000023
 31
0
  0
LINE
  8
1
 62
3
 10
-39.2288600090687
 20
-26.77072594216392
 30
0
 11
-36.9711399909321
 21
-26.77072594216392
 31
0
  0
LINE
  8
1
 62
3
 10
-39.2288600090687
 20
-22.72927405783653
 30
0
 11
-36.9711399909321
 21
-22.72927405783653
 31
0
  0
LINE
  8
1
 62
3
 10
-39.2288600090687
 20
-28.79145188432761
 30
0
 11
-36.9711399909321
 21
-28.79145188432761
 31
0
  0
LINE
  8
1
 62
3
 10
-39.2288600090687
 20
-20.70854811567287
 30
0
 11
-36.9711399909321
 21
-20.70854811567287
 31
0
  0
LINE
  8
1
 62
3
 10
-36.50000000000039
 20
-21.71891108675467
 30
0
 11
-36.50000000000039
 21
-27.78108891324578
 31
0
  0
LINE
  8
1
 62
3
 10
-39.7000000000004
 20
-21.71891108675467
 30
0
 11
-39.7000000000004
 21
-27.78108891324578
 31
0
  0
LINE
  8
1
 62
3
 10
-35.50000000000039
 20
-24.87500000000023
 30
0
 11
-36.50000000000039
 21
-25.00000000000023
 31
0
  0
LINE
  8
1
 62
3
 10
-35.50000000000039
 20
-24.50000000000023
 30
0
 11
-36.50000000000039
 21
-24.62500000000023
 31
0
  0
LINE
  8
1
 62
3
 10
-35.50000000000039
 20
-28.55000000000024
 30
0
 11
-35.50000000000039
 21
-20.95000000000022
 31
0
  0
LINE
  8
1
 62
3
 10
-36.50000000000039
 20
-28.55000000000024
 30
0
 11
-35.50000000000039
 21
-28.55000000000024
 31
0
  0
LINE
  8
1
 62
3
 10
-36.50000000000039
 20
-20.95000000000022
 30
0
 11
-36.50000000000039
 21
-28.55000000000024
 31
0
  0
LINE
  8
1
 62
3
 10
-35.50000000000039
 20
-20.95000000000022
 30
0
 11
-36.50000000000039
 21
-20.95000000000022
 31
0
  0
LINE
  8
1
 62
1
 10
-56.50000000000016
 20
-24.75000000000023
 30
0
 11
16.49999999999984
 21
-24.75000000000023
 31
0
  0
LINE
  8
1
 62
3
 10
8.499999999999838
 20
-28.15000000000005
 30
0
 11
8.499999999999837
 21
-21.35000000000022
 31
0
  0
LINE
  8
1
 62
3
 10
8.499999999999837
 20
-20.75000000000023
 30
0
 11
8.499999999999837
 21
-22.47000000000023
 31
0
  0
LINE
  8
1
 62
3
 10
11.57632339204952
 20
-24.20000000000024
 30
0
 11
11.34132339204952
 21
-24.20000000000024
 31
0
  0
LINE
  8
1
 62
3
 10
11.34132339204952
 20
-24.20000000000024
 30
0
 11
11.34132339204952
 21
-25.30000000000024
 31
0
  0
LINE
  8
1
 62
3
 10
11.34132339204952
 20
-25.30000000000024
 30
0
 11
11.57632339204952
 21
-25.30000000000024
 31
0
  0
LINE
  8
1
 62
3
 10
10.19599839871855
 20
-20.75000000000023
 30
0
 11
8.499999999999837
 21
-20.75000000000023
 31
0
  0
LINE
  8
1
 62
3
 10
8.499999999999837
 20
-27.03000000000023
 30
0
 11
8.499999999999837
 21
-28.75000000000023
 31
0
  0
LINE
  8
1
 62
3
 10
8.499999999999837
 20
-28.75000000000023
 30
0
 11
10.19599839871855
 21
-28.75000000000023
 31
0
  0
LINE
  8
1
 62
3
 10
161.4
 20
9.035485598461094
 30
0
 11
161.3999999999999
 21
2.167172445577307
 31
0
  0
LINE
  8
1
 62
3
 10
161.3999999999998
 20
-2.16717244557799
 30
0
 11
161.3999999999998
 21
-9.035485598461605
 31
0
  0
LINE
  8
1
 62
3
 10
157
 20
-9
 30
0
 11
156.9999999999998
 21
-7
 31
0
  0
LINE
  8
1
 62
3
 10
156.9999999999998
 20
7
 30
0
 11
157
 21
9
 31
0
  0
LINE
  8
1
 62
3
 10
150.4999999999998
 20
-15.20230245719372
 30
0
 11
150.4999999999998
 21
-8.291561975888499
 31
0
  0
LINE
  8
1
 62
3
 10
149.4999999999998
 20
-8.64580823289532
 30
0
 11
149.4999999999998
 21
-15.39837653780424
 31
0
  0
LINE
  8
1
 62
3
 10
144.4999999999998
 20
-15.39837653780424
 30
0
 11
144.4999999999998
 21
-8.64580823289532
 31
0
  0
LINE
  8
1
 62
3
 10
143.4999999999998
 20
-8.291561975888499
 30
0
 11
143.4999999999998
 21
-15.20230245719372
 31
0
  0
LINE
  8
1
 62
3
 10
149.4999999999998
 20
15.39837653780415
 30
0
 11
149.4999999999998
 21
8.645808232895263
 31
0
  0
LINE
  8
1
 62
3
 10
150.4999999999998
 20
8.291561975888499
 30
0
 11
150.4999999999998
 21
15.2023024571937
 31
0
  0
LINE
  8
1
 62
3
 10
144.4999999999998
 20
8.645808232895263
 30
0
 11
144.4999999999998
 21
15.39837653780415
 31
0
  0
LINE
  8
1
 62
3
 10
143.4999999999998
 20
15.2023024571937
 30
0
 11
143.4999999999998
 21
8.291561975888499
 31
0
  0
LINE
  8
1
 62
3
 10
136.9999999999995
 20
9
 30
0
 11
136.9999999999998
 21
6.999999999999972
 31
0
  0
LINE
  8
1
 62
3
 10
136.9999999999998
 20
-7.000000000000028
 30
0
 11
136.9999999999995
 21
-9
 31
0
  0
LINE
  8
1
 62
3
 10
132.5999999999997
 20
-9.035485598461605
 30
0
 11
132.5999999999997
 21
-2.16717244557799
 31
0
  0
LINE
  8
1
 62
3
 10
132.5999999999997
 20
2.167172445577307
 30
0
 11
132.5999999999997
 21
9.035485598461094
 31
0
  0
LINE
  8
1
 62
1
 10
125.3999999999997
 20
0
 30
0
 11
168.5999999999999
 21
0
 31
0
  0
LINE
  8
1
 62
3
 10
137.4999999999996
 20
2.374999999999972
 30
0
 11
137.9999999999996
 21
2.374999999999972
 31
0
  0
LINE
  8
1
 62
3
 10
137.4999999999996
 20
-2.375000000000028
 30
0
 11
137.9999999999996
 21
-2.375000000000028
 31
0
  0
LINE
  8
1
 62
3
 10
138.5312499999996
 20
4.357651991520982
 30
0
 11
137.9999999999996
 21
3.437499999999972
 31
0
  0
LINE
  8
1
 62
3
 10
138.0982372981076
 20
4.607651991520982
 30
0
 11
138.5312499999996
 21
4.357651991520982
 31
0
  0
LINE
  8
1
 62
3
 10
137.4999999999996
 20
3.57147459621558
 30
0
 11
138.0982372981076
 21
4.607651991520982
 31
0
  0
LINE
  8
1
 62
3
 10
137.9999999999996
 20
-3.437500000000028
 30
0
 11
138.5312499999996
 21
-4.357651991521038
 31
0
  0
LINE
  8
1
 62
3
 10
138.5312499999996
 20
-4.357651991521038
 30
0
 11
138.0982372981076
 21
-4.607651991521038
 31
0
  0
LINE
  8
1
 62
3
 10
138.0982372981076
 20
-4.607651991521038
 30
0
 11
137.4999999999996
 21
-3.571474596215637
 31
0
  0
LINE
  8
1
 62
3
 10
137.9999999999996
 20
-2.750000000000028
 30
0
 11
137.4999999999996
 21
-2.750000000000028
 31
0
  0
LINE
  8
1
 62
3
 10
137.9999999999996
 20
2.749999999999972
 30
0
 11
137.4999999999996
 21
2.749999999999972
 31
0
  0
LINE
  8
1
 62
3
 10
137.4499999999997
 20
-4.500000000000028
 30
0
 11
137.9999999999998
 21
-4.500000000000028
 31
0
  0
LINE
  8
1
 62
3
 10
137.4499999999997
 20
4.5
 30
0
 11
137.4499999999997
 21
-4.500000000000028
 31
0
  0
LINE
  8
1
 62
3
 10
137.9999999999998
 20
4.499999999999972
 30
0
 11
137.4499999999997
 21
4.5
 31
0
  0
LINE
  8
1
 62
3
 10
137.9999999999998
 20
4.437499999999972
 30
0
 11
137.9999999999998
 21
4.499999999999972
 31
0
  0
LINE
  8
1
 62
3
 10
137.9999999999998
 20
-4.500000000000028
 30
0
 11
137.9999999999998
 21
-4.437500000000028
 31
0
  0
LINE
  8
1
 62
3
 10
137.9999999999996
 20
-3.437500000000028
 30
0
 11
137.9999999999996
 21
3.437499999999972
 31
0
  0
LINE
  8
1
 62
3
 10
137.4999999999996
 20
3.57147459621558
 30
0
 11
137.4999999999996
 21
-3.571474596215637
 31
0
  0
LINE
  8
1
 62
1
 10
137.7249999999997
 20
5.366206426213978
 30
0
 11
137.7249999999997
 21
-5.633793573786051
 31
0
  0
LINE
  8
1
 62
1
 10
156.2749999999995
 20
-5.633793573786051
 30
0
 11
156.2749999999995
 21
5.366206426213978
 31
0
  0
LINE
  8
1
 62
3
 10
155.9999999999998
 20
2.374999999999972
 30
0
 11
156.4999999999998
 21
2.374999999999972
 31
0
  0
LINE
  8
1
 62
3
 10
155.9999999999998
 20
-2.375000000000028
 30
0
 11
156.4999999999998
 21
-2.375000000000028
 31
0
  0
LINE
  8
1
 62
3
 10
155.9999999999998
 20
3.437499999999972
 30
0
 11
155.4687499999998
 21
4.357651991520982
 31
0
  0
LINE
  8
1
 62
3
 10
155.4687499999998
 20
4.357651991520982
 30
0
 11
155.9017627018919
 21
4.607651991520982
 31
0
  0
LINE
  8
1
 62
3
 10
155.9017627018919
 20
4.607651991520982
 30
0
 11
156.4999999999998
 21
3.57147459621558
 31
0
  0
LINE
  8
1
 62
3
 10
155.4687499999998
 20
-4.357651991521038
 30
0
 11
155.9999999999998
 21
-3.437500000000028
 31
0
  0
LINE
  8
1
 62
3
 10
155.9017627018919
 20
-4.607651991521038
 30
0
 11
155.4687499999998
 21
-4.357651991521038
 31
0
  0
LINE
  8
1
 62
3
 10
156.4999999999998
 20
-3.571474596215637
 30
0
 11
155.9017627018919
 21
-4.607651991521038
 31
0
  0
LINE
  8
1
 62
3
 10
156.4999999999998
 20
-2.750000000000028
 30
0
 11
155.9999999999998
 21
-2.750000000000028
 31
0
  0
LINE
  8
1
 62
3
 10
156.4999999999998
 20
2.749999999999972
 30
0
 11
155.9999999999998
 21
2.749999999999972
 31
0
  0
LINE
  8
1
 62
3
 10
155.9999999999998
 20
-4.500000000000028
 30
0
 11
156.5499999999998
 21
-4.500000000000028
 31
0
  0
LINE
  8
1
 62
3
 10
156.5499999999998
 20
-4.500000000000028
 30
0
 11
156.5499999999998
 21
4.5
 31
0
  0
LINE
  8
1
 62
3
 10
156.5499999999998
 20
4.5
 30
0
 11
155.9999999999998
 21
4.5
 31
0
  0
LINE
  8
1
 62
3
 10
155.9999999999998
 20
4.5
 30
0
 11
155.9999999999998
 21
4.437499999999972
 31
0
  0
LINE
  8
1
 62
3
 10
155.9999999999998
 20
-4.437500000000028
 30
0
 11
155.9999999999998
 21
-4.500000000000028
 31
0
  0
LINE
  8
1
 62
3
 10
155.9999999999998
 20
3.437499999999972
 30
0
 11
155.9999999999998
 21
-3.437500000000028
 31
0
  0
LINE
  8
1
 62
3
 10
156.4999999999998
 20
-3.571474596215637
 30
0
 11
156.4999999999998
 21
3.57147459621558
 31
0
  0
LINE
  8
1
 62
1
 10
135.8926960920647
 20
-13.23716933631755
 30
0
 11
138.8270665845797
 21
-9.740122759859929
 31
0
  0
LINE
  8
1
 62
1
 10
138.8270665845797
 20
9.740122759859872
 30
0
 11
135.8926960920647
 21
13.23716933631746
 31
0
  0
LINE
  8
1
 62
1
 10
155.1729334154198
 20
-9.740122759859929
 30
0
 11
158.1073039079348
 21
-13.23716933631755
 31
0
  0
LINE
  8
1
 62
1
 10
158.1073039079348
 20
13.23716933631746
 30
0
 11
155.1729334154198
 21
9.740122759859872
 31
0
  0
LINE
  8
1
 62
3
 10
141.9999999999998
 20
14.77700916965259
 30
0
 11
141.9999999999998
 21
17.91535654124675
 31
0
  0
LINE
  8
1
 62
3
 10
153.9999999999998
 20
-12.00000000000003
 30
0
 11
153.9999999999998
 21
-11.00000000000003
 31
0
  0
LINE
  8
1
 62
3
 10
141.9999999999998
 20
-14.77700916965273
 30
0
 11
141.9999999999998
 21
-17.91535654124695
 31
0
  0
LINE
  8
1
 62
3
 10
151.9999999999998
 20
-14.00000000000003
 30
0
 11
151.9999999999998
 21
-17.91535654124695
 31
0
  0
LINE
  8
1
 62
3
 10
151.9999999999998
 20
14.77700916965259
 30
0
 11
151.9999999999998
 21
17.91535654124675
 31
0
  0
LINE
  8
1
 62
3
 10
141.9999999999998
 20
13.99999999999997
 30
0
 11
141.9999999999998
 21
14.77700916965259
 31
0
  0
LINE
  8
1
 62
1
 10
146.9999999999998
 20
21.60000000000011
 30
0
 11
146.9999999999998
 21
-21.60000000000014
 31
0
  0
LINE
  8
1
 62
3
 10
133.4999999999998
 20
8.999999999999972
 30
0
 11
137.9999999999998
 21
8.999999999999972
 31
0
  0
LINE
  8
1
 62
3
 10
160.4999999999998
 20
12.79492086728146
 30
0
 11
160.4999999999998
 21
8.999999999999972
 31
0
  0
LINE
  8
1
 62
3
 10
133.4999999999998
 20
12.79492086728166
 30
0
 11
133.4999999999998
 21
8.999999999999972
 31
0
  0
LINE
  8
1
 62
3
 10
137.9999999999998
 20
-9.000000000000028
 30
0
 11
133.4999999999998
 21
-9.000000000000028
 31
0
  0
LINE
  8
1
 62
3
 10
135.9999999999998
 20
8.999999999999972
 30
0
 11
135.9999999999998
 21
5.999999999999972
 31
0
  0
LINE
  8
1
 62
3
 10
139.9999999999998
 20
-15.05191017778205
 30
0
 11
139.9999999999998
 21
-11.00000000000003
 31
0
  0
LINE
  8
1
 62
3
 10
160.4999999999998
 20
8.999999999999972
 30
0
 11
155.9999999999998
 21
8.999999999999972
 31
0
  0
LINE
  8
1
 62
3
 10
157.9999999999998
 20
-9.000000000000028
 30
0
 11
157.9999999999998
 21
-6.000000000000028
 31
0
  0
LINE
  8
1
 62
3
 10
153.9999999999998
 20
6
 30
0
 11
153.9999999999998
 21
5.656854249492369
 31
0
  0
LINE
  8
1
 62
3
 10
157.9999999999998
 20
5.999999999999972
 30
0
 11
157.9999999999998
 21
9
 31
0
  0
LINE
  8
1
 62
3
 10
154.9999999999998
 20
6.999999999999972
 30
0
 11
156.9999999999998
 21
7
 31
0
  0
LINE
  8
1
 62
3
 10
138.9999999999998
 20
6.999999999999972
 30
0
 11
136.9999999999998
 21
6.999999999999972
 31
0
  0
LINE
  8
1
 62
3
 10
135.9999999999998
 20
5.999999999999972
 30
0
 11
135.9999999999998
 21
-6.000000000000028
 31
0
  0
LINE
  8
1
 62
3
 10
139.9999999999998
 20
10.99999999999997
 30
0
 11
139.9999999999998
 21
11.99999999999997
 31
0
  0
LINE
  8
1
 62
3
 10
136.9999999999998
 20
-7.000000000000028
 30
0
 11
138.9999999999998
 21
-7.000000000000028
 31
0
  0
LINE
  8
1
 62
3
 10
135.9999999999998
 20
-6.000000000000028
 30
0
 11
135.9999999999998
 21
-9.000000000000028
 31
0
  0
LINE
  8
1
 62
3
 10
139.9999999999998
 20
-6.000000000000028
 30
0
 11
139.9999999999998
 21
-5.656854249492454
 31
0
  0
LINE
  8
1
 62
3
 10
154.9999999999998
 20
-7
 30
0
 11
156.9999999999998
 21
-7
 31
0
  0
LINE
  8
1
 62
3
 10
157.9999999999998
 20
-6.000000000000028
 30
0
 11
157.9999999999998
 21
5.999999999999972
 31
0
  0
LINE
  8
1
 62
3
 10
133.4999999999998
 20
-9.000000000000028
 30
0
 11
133.4999999999998
 21
-12.7949208672816
 31
0
  0
LINE
  8
1
 62
3
 10
160.4999999999998
 20
-9.000000000000028
 30
0
 11
160.4999999999998
 21
-12.79492086728175
 31
0
  0
LINE
  8
1
 62
3
 10
160.4999999999998
 20
-9.000000000000028
 30
0
 11
155.9999999999998
 21
-9.000000000000028
 31
0
  0
LINE
  8
1
 62
3
 10
139.9999999999998
 20
5.656854249492369
 30
0
 11
139.9999999999998
 21
5.999999999999972
 31
0
  0
LINE
  8
1
 62
3
 10
153.9999999999998
 20
-5.656854249492454
 30
0
 11
153.9999999999998
 21
-6
 31
0
  0
LINE
  8
1
 62
3
 10
153.9999999999998
 20
15.05191017778137
 30
0
 11
153.9999999999998
 21
10.99999999999997
 31
0
  0
LINE
  8
1
 62
3
 10
163.9787367021218
 20
0.8499999999999943
 30
0
 11
162.9999999999998
 21
0.8499999999999659
 31
0
  0
LINE
  8
1
 62
3
 10
163.9787367021218
 20
-0.8500000000000227
 30
0
 11
162.9999999999998
 21
-0.8500000000000227
 31
0
  0
LINE
  8
1
 62
3
 10
162.9999999999998
 20
0.8499999999999659
 30
0
 11
162.9999999999998
 21
-0.8500000000000227
 31
0
  0
LINE
  8
1
 62
3
 10
130.0212632978776
 20
0.8499999999999943
 30
0
 11
130.9999999999998
 21
0.8499999999999943
 31
0
  0
LINE
  8
1
 62
3
 10
130.0212632978776
 20
-0.8500000000000512
 30
0
 11
130.9999999999998
 21
-0.8500000000000512
 31
0
  0
LINE
  8
1
 62
3
 10
130.9999999999998
 20
0.8499999999999943
 30
0
 11
130.9999999999998
 21
-0.8500000000000512
 31
0
  0
LINE
  8
1
 62
3
 10
131.3044695845227
 20
0.6844896033548764
 30
0
 11
129.9389433237516
 21
5.75754344347996
 31
0
  0
LINE
  8
1
 62
3
 10
131.3044695845227
 20
0.6844896033548764
 30
0
 11
129.9389433237516
 21
5.75754344347996
 31
0
  0
LINE
  8
1
 62
3
 10
129.9389433237516
 20
-5.757543443480955
 30
0
 11
131.3044695845227
 21
-0.6844896033560417
 31
0
  0
LINE
  8
1
 62
3
 10
132.8654084278838
 20
1.152302403831044
 30
0
 11
131.6280397165147
 21
5.883758920768088
 31
0
  0
LINE
  8
1
 62
3
 10
132.8654084278838
 20
1.152302403831044
 30
0
 11
131.6280397165147
 21
5.883758920768088
 31
0
  0
LINE
  8
1
 62
3
 10
131.6280397165147
 20
-5.883758920768031
 30
0
 11
132.8654084278838
 21
-1.152302403832039
 31
0
  0
LINE
  8
1
 62
3
 10
131.6280397165147
 20
-5.883758920768031
 30
0
 11
132.8654084278838
 21
-1.152302403832039
 31
0
  0
LINE
  8
1
 62
3
 10
161.1345915721157
 20
-1.152302403832039
 30
0
 11
162.3719602834847
 21
-5.883758920768031
 31
0
  0
LINE
  8
1
 62
3
 10
161.1345915721157
 20
-1.152302403832039
 30
0
 11
162.3719602834847
 21
-5.883758920768031
 31
0
  0
LINE
  8
1
 62
3
 10
162.3719602834847
 20
5.883758920768088
 30
0
 11
161.1345915721157
 21
1.152302403831044
 31
0
  0
LINE
  8
1
 62
3
 10
164.0610566762478
 20
5.75754344347996
 30
0
 11
162.6955304154768
 21
0.6844896033548764
 31
0
  0
LINE
  8
1
 62
3
 10
164.0610566762478
 20
5.75754344347996
 30
0
 11
162.6955304154768
 21
0.6844896033548764
 31
0
  0
LINE
  8
1
 62
3
 10
164.0610566762478
 20
5.75754344347996
 30
0
 11
162.6955304154768
 21
0.6844896033548764
 31
0
  0
LINE
  8
1
 62
3
 10
162.6955304154768
 20
-0.6844896033560417
 30
0
 11
164.0610566762478
 21
-5.757543443480927
 31
0
  0
LINE
  8
1
 62
3
 10
162.6955304154768
 20
-0.6844896033560417
 30
0
 11
164.0610566762478
 21
-5.757543443480927
 31
0
  0
LINE
  8
1
 62
3
 10
163.8151717207998
 20
2.5
 30
0
 11
165.4185196660596
 21
2.5
 31
0
  0
LINE
  8
1
 62
3
 10
163.8151717207998
 20
-2.5
 30
0
 11
165.4185196660596
 21
-2.5
 31
0
  0
LINE
  8
1
 62
3
 10
130.1848282791996
 20
2.499999999999972
 30
0
 11
128.5814803339397
 21
2.499999999999972
 31
0
  0
LINE
  8
1
 62
3
 10
130.1848282791996
 20
-2.500000000000028
 30
0
 11
128.5814803339397
 21
-2.500000000000028
 31
0
  0
LINE
  8
1
 62
3
 10
145.3999999999997
 20
13.89999999999895
 30
0
 11
144.8499999999997
 21
13.89999999999895
 31
0
  0
LINE
  8
1
 62
3
 10
144.8499999999997
 20
9.399999999998983
 30
0
 11
145.3999999999997
 21
9.399999999998983
 31
0
  0
LINE
  8
1
 62
3
 10
144.8499999999997
 20
13.89999999999895
 30
0
 11
144.8499999999997
 21
9.399999999998983
 31
0
  0
LINE
  8
1
 62
3
 10
149.1499999999996
 20
13.89999999999895
 30
0
 11
148.5999999999997
 21
13.89999999999895
 31
0
  0
LINE
  8
1
 62
3
 10
149.1499999999996
 20
9.399999999998983
 30
0
 11
149.1499999999996
 21
13.89999999999895
 31
0
  0
LINE
  8
1
 62
3
 10
148.5999999999997
 20
9.399999999998983
 30
0
 11
149.1499999999996
 21
9.399999999998983
 31
0
  0
LINE
  8
1
 62
3
 10
144.8999999999997
 20
13.89999999999895
 30
0
 11
146.0999999999997
 21
13.89999999999895
 31
0
  0
LINE
  8
1
 62
3
 10
146.5999999999997
 20
13.39999999999895
 30
0
 11
146.5999999999997
 21
9.899999999998983
 31
0
  0
LINE
  8
1
 62
3
 10
146.0999999999997
 20
9.399999999998983
 30
0
 11
144.8999999999997
 21
9.399999999998983
 31
0
  0
LINE
  8
1
 62
3
 10
145.3999999999997
 20
13.89999999999895
 30
0
 11
144.8499999999997
 21
13.89999999999895
 31
0
  0
LINE
  8
1
 62
3
 10
144.8499999999997
 20
13.89999999999895
 30
0
 11
144.8499999999997
 21
9.399999999998983
 31
0
  0
LINE
  8
1
 62
3
 10
144.8499999999997
 20
9.399999999998983
 30
0
 11
145.3999999999997
 21
9.399999999998983
 31
0
  0
LINE
  8
1
 62
3
 10
147.3999999999997
 20
13.39999999999895
 30
0
 11
147.3999999999997
 21
9.899999999998983
 31
0
  0
LINE
  8
1
 62
3
 10
149.0999999999997
 20
13.89999999999895
 30
0
 11
147.8999999999997
 21
13.89999999999895
 31
0
  0
LINE
  8
1
 62
3
 10
149.1499999999996
 20
9.399999999998983
 30
0
 11
149.1499999999996
 21
13.89999999999895
 31
0
  0
LINE
  8
1
 62
3
 10
149.1499999999996
 20
13.89999999999895
 30
0
 11
148.5999999999997
 21
13.89999999999895
 31
0
  0
LINE
  8
1
 62
3
 10
147.8999999999997
 20
9.399999999998983
 30
0
 11
149.0999999999997
 21
9.399999999998983
 31
0
  0
LINE
  8
1
 62
3
 10
144.8499999999997
 20
-13.90000000000015
 30
0
 11
145.3999999999997
 21
-13.90000000000015
 31
0
  0
LINE
  8
1
 62
3
 10
148.5999999999997
 20
-13.90000000000103
 30
0
 11
149.1499999999996
 21
-13.90000000000015
 31
0
  0
LINE
  8
1
 62
3
 10
144.8499999999997
 20
-13.90000000000015
 30
0
 11
145.3999999999997
 21
-13.90000000000015
 31
0
  0
LINE
  8
1
 62
3
 10
145.3999999999997
 20
-9.400000000001029
 30
0
 11
144.8499999999997
 21
-9.400000000000148
 31
0
  0
LINE
  8
1
 62
3
 10
144.8499999999997
 20
-9.400000000000148
 30
0
 11
144.8499999999997
 21
-13.90000000000015
 31
0
  0
LINE
  8
1
 62
3
 10
148.5999999999997
 20
-13.90000000000103
 30
0
 11
149.1499999999996
 21
-13.90000000000015
 31
0
  0
LINE
  8
1
 62
3
 10
149.1499999999996
 20
-13.90000000000015
 30
0
 11
149.1499999999996
 21
-9.400000000000148
 31
0
  0
LINE
  8
1
 62
3
 10
149.1499999999996
 20
-9.400000000000148
 30
0
 11
148.5999999999997
 21
-9.400000000000148
 31
0
  0
LINE
  8
1
 62
3
 10
146.0999999999997
 20
-13.90000000000103
 30
0
 11
144.8999999999997
 21
-13.90000000000003
 31
0
  0
LINE
  8
1
 62
3
 10
146.5999999999997
 20
-9.900000000000148
 30
0
 11
146.5999999999997
 21
-13.40000000000015
 31
0
  0
LINE
  8
1
 62
3
 10
144.8999999999997
 20
-9.400000000000148
 30
0
 11
146.0999999999997
 21
-9.400000000000148
 31
0
  0
LINE
  8
1
 62
3
 10
144.8499999999997
 20
-13.90000000000015
 30
0
 11
145.3999999999997
 21
-13.90000000000015
 31
0
  0
LINE
  8
1
 62
3
 10
144.8499999999997
 20
-9.400000000000148
 30
0
 11
144.8499999999997
 21
-13.90000000000015
 31
0
  0
LINE
  8
1
 62
3
 10
145.3999999999997
 20
-9.400000000001029
 30
0
 11
144.8499999999997
 21
-9.400000000000148
 31
0
  0
LINE
  8
1
 62
3
 10
147.3999999999997
 20
-9.900000000000148
 30
0
 11
147.3999999999997
 21
-13.40000000000003
 31
0
  0
LINE
  8
1
 62
3
 10
147.8999999999997
 20
-13.90000000000003
 30
0
 11
149.0999999999997
 21
-13.90000000000103
 31
0
  0
LINE
  8
1
 62
3
 10
149.1499999999996
 20
-13.90000000000015
 30
0
 11
149.1499999999996
 21
-9.400000000000148
 31
0
  0
LINE
  8
1
 62
3
 10
148.5999999999997
 20
-13.90000000000103
 30
0
 11
149.1499999999996
 21
-13.90000000000015
 31
0
  0
LINE
  8
1
 62
3
 10
149.0999999999997
 20
-9.400000000000148
 30
0
 11
147.8999999999997
 21
-9.400000000000148
 31
0
  0
LINE
  8
1
 62
3
 10
10
 20
18.49999999999999
 30
0
 11
10
 21
-18.50000000000001
 31
0
  0
LINE
  8
0
 62
3
 10
8.499999999999838
 20
-30.00000000000001
 30
0
 11
6.499999999999838
 21
-30.00000000000001
 31
0
  0
LINE
  8
0
 62
3
 10
6.499999999999838
 20
29.99999999999999
 30
0
 11
8.499999999999838
 21
29.99999999999999
 31
0
  0
LINE
  8
1
 62
3
 10
8.999999999999838
 20
-19.00000000000001
 30
0
 11
9.5
 21
-19.00000000000001
 31
0
  0
LINE
  8
1
 62
3
 10
9.5
 20
18.99999999999999
 30
0
 11
8.999999999999838
 21
18.99999999999999
 31
0
  0
LINE
  8
1
 62
3
 10
8.499999999999838
 20
-30.00000000000001
 30
0
 11
8.499999999999838
 21
29.99999999999999
 31
0
  0
LINE
  8
0
 62
3
 10
8.499999999999838
 20
21.11293933246803
 30
0
 11
8.499999999999838
 21
28.11293933246803
 31
0
  0
LINE
  8
1
 62
3
 10
9.999999999999838
 20
-16.60000000000002
 30
0
 11
9.999999999999838
 21
16.59999999999999
 31
0
  0
LINE
  8
1
 62
3
 10
69.69999999999993
 20
18.59999999999999
 30
0
 11
11.99999999999984
 21
18.59999999999999
 31
0
  0
LINE
  8
1
 62
3
 10
11.99999999999984
 20
-18.59999999999999
 30
0
 11
69.69999999999992
 21
-18.60000000000002
 31
0
  0
LINE
  8
1
 62
2
 10
44.54945095942788
 20
7.083873753056977
 30
0
 11
44.54945095942788
 21
18.59999999999999
 31
0
  0
LINE
  8
1
 62
2
 10
24.54945095942788
 20
7.083873753056977
 30
0
 11
44.54945095942788
 21
7.083873753056977
 31
0
  0
LINE
  8
1
 62
2
 10
24.54945095942788
 20
18.59999999999999
 30
0
 11
24.54945095942788
 21
7.083873753056977
 31
0
  0
LINE
  8
1
 62
3
 10
64.69999999999993
 20
5.785714285713993
 30
0
 11
64.69999999999993
 21
-5.785714285714023
 31
0
  0
LINE
  8
1
 62
3
 10
64.69999999999993
 20
-1.000000000000001
 30
0
 11
63.09499734566692
 21
-1.000000000000001
 31
0
  0
LINE
  8
1
 62
3
 10
64.69999999999993
 20
0.9999999999999982
 30
0
 11
63.09499734566692
 21
0.9999999999999982
 31
0
  0
LINE
  8
1
 62
3
 10
66.19835826753916
 20
-1.500000000000001
 30
0
 11
65.69835826753899
 21
-1.500000000000001
 31
0
  0
LINE
  8
1
 62
3
 10
65.69835826753899
 20
1.499999999999999
 30
0
 11
66.19835826753916
 21
1.499999999999999
 31
0
  0
LINE
  8
1
 62
3
 10
64.49999999999989
 20
-7.500000000000001
 30
0
 11
62.49999999999989
 21
-7.500000000000001
 31
0
  0
LINE
  8
1
 62
3
 10
65.19999999999993
 20
-1.500000000000001
 30
0
 11
64.49999999999989
 21
-7.500000000000001
 31
0
  0
LINE
  8
1
 62
3
 10
65.19999999999993
 20
1.499999999999999
 30
0
 11
65.19999999999993
 21
-1.500000000000001
 31
0
  0
LINE
  8
1
 62
3
 10
64.49999999999989
 20
7.5
 30
0
 11
65.19999999999993
 21
1.499999999999999
 31
0
  0
LINE
  8
1
 62
3
 10
62.49999999999989
 20
7.5
 30
0
 11
64.49999999999989
 21
7.5
 31
0
  0
LINE
  8
1
 62
3
 10
62.49999999999989
 20
-2.500000000000001
 30
0
 11
62.49999999999989
 21
-7.500000000000001
 31
0
  0
LINE
  8
1
 62
3
 10
62.49999999999989
 20
7.5
 30
0
 11
62.49999999999989
 21
2.499999999999999
 31
0
  0
LINE
  8
1
 62
1
 10
82.9880014527679
 20
-8.881784197001252e-016
 30
0
 11
77.74500000000002
 21
-8.881784197001252e-016
 31
0
  0
LINE
  8
1
 62
3
 10
69.69999999999993
 20
-7.000000000000001
 30
0
 11
66.69999999999993
 21
-7.000000000000001
 31
0
  0
LINE
  8
1
 62
3
 10
66.69999999999993
 20
-18.60000000000002
 30
0
 11
66.69999999999993
 21
18.59999999999999
 31
0
  0
LINE
  8
1
 62
3
 10
69.69999999999993
 20
7
 30
0
 11
66.69999999999993
 21
7
 31
0
  0
LINE
  8
1
 62
3
 10
69.69999999999993
 20
18.59999999999999
 30
0
 11
69.69999999999993
 21
2.749999999999999
 31
0
  0
LINE
  8
1
 62
3
 10
66.69999999999993
 20
-12.79492086728212
 30
0
 11
69.69999999999993
 21
-12.79492086728212
 31
0
  0
LINE
  8
1
 62
3
 10
66.69999999999993
 20
12.79492086728098
 30
0
 11
69.69999999999993
 21
12.79492086728098
 31
0
  0
LINE
  8
1
 62
3
 10
66.69999999999993
 20
-9.000000000000004
 30
0
 11
69.69999999999993
 21
-9
 31
0
  0
LINE
  8
1
 62
3
 10
66.69999999999993
 20
8.999999999998892
 30
0
 11
69.69999999999993
 21
8.999999999998892
 31
0
  0
LINE
  8
1
 62
3
 10
69.69999999999993
 20
7.99999999999989
 30
0
 11
72.69999999999993
 21
8
 31
0
  0
LINE
  8
1
 62
3
 10
72.69999999999993
 20
-8
 30
0
 11
69.69999999999993
 21
-8
 31
0
  0
LINE
  8
1
 62
3
 10
73.69999999999993
 20
7
 30
0
 11
73.69999999999993
 21
2.749999999999999
 31
0
  0
LINE
  8
1
 62
3
 10
73.74999999999989
 20
2.749999999999999
 30
0
 11
73.74999999999989
 21
2.374999999999999
 31
0
  0
LINE
  8
1
 62
3
 10
73.74999999999989
 20
2.374999999999999
 30
0
 11
79.10000000000004
 21
2.374999999999999
 31
0
  0
LINE
  8
1
 62
3
 10
80.10000000000004
 20
1.374999999999999
 30
0
 11
80.10000000000004
 21
-1.375000000000001
 31
0
  0
LINE
  8
1
 62
3
 10
79.10000000000004
 20
-2.375000000000001
 30
0
 11
73.74999999999989
 21
-2.375000000000001
 31
0
  0
LINE
  8
1
 62
3
 10
73.74999999999989
 20
-2.375000000000001
 30
0
 11
73.74999999999989
 21
-2.750000000000001
 31
0
  0
LINE
  8
1
 62
3
 10
73.74999999999989
 20
-2.750000000000001
 30
0
 11
71.09999999999992
 21
-2.75
 31
0
  0
LINE
  8
1
 62
3
 10
80.10000000000004
 20
1.374999999999999
 30
0
 11
79.10000000000004
 21
2.374999999999999
 31
0
  0
LINE
  8
1
 62
3
 10
79.10000000000004
 20
-2.375000000000001
 30
0
 11
80.10000000000004
 21
-1.375000000000001
 31
0
  0
LINE
  8
1
 62
3
 10
79.10000000000004
 20
2.374999999999999
 30
0
 11
79.10000000000004
 21
-2.375000000000001
 31
0
  0
LINE
  8
1
 62
1
 10
77.55000000000008
 20
-8.881784197001252e-016
 30
0
 11
76.05499999999996
 21
-8.881784197001252e-016
 31
0
  0
LINE
  8
1
 62
1
 10
76.89999999999999
 20
0.8449999999999971
 30
0
 11
76.89999999999999
 21
-0.8450000000000291
 31
0
  0
LINE
  8
1
 62
1
 10
76.05499999999996
 20
-8.881784197001252e-016
 30
0
 11
77.74500000000002
 21
-8.881784197001252e-016
 31
0
  0
LINE
  8
1
 62
1
 10
77.74500000000002
 20
-8.881784197001252e-016
 30
0
 11
77.55000000000008
 21
-8.881784197001252e-016
 31
0
  0
LINE
  8
1
 62
3
 10
73.69999999999993
 20
-2.750000000000001
 30
0
 11
73.69999999999993
 21
-7.000000000000001
 31
0
  0
LINE
  8
1
 62
3
 10
69.69999999999993
 20
2.749999999999999
 30
0
 11
70.09999999999992
 21
4.607651991520994
 31
0
  0
LINE
  8
1
 62
3
 10
69.69999999999993
 20
2.749999999999999
 30
0
 11
69.69999999999992
 21
-18.60000000000002
 31
0
  0
LINE
  8
1
 62
3
 10
70.09999999999992
 20
4.607651991520994
 30
0
 11
71.09999999999992
 21
4.607651991520994
 31
0
  0
LINE
  8
1
 62
3
 10
71.09999999999992
 20
4.607651991520994
 30
0
 11
71.09999999999992
 21
2.749999999999999
 31
0
  0
LINE
  8
1
 62
3
 10
71.09999999999992
 20
2.749999999999999
 30
0
 11
73.74999999999989
 21
2.749999999999999
 31
0
  0
LINE
  8
1
 62
3
 10
70.09999999999992
 20
-4.607651991521032
 30
0
 11
69.69999999999993
 21
-2.750000000000001
 31
0
  0
LINE
  8
1
 62
3
 10
71.09999999999992
 20
-4.607651991521032
 30
0
 11
70.09999999999992
 21
-4.607651991521032
 31
0
  0
LINE
  8
1
 62
3
 10
71.09999999999992
 20
-2.75
 30
0
 11
71.09999999999992
 21
-4.607651991521032
 31
0
  0
LINE
  8
1
 62
1
 10
-38.29109106184001
 20
-8.881784197001252e-016
 30
0
 11
77.69999999999999
 21
-8.881784197001252e-016
 31
0
  0
LINE
  8
0
 62
3
 10
-159.8882030827301
 20
13
 30
0
 11
-154.5967004606012
 21
13
 31
0
  0
LINE
  8
0
 62
1
 10
-70.47595247058115
 20
10
 30
0
 11
-31.30753939735219
 21
10
 31
0
  0
LINE
  8
1
 62
2
 10
-67.00000000000017
 20
6
 30
0
 11
-67.00000000000017
 21
13
 31
0
  0
LINE
  8
1
 62
3
 10
-67.50000000000017
 20
6.5
 30
0
 11
-67.00000000000017
 21
6
 31
0
  0
LINE
  8
1
 62
3
 10
-40.50000000000019
 20
1.000183990691028
 30
0
 11
-34.50000000000019
 21
1.000183990691028
 31
0
  0
LINE
  8
1
 62
3
 10
-40.50000000000019
 20
18.99981600930903
 30
0
 11
-34.50000000000019
 21
18.99981600930903
 31
0
  0
LINE
  8
0
 62
3
 10
-67.50000000000017
 20
6.5
 30
0
 11
-67.50000000000017
 21
13
 31
0
  0
LINE
  8
0
 62
3
 10
-67.00000000000017
 20
6
 30
0
 11
-40.50000000000019
 21
6
 31
0
  0
LINE
  8
1
 62
3
 10
-67.50000000000017
 20
13
 30
0
 11
-54.50000000000019
 21
13
 31
0
  0
LINE
  8
1
 62
3
 10
-40.50000000000019
 20
18.99981600930903
 30
0
 11
-40.50000000000019
 21
1.000183990691028
 31
0
  0
LINE
  8
1
 62
3
 10
-49.11419726624099
 20
14.00024539811398
 30
0
 11
-40.50000000000019
 21
13.99965458923566
 31
0
  0
LINE
  8
1
 62
3
 10
-136.7424517716661
 20
25
 30
0
 11
-136.7424517716661
 21
30
 31
0
  0
LINE
  8
1
 62
3
 10
-127.2424517716661
 20
20.5
 30
0
 11
-132.2424517716661
 21
20.5
 31
0
  0
LINE
  8
1
 62
3
 10
-132.2424517716661
 20
-20.5
 30
0
 11
-127.2424517716661
 21
-20.5
 31
0
  0
LINE
  8
1
 62
3
 10
-136.7424517716661
 20
-30
 30
0
 11
-136.7424517716661
 21
-25
 31
0
  0
LINE
  8
1
 62
3
 10
-177.7424517716661
 20
-25
 30
0
 11
-177.7424517716661
 21
-30
 31
0
  0
LINE
  8
1
 62
3
 10
-187.2424517716661
 20
-20.5
 30
0
 11
-182.2424517716661
 21
-20.5
 31
0
  0
LINE
  8
1
 62
3
 10
-182.2424517716661
 20
20.5
 30
0
 11
-187.2424517716661
 21
20.5
 31
0
  0
LINE
  8
1
 62
3
 10
-177.7424517716661
 20
30
 30
0
 11
-177.7424517716661
 21
25
 31
0
  0
LINE
  8
1
 62
3
 10
-34.50000000000001
 20
20.99999999999999
 30
0
 11
-34.5
 21
-21
 31
0
  0
LINE
  8
1
 62
1
 10
-145.2424517716661
 20
10
 30
0
 11
-169.2424517716661
 21
10
 31
0
  0
LINE
  8
1
 62
3
 10
5.5
 20
-30.48214285714289
 30
0
 11
5.5
 21
30.48214285714283
 31
0
  0
LINE
  8
1
 62
3
 10
5.5
 20
-29.5
 30
0
 11
6.5
 21
-29.5
 31
0
  0
LINE
  8
1
 62
3
 10
5.5
 20
29.5
 30
0
 11
6.5
 21
29.5
 31
0
  0
LINE
  8
1
 62
3
 10
5.5
 20
30.48214285714283
 30
0
 11
-35.00587938443096
 21
30.00581065183809
 31
0
  0
LINE
  8
1
 62
3
 10
-35.00587938443096
 20
-30.00581065183809
 30
0
 11
5.5
 21
-30.48214285714289
 31
0
  0
LINE
  8
1
 62
3
 10
-35.5
 20
-29.50584522019443
 30
0
 11
-35.5
 21
-21
 31
0
  0
LINE
  8
1
 62
3
 10
-35.5
 20
-21
 30
0
 11
-34.5
 21
-21
 31
0
  0
LINE
  8
1
 62
3
 10
-35.5
 20
29.50584522019437
 30
0
 11
-35.5
 21
21
 31
0
  0
LINE
  8
1
 62
3
 10
-35.5
 20
21
 30
0
 11
-34.50000000000001
 21
20.99999999999999
 31
0
  0
LINE
  8
1
 62
1
 10
-125.5913845722742
 20
-24.75
 30
0
 11
-139.4835922678742
 21
-24.75
 31
0
  0
LINE
  8
1
 62
1
 10
-132.4924517716661
 20
-31.12312189172201
 30
0
 11
-132.4924517716661
 21
-17.20406629356393
 31
0
  0
LINE
  8
1
 62
1
 10
-181.9924517716661
 20
-31.12312189172201
 30
0
 11
-181.9924517716661
 21
-17.20406629356393
 31
0
  0
LINE
  8
1
 62
1
 10
-175.0913845722741
 20
-24.75
 30
0
 11
-188.9835922678742
 21
-24.75
 31
0
  0
LINE
  8
1
 62
1
 10
-125.5913845722742
 20
24.75
 30
0
 11
-139.4835922678742
 21
24.75
 31
0
  0
LINE
  8
1
 62
1
 10
-132.4924517716661
 20
18.37687810827799
 30
0
 11
-132.4924517716661
 21
32.29593370643607
 31
0
  0
LINE
  8
1
 62
1
 10
-181.9924517716661
 20
18.37687810827799
 30
0
 11
-181.9924517716661
 21
32.29593370643607
 31
0
  0
LINE
  8
1
 62
1
 10
-175.0913845722741
 20
24.75
 30
0
 11
-188.9835922678742
 21
24.75
 31
0
  0
LINE
  8
1
 62
1
 10
-192.2424517716661
 20
0
 30
0
 11
-122.2424517716661
 21
0
 31
0
  0
LINE
  8
1
 62
1
 10
-161.6152597808323
 20
-23.5
 30
0
 11
-154.0924517716663
 21
-23.5
 31
0
  0
LINE
  8
1
 62
1
 10
-141.3152597808321
 20
11.79999999999996
 30
0
 11
-133.7924517716664
 21
11.79999999999996
 31
0
  0
LINE
  8
1
 62
1
 10
-181.9152597808323
 20
11.79999999999996
 30
0
 11
-174.3924517716663
 21
11.79999999999996
 31
0
  0
LINE
  8
1
 62
1
 10
-136.9424517716662
 20
16.84173320862197
 30
0
 11
-136.9424517716662
 21
6.652862024319006
 31
0
  0
LINE
  8
1
 62
1
 10
-177.5424517716664
 20
6.652862024319006
 30
0
 11
-177.5424517716664
 21
16.84173320862197
 31
0
  0
LINE
  8
1
 62
1
 10
-157.2424517716661
 20
-35
 30
0
 11
-157.2424517716661
 21
35
 31
0
  0
LINE
  8
1
 62
3
 10
-132.2424517716661
 20
30
 30
0
 11
-182.2424517716661
 21
30
 31
0
  0
LINE
  8
1
 62
3
 10
-132.2424517716661
 20
-30
 30
0
 11
-182.2424517716661
 21
-30
 31
0
  0
LINE
  8
1
 62
3
 10
-187.2424517716661
 20
25
 30
0
 11
-187.2424517716661
 21
-25
 31
0
  0
LINE
  8
1
 62
3
 10
-127.2424517716661
 20
-25
 30
0
 11
-127.2424517716661
 21
25
 31
0
  0
LINE
  8
1
 62
1
 10
-174.3924517716663
 20
11.79999999999996
 30
0
 11
-173.3566079860181
 21
11.79999999999996
 31
0
  0
LINE
  8
1
 62
1
 10
-133.7924517716664
 20
11.79999999999996
 30
0
 11
-132.7566079860182
 21
11.79999999999996
 31
0
  0
LINE
  8
1
 62
1
 10
-154.0924517716663
 20
-23.5
 30
0
 11
-152.7984987388331
 21
-23.5
 31
0
  0
LINE
  8
1
 62
1
 10
-181.1174517716661
 20
11.79999999999996
 30
0
 11
-173.9674517716663
 21
11.79999999999996
 31
0
  0
LINE
  8
1
 62
1
 10
-177.5424517716664
 20
15.375
 30
0
 11
-177.5424517716664
 21
8.225000000000023
 31
0
  0
LINE
  8
1
 62
1
 10
-136.9424517716662
 20
15.375
 30
0
 11
-136.9424517716662
 21
8.225000000000023
 31
0
  0
LINE
  8
1
 62
1
 10
-140.5174517716662
 20
11.79999999999996
 30
0
 11
-133.3674517716661
 21
11.79999999999996
 31
0
  0
LINE
  8
1
 62
1
 10
-160.8174517716662
 20
-23.5
 30
0
 11
-153.6674517716664
 21
-23.5
 31
0
  0
LINE
  8
1
 62
1
 10
-157.2424517716661
 20
-19.92500000000001
 30
0
 11
-157.2424517716661
 21
-27.07499999999999
 31
0
  0
LINE
  8
1
 62
3
 10
-177.8424517716663
 20
12.7999999999999
 30
0
 11
-177.8424517716663
 21
13.19999999999999
 31
0
  0
LINE
  8
1
 62
3
 10
-177.2424517716661
 20
12.7999999999999
 30
0
 11
-177.2424517716661
 21
13.19999999999999
 31
0
  0
LINE
  8
1
 62
3
 10
-177.2424517716661
 20
10.79999999999996
 30
0
 11
-177.2424517716661
 21
10.40000000000003
 31
0
  0
LINE
  8
1
 62
3
 10
-176.5424517716664
 20
11.5
 30
0
 11
-176.1424517716663
 21
11.5
 31
0
  0
LINE
  8
1
 62
3
 10
-176.5424517716664
 20
12.10000000000002
 30
0
 11
-176.1424517716663
 21
12.10000000000002
 31
0
  0
LINE
  8
1
 62
3
 10
-176.0424517716664
 20
11.60000000000002
 30
0
 11
-176.0424517716664
 21
12
 31
0
  0
LINE
  8
1
 62
3
 10
-179.0424517716664
 20
11.60000000000002
 30
0
 11
-179.0424517716664
 21
12
 31
0
  0
LINE
  8
1
 62
3
 10
-177.7424517716661
 20
10.29999999999996
 30
0
 11
-177.3424517716663
 21
10.29999999999996
 31
0
  0
LINE
  8
1
 62
3
 10
-177.7424517716661
 20
13.2999999999999
 30
0
 11
-177.3424517716663
 21
13.2999999999999
 31
0
  0
LINE
  8
1
 62
3
 10
-177.8424517716663
 20
10.40000000000003
 30
0
 11
-177.8424517716663
 21
10.79999999999996
 31
0
  0
LINE
  8
1
 62
3
 10
-178.5483341246074
 20
11.5
 30
0
 11
-178.5424517716664
 21
11.5
 31
0
  0
LINE
  8
1
 62
3
 10
-178.5483341246074
 20
12.10000000000002
 30
0
 11
-178.5424517716664
 21
12.10000000000002
 31
0
  0
LINE
  8
1
 62
3
 10
-178.9424517716662
 20
11.5
 30
0
 11
-178.5483341246074
 21
11.5
 31
0
  0
LINE
  8
1
 62
3
 10
-178.9424517716662
 20
12.10000000000002
 30
0
 11
-178.5483341246074
 21
12.10000000000002
 31
0
  0
LINE
  8
1
 62
3
 10
-135.9365694187252
 20
12.10000000000002
 30
0
 11
-135.5424517716664
 21
12.10000000000002
 31
0
  0
LINE
  8
1
 62
3
 10
-135.9365694187252
 20
11.5
 30
0
 11
-135.5424517716664
 21
11.5
 31
0
  0
LINE
  8
1
 62
3
 10
-135.9424517716662
 20
12.10000000000002
 30
0
 11
-135.9365694187252
 21
12.10000000000002
 31
0
  0
LINE
  8
1
 62
3
 10
-135.9424517716662
 20
11.5
 30
0
 11
-135.9365694187252
 21
11.5
 31
0
  0
LINE
  8
1
 62
3
 10
-136.6424517716662
 20
10.79999999999996
 30
0
 11
-136.6424517716662
 21
10.40000000000003
 31
0
  0
LINE
  8
1
 62
3
 10
-137.1424517716662
 20
13.2999999999999
 30
0
 11
-136.7424517716661
 21
13.2999999999999
 31
0
  0
LINE
  8
1
 62
3
 10
-137.1424517716662
 20
10.29999999999996
 30
0
 11
-136.7424517716661
 21
10.29999999999996
 31
0
  0
LINE
  8
1
 62
3
 10
-135.4424517716662
 20
12
 30
0
 11
-135.4424517716662
 21
11.60000000000002
 31
0
  0
LINE
  8
1
 62
3
 10
-138.4424517716662
 20
12
 30
0
 11
-138.4424517716662
 21
11.60000000000002
 31
0
  0
LINE
  8
1
 62
3
 10
-138.3424517716663
 20
12.10000000000002
 30
0
 11
-137.9424517716662
 21
12.10000000000002
 31
0
  0
LINE
  8
1
 62
3
 10
-138.3424517716663
 20
11.5
 30
0
 11
-137.9424517716662
 21
11.5
 31
0
  0
LINE
  8
1
 62
3
 10
-137.2424517716661
 20
10.40000000000003
 30
0
 11
-137.2424517716661
 21
10.79999999999996
 31
0
  0
LINE
  8
1
 62
3
 10
-137.2424517716661
 20
13.19999999999999
 30
0
 11
-137.2424517716661
 21
12.7999999999999
 31
0
  0
LINE
  8
1
 62
3
 10
-136.6424517716662
 20
13.19999999999999
 30
0
 11
-136.6424517716662
 21
12.7999999999999
 31
0
  0
LINE
  8
1
 62
3
 10
-156.9424517716662
 20
-22.09999999999997
 30
0
 11
-156.9424517716662
 21
-22.5
 31
0
  0
LINE
  8
1
 62
3
 10
-157.5424517716664
 20
-22.09999999999997
 30
0
 11
-157.5424517716664
 21
-22.5
 31
0
  0
LINE
  8
1
 62
3
 10
-157.5424517716664
 20
-24.90000000000003
 30
0
 11
-157.5424517716664
 21
-24.5
 31
0
  0
LINE
  8
1
 62
3
 10
-158.6424517716663
 20
-23.80000000000001
 30
0
 11
-158.2424517716661
 21
-23.80000000000001
 31
0
  0
LINE
  8
1
 62
3
 10
-158.6424517716663
 20
-23.20000000000005
 30
0
 11
-158.2424517716661
 21
-23.20000000000005
 31
0
  0
LINE
  8
1
 62
3
 10
-158.7424517716661
 20
-23.30000000000001
 30
0
 11
-158.7424517716661
 21
-23.70000000000005
 31
0
  0
LINE
  8
1
 62
3
 10
-155.7424517716661
 20
-23.30000000000001
 30
0
 11
-155.7424517716661
 21
-23.70000000000005
 31
0
  0
LINE
  8
1
 62
3
 10
-157.4424517716662
 20
-25
 30
0
 11
-157.0424517716664
 21
-25
 31
0
  0
LINE
  8
1
 62
3
 10
-157.4424517716662
 20
-22
 30
0
 11
-157.0424517716664
 21
-22
 31
0
  0
LINE
  8
1
 62
3
 10
-156.9424517716662
 20
-24.5
 30
0
 11
-156.9424517716662
 21
-24.90000000000003
 31
0
  0
LINE
  8
1
 62
3
 10
-156.2424517716661
 20
-23.80000000000001
 30
0
 11
-156.2365694187251
 21
-23.80000000000001
 31
0
  0
LINE
  8
1
 62
3
 10
-156.2424517716661
 20
-23.20000000000005
 30
0
 11
-156.2365694187251
 21
-23.20000000000005
 31
0
  0
LINE
  8
1
 62
3
 10
-156.2365694187251
 20
-23.80000000000001
 30
0
 11
-155.8424517716663
 21
-23.80000000000001
 31
0
  0
LINE
  8
1
 62
3
 10
-156.2365694187251
 20
-23.20000000000005
 30
0
 11
-155.8424517716663
 21
-23.20000000000005
 31
0
  0
LINE
  8
1
 62
1
 10
-28.62611195139608
 20
10
 30
0
 11
-65.17851106366109
 21
10
 31
0
  0
LINE
  8
1
 62
3
 10
6.499999999999838
 20
29.99999999999999
 30
0
 11
6.499999999999838
 21
-30.00000000000001
 31
0
  0
LINE
  8
1
 62
1
 10
16.49999999999984
 20
24.75000000000023
 30
0
 11
-56.50000000000016
 21
24.75000000000023
 31
0
  0
LINE
  8
1
 62
3
 10
8.499999999999838
 20
21.35000000000001
 30
0
 11
8.499999999999838
 21
28.15000000000005
 31
0
  0
LINE
  8
1
 62
3
 10
8.499999999999837
 20
22.47000000000023
 30
0
 11
8.499999999999837
 21
20.75000000000023
 31
0
  0
LINE
  8
1
 62
3
 10
11.34132339204952
 20
24.20000000000024
 30
0
 11
11.57632339204952
 21
24.20000000000024
 31
0
  0
LINE
  8
1
 62
3
 10
11.34132339204952
 20
25.30000000000024
 30
0
 11
11.34132339204952
 21
24.20000000000024
 31
0
  0
LINE
  8
1
 62
3
 10
11.57632339204952
 20
25.30000000000024
 30
0
 11
11.34132339204952
 21
25.30000000000024
 31
0
  0
LINE
  8
1
 62
3
 10
8.499999999999837
 20
20.75000000000023
 30
0
 11
10.19599839871855
 21
20.75000000000023
 31
0
  0
LINE
  8
1
 62
3
 10
8.499999999999837
 20
28.75000000000023
 30
0
 11
8.499999999999837
 21
27.03000000000023
 31
0
  0
LINE
  8
1
 62
3
 10
10.19599839871855
 20
28.75000000000023
 30
0
 11
8.499999999999837
 21
28.75000000000023
 31
0
  0
LINE
  8
1
 62
3
 10
-51.50000000000016
 20
26.3711138000002
 30
0
 11
-51.50000000000016
 21
26.75000000000023
 31
0
  0
LINE
  8
1
 62
1
 10
-39.7000000000004
 20
26.37111380000025
 30
0
 11
-51.50000000000016
 21
26.3711138000002
 31
0
  0
LINE
  8
1
 62
3
 10
-51.50000000000016
 20
23.12888620000028
 30
0
 11
-51.50000000000016
 21
26.3711138000002
 31
0
  0
LINE
  8
1
 62
1
 10
-39.7000000000004
 20
23.12888620000024
 30
0
 11
-51.50000000000016
 21
23.12888620000028
 31
0
  0
LINE
  8
1
 62
3
 10
-51.50000000000016
 20
22.75000000000023
 30
0
 11
-51.50000000000016
 21
23.12888620000028
 31
0
  0
LINE
  8
1
 62
3
 10
-39.7000000000004
 20
22.75000000000023
 30
0
 11
-51.50000000000016
 21
22.75000000000023
 31
0
  0
LINE
  8
1
 62
3
 10
-51.50000000000016
 20
26.75000000000023
 30
0
 11
-39.7000000000004
 21
26.75000000000023
 31
0
  0
LINE
  8
1
 62
3
 10
-36.9711399909321
 20
26.77072594216392
 30
0
 11
-39.2288600090687
 21
26.77072594216392
 31
0
  0
LINE
  8
1
 62
3
 10
-36.9711399909321
 20
22.72927405783653
 30
0
 11
-39.2288600090687
 21
22.72927405783653
 31
0
  0
LINE
  8
1
 62
3
 10
-36.9711399909321
 20
28.79145188432761
 30
0
 11
-39.2288600090687
 21
28.79145188432761
 31
0
  0
LINE
  8
1
 62
3
 10
-36.9711399909321
 20
20.70854811567287
 30
0
 11
-39.2288600090687
 21
20.70854811567287
 31
0
  0
LINE
  8
1
 62
3
 10
-36.50000000000039
 20
27.78108891324578
 30
0
 11
-36.50000000000039
 21
21.71891108675467
 31
0
  0
LINE
  8
1
 62
3
 10
-39.7000000000004
 20
27.78108891324578
 30
0
 11
-39.7000000000004
 21
21.71891108675467
 31
0
  0
LINE
  8
1
 62
3
 10
-36.50000000000039
 20
25.00000000000023
 30
0
 11
-35.50000000000039
 21
24.87500000000023
 31
0
  0
LINE
  8
1
 62
3
 10
-36.50000000000039
 20
24.62500000000023
 30
0
 11
-35.50000000000039
 21
24.50000000000023
 31
0
  0
LINE
  8
1
 62
3
 10
-35.50000000000039
 20
20.95000000000022
 30
0
 11
-35.50000000000039
 21
28.55000000000024
 31
0
  0
LINE
  8
1
 62
3
 10
-35.50000000000039
 20
28.55000000000024
 30
0
 11
-36.50000000000039
 21
28.55000000000024
 31
0
  0
LINE
  8
1
 62
3
 10
-36.50000000000039
 20
28.55000000000024
 30
0
 11
-36.50000000000039
 21
20.95000000000022
 31
0
  0
LINE
  8
1
 62
3
 10
-36.50000000000039
 20
20.95000000000022
 30
0
 11
-35.50000000000039
 21
20.95000000000022
 31
0
  0
ARC
  8
1
 62
3
 10
-41.06903076288949
 20
-24.75000000000023
 30
0
 40
4.569030762889089
 50
333.7514637544167
 51
26.2485362455835
  0
ARC
  8
1
 62
3
 10
-37.81893518732206
 20
-21.71891108675467
 30
0
 40
1.318935187321673
 50
309.9999999999997
 51
49.99999999999866
  0
ARC
  8
1
 62
3
 10
-37.81893518732206
 20
-27.78108891324578
 30
0
 40
1.318935187321648
 50
310.0000000000006
 51
50.00000000000036
  0
ARC
  8
1
 62
3
 10
-35.13096923711131
 20
-24.75000000000023
 30
0
 40
4.569030762889094
 50
153.7514637544165
 51
206.2485362455834
  0
ARC
  8
1
 62
3
 10
-38.38106481267873
 20
-27.78108891324578
 30
0
 40
1.318935187321678
 50
129.9999999999999
 51
229.9999999999992
  0
ARC
  8
1
 62
3
 10
-38.38106481267873
 20
-21.71891108675467
 30
0
 40
1.318935187321631
 50
130.0000000000016
 51
230.0000000000001
  0
ARC
  8
1
 62
3
 10
5.199999999999832
 20
-24.75000000000023
 30
0
 40
6.399999999999997
 50
20.10550978791594
 51
38.68218745348945
  0
ARC
  8
1
 62
3
 10
5.199999999999832
 20
-24.75000000000023
 30
0
 40
6.400000000000002
 50
339.8944902120839
 51
355.070063062818
  0
ARC
  8
1
 62
3
 10
5.199999999999832
 20
-24.75000000000023
 30
0
 40
6.399999999999999
 50
321.3178125465105
 51
339.8944902120839
  0
ARC
  8
1
 62
3
 10
5.199999999999832
 20
-24.75000000000023
 30
0
 40
6.400000000000001
 50
4.929936937181902
 51
20.10550978791594
  0
ARC
  8
1
 62
3
 10
146.9999999999998
 20
-8.881784197001252e-016
 30
0
 40
14.99999999999999
 50
260.4059317731395
 51
279.5940682268604
  0
ARC
  8
1
 62
3
 10
146.9999999999998
 20
-8.881784197001252e-016
 30
0
 40
15.00000000000012
 50
242.1818607153463
 51
256.5066011784483
  0
ARC
  8
1
 62
3
 10
146.9999999999998
 20
-8.881784197001252e-016
 30
0
 40
14.99999999999997
 50
62.18186071534601
 51
76.50660117844834
  0
ARC
  8
1
 62
3
 10
146.9999999999998
 20
-8.881784197001252e-016
 30
0
 40
15.00000000000001
 50
80.40593177313956
 51
99.59406822686044
  0
ARC
  8
1
 62
1
 10
146.9999999999998
 20
-8.881784197001252e-016
 30
0
 40
14.99999999999989
 50
220.1709933307081
 51
239.9716332704574
  0
ARC
  8
1
 62
1
 10
146.9999999999998
 20
-8.881784197001252e-016
 30
0
 40
14.99999999999977
 50
120.0283667295428
 51
139.8290066692922
  0
ARC
  8
1
 62
1
 10
146.9999999999998
 20
-8.881784197001252e-016
 30
0
 40
14.99999999999975
 50
300.0283667295423
 51
319.8290066692911
  0
ARC
  8
1
 62
1
 10
146.9999999999998
 20
-8.881784197001252e-016
 30
0
 40
14.99999999999959
 50
40.17099333070863
 51
59.97163327045762
  0
ARC
  8
1
 62
3
 10
146.9999999999998
 20
-8.881784197001252e-016
 30
0
 40
15.60000000000003
 50
251.306059076677
 51
288.693940923323
  0
ARC
  8
1
 62
3
 10
146.9999999999998
 20
-8.881784197001252e-016
 30
0
 40
15.5999999999999
 50
71.30605907667685
 51
108.6939409233231
  0
ARC
  8
1
 62
3
 10
146.9999999999998
 20
-8.881784197001252e-016
 30
0
 40
16.60000000000057
 50
245.0588752410725
 51
252.470018266927
  0
ARC
  8
1
 62
3
 10
153.9999999999998
 20
-14.00000000000003
 30
0
 40
2
 50
90
 51
180
  0
ARC
  8
1
 62
3
 10
146.9999999999998
 20
-8.881784197001252e-016
 30
0
 40
16.59999999999995
 50
65.05887524107143
 51
72.47001826692684
  0
ARC
  8
1
 62
3
 10
139.9999999999998
 20
13.99999999999997
 30
0
 40
2
 50
270
 51
0
  0
ARC
  8
1
 62
3
 10
146.9999999999998
 20
-8.881784197001252e-016
 30
0
 40
15.00000000000002
 50
103.4933988215517
 51
109.4712206344907
  0
ARC
  8
1
 62
3
 10
146.9999999999998
 20
-8.881784197001252e-016
 30
0
 40
17.00000000000066
 50
206.7051315194654
 51
217.4280055430432
  0
ARC
  8
1
 62
3
 10
146.9999999999998
 20
-8.881784197001252e-016
 30
0
 40
18.59999999999981
 50
204.7751354345108
 51
335.224864565489
  0
ARC
  8
1
 62
3
 10
146.9999999999998
 20
-8.881784197001252e-016
 30
0
 40
17.00000000000023
 50
26.70513151946251
 51
37.42800554304212
  0
ARC
  8
1
 62
3
 10
146.9999999999998
 20
-8.881784197001252e-016
 30
0
 40
8.999999999999993
 50
38.94244126898133
 51
141.0575587310187
  0
ARC
  8
1
 62
3
 10
146.9999999999998
 20
-8.881784197001252e-016
 30
0
 40
9.000000000000046
 50
218.9424412689818
 51
321.0575587310183
  0
ARC
  8
1
 62
3
 10
146.9999999999998
 20
-8.881784197001252e-016
 30
0
 40
16.99999999999939
 50
142.5719944569601
 51
153.2948684805375
  0
ARC
  8
1
 62
3
 10
146.9999999999998
 20
-8.881784197001252e-016
 30
0
 40
18.59999999999923
 50
24.77513543450833
 51
155.2248645654919
  0
ARC
  8
1
 62
3
 10
146.9999999999998
 20
-8.881784197001252e-016
 30
0
 40
18.58741151126263
 50
156.1486304767352
 51
203.8513695232674
  0
ARC
  8
1
 62
3
 10
146.9999999999998
 20
-8.881784197001252e-016
 30
0
 40
17.00000000000004
 50
142.5719944569573
 51
153.2948684805375
  0
ARC
  8
1
 62
3
 10
146.9999999999998
 20
-8.881784197001252e-016
 30
0
 40
16.99999999999996
 50
322.5719944569577
 51
333.2948684805347
  0
ARC
  8
1
 62
3
 10
146.9999999999998
 20
-8.881784197001252e-016
 30
0
 40
16.99999999999964
 50
166.836867130526
 51
193.1631328694759
  0
ARC
  8
1
 62
3
 10
146.9999999999998
 20
-8.881784197001252e-016
 30
0
 40
18.58741151126299
 50
336.1486304767327
 51
23.85136952326478
  0
ARC
  8
1
 62
3
 10
146.9999999999998
 20
-8.881784197001252e-016
 30
0
 40
16.99999999999977
 50
346.8368671305224
 51
13.16313286947487
  0
ARC
  8
1
 62
3
 10
146.9999999999998
 20
-8.881784197001252e-016
 30
0
 40
15
 50
283.4933988215517
 51
289.4712206344908
  0
ARC
  8
1
 62
3
 10
58.38571428569697
 20
-8.881784197001252e-016
 30
0
 40
4.814285714300421
 50
328.7155070856889
 51
31.28449291431111
  0
ARC
  8
1
 62
2
 10
-157.2424517716661
 20
10
 30
0
 40
3.500000000000002
 50
121.002719133874
 51
58.99728086612596
  0
ARC
  8
1
 62
3
 10
-54.50000000000019
 20
27.99999999999682
 30
0
 40
14.99999999999682
 50
270
 51
291.0420805544337
  0
ARC
  8
1
 62
3
 10
-176.5395105951953
 20
10.79705882352943
 30
0
 40
0.7029473295324936
 50
90.23972989612234
 51
179.7602701039239
  0
ARC
  8
1
 62
3
 10
-178.5453929481363
 20
10.79705882352943
 30
0
 40
0.7029473295319263
 50
0.2397298960763446
 51
90.23972989612234
  0
ARC
  8
1
 62
3
 10
-178.5453929481363
 20
12.8029411764706
 30
0
 40
0.7029473295325043
 50
269.7602701038777
 51
359.7602701039098
  0
ARC
  8
1
 62
3
 10
-176.5395105951953
 20
12.8029411764706
 30
0
 40
0.7029473295327228
 50
180.23972989609
 51
269.7602701038777
  0
ARC
  8
1
 62
3
 10
-137.9453929481362
 20
12.8029411764706
 30
0
 40
0.7029473295324995
 50
270.239729896032
 51
359.7602701039098
  0
ARC
  8
1
 62
3
 10
-135.9395105951951
 20
12.8029411764706
 30
0
 40
0.7029473295330354
 50
180.2397298960899
 51
270.2397298960227
  0
ARC
  8
1
 62
3
 10
-135.9395105951951
 20
10.79705882352943
 30
0
 40
0.7029473295324884
 50
89.76027010397728
 51
179.760270103924
  0
ARC
  8
1
 62
3
 10
-137.9453929481362
 20
10.79705882352943
 30
0
 40
0.7029473295320116
 50
0.2397298960763156
 51
89.76027010396801
  0
ARC
  8
1
 62
3
 10
-158.2453929481364
 20
-24.50294117647059
 30
0
 40
0.7029473295319265
 50
0.2397298960811225
 51
89.76027010394252
  0
ARC
  8
1
 62
3
 10
-156.2395105951954
 20
-24.50294117647059
 30
0
 40
0.7029473295324974
 50
89.76027010394252
 51
179.7602701039191
  0
ARC
  8
1
 62
3
 10
-156.2395105951954
 20
-22.49705882352941
 30
0
 40
0.7029473295327223
 50
180.2397298960809
 51
270.2397298960574
  0
ARC
  8
1
 62
3
 10
-158.2453929481364
 20
-22.49705882352941
 30
0
 40
0.7029473295325578
 50
270.2397298960574
 51
359.7602701039189
  0
ARC
  8
1
 62
3
 10
5.199999999999832
 20
24.75000000000023
 30
0
 40
6.399999999999999
 50
321.3178125465105
 51
339.8944902120841
  0
ARC
  8
1
 62
3
 10
5.199999999999832
 20
24.75000000000023
 30
0
 40
6.400000000000004
 50
4.92993693718206
 51
20.1055097879161
  0
ARC
  8
1
 62
3
 10
5.199999999999832
 20
24.75000000000023
 30
0
 40
6.400000000000002
 50
20.1055097879161
 51
38.68218745348945
  0
ARC
  8
1
 62
3
 10
5.199999999999832
 20
24.75000000000023
 30
0
 40
6.399999999999997
 50
339.8944902120841
 51
355.0700630628181
  0
ARC
  8
1
 62
3
 10
-41.06903076288949
 20
24.75000000000023
 30
0
 40
4.569030762889094
 50
333.7514637544165
 51
26.24853624558338
  0
ARC
  8
1
 62
3
 10
-37.81893518732206
 20
21.71891108675467
 30
0
 40
1.318935187321627
 50
310.0000000000014
 51
50.00000000000036
  0
ARC
  8
1
 62
3
 10
-37.81893518732206
 20
27.78108891324578
 30
0
 40
1.318935187321673
 50
309.9999999999997
 51
49.99999999999945
  0
ARC
  8
1
 62
3
 10
-35.13096923711131
 20
24.75000000000023
 30
0
 40
4.569030762889089
 50
153.7514637544166
 51
206.2485362455835
  0
ARC
  8
1
 62
3
 10
-38.38106481267873
 20
27.78108891324578
 30
0
 40
1.318935187321653
 50
130.0000000000008
 51
230.0000000000001
  0
ARC
  8
1
 62
3
 10
-38.38106481267873
 20
21.71891108675467
 30
0
 40
1.318935187321678
 50
129.9999999999999
 51
229.9999999999984
  0
CIRCLE
  8
1
 62
3
 10
-181.9924517716661
 20
24.75
 30
0
 40
1.621113799999989
  0
CIRCLE
  8
1
 62
3
 10
-181.9924517716661
 20
24.75
 30
0
 40
3.5
  0
CIRCLE
  8
1
 62
2
 10
-181.9924517716661
 20
24.75
 30
0
 40
2
  0
CIRCLE
  8
1
 62
2
 10
-181.9924517716661
 20
-24.75
 30
0
 40
2
  0
CIRCLE
  8
1
 62
3
 10
-181.9924517716661
 20
-24.75
 30
0
 40
3.5
  0
CIRCLE
  8
1
 62
3
 10
-181.9924517716661
 20
-24.75
 30
0
 40
1.621113799999989
  0
CIRCLE
  8
1
 62
2
 10
-132.4924517716661
 20
24.75
 30
0
 40
2
  0
CIRCLE
  8
1
 62
3
 10
-132.4924517716661
 20
24.75
 30
0
 40
3.5
  0
CIRCLE
  8
1
 62
3
 10
-132.4924517716661
 20
24.75
 30
0
 40
1.621113800000018
  0
CIRCLE
  8
1
 62
3
 10
-132.4924517716661
 20
-24.75
 30
0
 40
1.621113800000018
  0
CIRCLE
  8
1
 62
3
 10
-132.4924517716661
 20
-24.75
 30
0
 40
3.5
  0
CIRCLE
  8
1
 62
2
 10
-132.4924517716661
 20
-24.75
 30
0
 40
2
  0
CIRCLE
  8
1
 62
3
 10
146.9999999999998
 20
-8.881784197001252e-016
 30
0
 40
2
  0
CIRCLE
  8
1
 62
3
 10
153.9999999999998
 20
-14.00000000000003
 30
0
 40
0.8500000000001933
  0
CIRCLE
  8
1
 62
3
 10
139.9999999999998
 20
13.99999999999997
 30
0
 40
0.8499999999999091
  0
CIRCLE
  8
1
 62
3
 10
137.3581858547019
 20
11.49066664678458
 30
0
 40
1.25
  0
CIRCLE
  8
1
 62
3
 10
156.6418141452978
 20
11.49066664678458
 30
0
 40
1.25
  0
CIRCLE
  8
1
 62
3
 10
137.3581858547019
 20
-11.49066664678475
 30
0
 40
1.5
  0
CIRCLE
  8
1
 62
3
 10
137.3581858547019
 20
-11.49066664678475
 30
0
 40
1.25
  0
CIRCLE
  8
1
 62
3
 10
156.6418141452978
 20
-11.49066664678475
 30
0
 40
1.5
  0
CIRCLE
  8
1
 62
3
 10
156.6418141452978
 20
-11.49066664678475
 30
0
 40
1.25
  0
CIRCLE
  8
1
 62
3
 10
137.3581858547019
 20
11.49066664678458
 30
0
 40
1.5
  0
CIRCLE
  8
1
 62
3
 10
156.6418141452978
 20
11.49066664678458
 30
0
 40
1.5
  0
CIRCLE
  8
1
 62
3
 10
146.9999999999998
 20
-8.881784197001252e-016
 30
0
 40
8
  0
CIRCLE
  8
1
 62
3
 10
146.9999999999998
 20
-8.881784197001252e-016
 30
0
 40
3.75
  0
CIRCLE
  8
1
 62
2
 10
61.61056325073543
 20
13.44634928422205
 30
0
 40
2.499999999999993
  0
CIRCLE
  8
1
 62
3
 10
76.89999999999999
 20
-8.881784197001252e-016
 30
0
 40
0.650000000000091
  0
CIRCLE
  8
0
 62
3
 10
-157.2424517716661
 20
10
 30
0
 40
4.000000000000213
  0
CIRCLE
  8
0
 62
3
 10
-157.2424517716661
 20
10
 30
0
 40
9
  0
CIRCLE
  8
1
 62
3
 10
-157.2424517716661
 20
10
 30
0
 40
6.75
  0
CIRCLE
  8
1
 62
3
 10
-177.5424517716664
 20
11.79999999999996
 30
0
 40
3.150000000000119
  0
CIRCLE
  8
1
 62
3
 10
-136.9424517716662
 20
11.79999999999996
 30
0
 40
3.149999999999807
  0
CIRCLE
  8
1
 62
3
 10
-157.2424517716661
 20
-23.5
 30
0
 40
3.149999999999807
  0
CIRCLE
  8
1
 62
3
 10
-177.5424517716664
 20
11.79999999999996
 30
0
 40
2.75
  0
CIRCLE
  8
1
 62
3
 10
-136.9424517716662
 20
11.79999999999996
 30
0
 40
2.75
  0
CIRCLE
  8
1
 62
3
 10
-157.2424517716661
 20
-23.5
 30
0
 40
2.75
  0
ARC
  8
1
 62
3
 10
155.9999999999998
 20
10.99999999999997
 30
0
 40
2
 50
180
 51
270
  0
ARC
  8
1
 62
3
 10
137.9999999999998
 20
10.99999999999997
 30
0
 40
1.999999999999998
 50
270
 51
0
  0
ARC
  8
1
 62
3
 10
154.9999999999998
 20
6
 30
0
 40
0.9999999999999716
 50
90
 51
180
  0
ARC
  8
1
 62
3
 10
156.9999999999998
 20
6
 30
0
 40
1
 50
0
 51
90
  0
ARC
  8
1
 62
3
 10
136.9999999999998
 20
5.999999999999972
 30
0
 40
1
 50
90
 51
180
  0
ARC
  8
1
 62
3
 10
138.9999999999998
 20
5.999999999999972
 30
0
 40
1
 50
0
 51
90
  0
ARC
  8
1
 62
3
 10
137.9999999999998
 20
-11.00000000000003
 30
0
 40
2
 50
0
 51
90
  0
ARC
  8
1
 62
3
 10
155.9999999999998
 20
-11.00000000000003
 30
0
 40
2.000000000000002
 50
90
 51
180
  0
ARC
  8
1
 62
3
 10
136.9999999999998
 20
-6.000000000000028
 30
0
 40
1
 50
180
 51
270
  0
ARC
  8
1
 62
3
 10
138.9999999999998
 20
-6.000000000000028
 30
0
 40
1
 50
270
 51
0
  0
ARC
  8
1
 62
3
 10
154.9999999999998
 20
-6
 30
0
 40
1
 50
180
 51
270
  0
ARC
  8
1
 62
3
 10
156.9999999999998
 20
-6
 30
0
 40
1
 50
270
 51
0
  0
ARC
  8
1
 62
3
 10
134.0466984282828
 20
6.516285628495979
 30
0
 40
2.500000000000604
 50
153.2948684805304
 51
194.6557406973938
  0
ARC
  8
1
 62
3
 10
132.8358330159798
 20
6.537306299139999
 30
0
 40
3.000000000000123
 50
155.2248645654951
 51
195.0653717627935
  0
ARC
  8
1
 62
3
 10
128.8999999999997
 20
0
 30
0
 40
2.499999999999757
 50
344.1097329771501
 51
15.89026702282424
  0
ARC
  8
1
 62
3
 10
128.8999999999997
 20
0
 30
0
 40
2.499999999999757
 50
344.1097329771501
 51
15.89026702282424
  0
ARC
  8
1
 62
3
 10
132.8358330159798
 20
-6.537306299140909
 30
0
 40
3.000000000000827
 50
164.9346282372081
 51
204.7751354345059
  0
ARC
  8
1
 62
3
 10
127.9999999999998
 20
0
 30
0
 40
5.000000000000181
 50
346.6758163180691
 51
13.32418368191988
  0
ARC
  8
1
 62
3
 10
127.9999999999998
 20
0
 30
0
 40
5.000000000000181
 50
346.6758163180691
 51
13.32418368191988
  0
ARC
  8
1
 62
3
 10
134.0466984282828
 20
-6.516285628497116
 30
0
 40
2.500000000000467
 50
165.3442593025797
 51
206.7051315194661
  0
ARC
  8
1
 62
3
 10
159.9533015717166
 20
-6.516285628497144
 30
0
 40
2.50000000000068
 50
333.2948684805371
 51
14.65574069742092
  0
ARC
  8
1
 62
3
 10
165.9999999999998
 20
0
 30
0
 40
5.000000000000034
 50
166.6758163180803
 51
193.3241836819308
  0
ARC
  8
1
 62
3
 10
159.9533015717166
 20
6.51628562849595
 30
0
 40
2.500000000000158
 50
345.3442593026068
 51
26.70513151946816
  0
ARC
  8
1
 62
3
 10
165.0999999999997
 20
0
 30
0
 40
2.499999999999329
 50
164.109732977175
 51
195.8902670228507
  0
ARC
  8
1
 62
3
 10
165.0999999999997
 20
0
 30
0
 40
2.499999999999329
 50
164.109732977175
 51
195.8902670228507
  0
ARC
  8
1
 62
3
 10
161.1641669840197
 20
-6.537306299140937
 30
0
 40
3.000000000000057
 50
335.2248645654939
 51
15.0653717627934
  0
ARC
  8
1
 62
3
 10
146.0999999999997
 20
9.899999999998983
 30
0
 40
0.5
 50
270
 51
0
  0
ARC
  8
1
 62
3
 10
146.0999999999997
 20
13.39999999999895
 30
0
 40
0.5
 50
0
 51
90
  0
ARC
  8
1
 62
3
 10
147.8999999999997
 20
13.39999999999895
 30
0
 40
0.5
 50
90
 51
180
  0
ARC
  8
1
 62
3
 10
147.8999999999997
 20
9.899999999998983
 30
0
 40
0.5
 50
180
 51
270
  0
ARC
  8
1
 62
3
 10
146.0999999999997
 20
-9.900000000000148
 30
0
 40
0.5
 50
0
 51
90
  0
ARC
  8
1
 62
3
 10
146.0999999999997
 20
-13.40000000000015
 30
0
 40
0.5000000000008811
 50
270
 51
0
  0
ARC
  8
1
 62
3
 10
147.8999999999997
 20
-13.40000000000015
 30
0
 40
0.5
 50
179.9999999999864
 51
270
  0
ARC
  8
1
 62
3
 10
147.8999999999997
 20
-9.900000000000148
 30
0
 40
0.5
 50
90
 51
180
  0
ARC
  8
1
 62
3
 10
161.1641669840197
 20
6.537306299139971
 30
0
 40
3.000000000000759
 50
344.9346282372066
 51
24.77513543450611
  0
ARC
  8
1
 62
3
 10
9.499999999999838
 20
18.49999999999999
 30
0
 40
0.5000000000001617
 50
0
 51
89.99999999998147
  0
ARC
  8
1
 62
3
 10
9.499999999999838
 20
-18.50000000000001
 30
0
 40
0.5
 50
270.0000000000185
 51
0
  0
ARC
  8
1
 62
3
 10
9
 20
-19.50000000000001
 30
0
 40
0.5
 50
90.00000000001853
 51
180
  0
ARC
  8
1
 62
3
 10
9
 20
19.49999999999999
 30
0
 40
0.5000000000001617
 50
180
 51
269.9999999999815
  0
ARC
  8
1
 62
3
 10
8.599999999999975
 20
-28.15000000000005
 30
0
 40
0.1000000000001364
 50
180
 51
275.0000000000779
  0
ARC
  8
1
 62
3
 10
8.599999999999975
 20
21.35000000000001
 30
0
 40
0.1000000000001364
 50
180
 51
275.0000000000779
  0
ARC
  8
1
 62
3
 10
11.99999999999984
 20
-16.60000000000002
 30
0
 40
2.000000000000002
 50
180
 51
270
  0
ARC
  8
1
 62
3
 10
11.99999999999984
 20
16.59999999999999
 30
0
 40
2
 50
90
 51
180
  0
ARC
  8
1
 62
3
 10
72.69999999999993
 20
7
 30
0
 40
1
 50
0
 51
90
  0
ARC
  8
1
 62
3
 10
72.69999999999993
 20
-7.000000000000001
 30
0
 40
0.9999999999999991
 50
270
 51
0
  0
ARC
  8
1
 62
3
 10
-182.2424517716661
 20
-25
 30
0
 40
4.5
 50
0
 51
90
  0
ARC
  8
1
 62
3
 10
-132.2424517716661
 20
-25
 30
0
 40
4.5
 50
90
 51
180
  0
ARC
  8
1
 62
3
 10
-132.2424517716661
 20
25
 30
0
 40
4.5
 50
180
 51
270
  0
ARC
  8
1
 62
3
 10
-182.2424517716661
 20
25
 30
0
 40
4.5
 50
270
 51
0
  0
ARC
  8
1
 62
3
 10
-35
 20
29.50584522019437
 30
0
 40
0.4999999999999777
 50
90.6737433549299
 51
180
  0
ARC
  8
1
 62
3
 10
-35
 20
-29.50584522019443
 30
0
 40
0.5
 50
180
 51
269.32625664507
  0
ARC
  8
1
 62
3
 10
-182.2424517716661
 20
25
 30
0
 40
5
 50
90
 51
180
  0
ARC
  8
1
 62
3
 10
-132.2424517716661
 20
25
 30
0
 40
5.000000000000014
 50
0
 51
90
  0
ARC
  8
1
 62
3
 10
-132.2424517716661
 20
-25
 30
0
 40
5
 50
270
 51
0
  0
ARC
  8
1
 62
3
 10
-182.2424517716661
 20
-25
 30
0
 40
5
 50
180
 51
270
  0
ARC
  8
1
 62
3
 10
-177.3424517716663
 20
13.19999999999999
 30
0
 40
0.1000000000001933
 50
0
 51
90
  0
ARC
  8
1
 62
3
 10
-177.7424517716661
 20
13.19999999999999
 30
0
 40
0.09999999999990905
 50
90
 51
180
  0
ARC
  8
1
 62
3
 10
-178.9424517716662
 20
12
 30
0
 40
0.1000000000000192
 50
90
 51
180
  0
ARC
  8
1
 62
3
 10
-178.9424517716662
 20
11.60000000000002
 30
0
 40
0.1000000000001933
 50
180
 51
270
  0
ARC
  8
1
 62
3
 10
-177.7424517716661
 20
10.40000000000003
 30
0
 40
0.1000000000001933
 50
180
 51
270
  0
ARC
  8
1
 62
3
 10
-177.3424517716663
 20
10.40000000000003
 30
0
 40
0.1000000000000707
 50
270
 51
0
  0
ARC
  8
1
 62
3
 10
-176.1424517716663
 20
11.60000000000002
 30
0
 40
0.1000000000000192
 50
270
 51
0
  0
ARC
  8
1
 62
3
 10
-176.1424517716663
 20
12
 30
0
 40
0.09999999999988063
 50
0
 51
90
  0
ARC
  8
1
 62
3
 10
-138.3424517716663
 20
12
 30
0
 40
0.1000000000000192
 50
90
 51
180
  0
ARC
  8
1
 62
3
 10
-138.3424517716663
 20
11.60000000000002
 30
0
 40
0.09999999999990905
 50
180
 51
270
  0
ARC
  8
1
 62
3
 10
-137.1424517716662
 20
10.40000000000003
 30
0
 40
0.09999999999990905
 50
180
 51
270
  0
ARC
  8
1
 62
3
 10
-136.7424517716661
 20
10.40000000000003
 30
0
 40
0.1000000000000707
 50
270
 51
0
  0
ARC
  8
1
 62
3
 10
-135.5424517716664
 20
11.60000000000002
 30
0
 40
0.1000000000000192
 50
270
 51
0
  0
ARC
  8
1
 62
3
 10
-135.5424517716664
 20
12
 30
0
 40
0.1000000000001933
 50
0
 51
90
  0
ARC
  8
1
 62
3
 10
-136.7424517716661
 20
13.19999999999999
 30
0
 40
0.09999999999990905
 50
0
 51
90
  0
ARC
  8
1
 62
3
 10
-137.1424517716662
 20
13.19999999999999
 30
0
 40
0.09999999999990905
 50
90
 51
180
  0
ARC
  8
1
 62
3
 10
-157.4424517716662
 20
-22.09999999999997
 30
0
 40
0.09999999999996945
 50
90
 51
180
  0
ARC
  8
1
 62
3
 10
-157.0424517716664
 20
-22.09999999999997
 30
0
 40
0.1000000000001933
 50
0
 51
90
  0
ARC
  8
1
 62
3
 10
-155.8424517716663
 20
-23.30000000000001
 30
0
 40
0.1000000000001933
 50
0
 51
90
  0
ARC
  8
1
 62
3
 10
-155.8424517716663
 20
-23.70000000000005
 30
0
 40
0.09999999999996234
 50
270
 51
0
  0
ARC
  8
1
 62
3
 10
-157.0424517716664
 20
-24.90000000000003
 30
0
 40
0.09999999999996945
 50
270
 51
0
  0
ARC
  8
1
 62
3
 10
-157.4424517716662
 20
-24.90000000000003
 30
0
 40
0.1000000000001933
 50
180
 51
270
  0
ARC
  8
1
 62
3
 10
-158.6424517716663
 20
-23.70000000000005
 30
0
 40
0.09999999999982379
 50
180
 51
270
  0
ARC
  8
1
 62
3
 10
-158.6424517716663
 20
-23.30000000000001
 30
0
 40
0.09999999999996234
 50
90
 51
180
  0
ARC
  8
1
 62
3
 10
8.599999999999975
 20
28.15000000000005
 30
0
 40
0.1000000000000072
 50
84.99999999992211
 51
180
  0
TEXT
  8
1
 62
2
 10
-54.5010649184245
 20
84.58553698237481
 30
0
 40
4
  1
ＤＭＥ３７Ｊ６ＨＦＰＢ　＋　６ＤＧＦ
 41
0.9
 72
1
 73
2
 11
10.29893508157549
 21
86.58553698237481
 31
0
  0
ENDSEC
  0
EOF
