  0
SECTION
  2
HEADER
  9
$ACADVER
  1
AC1003
  9
$INSBASE
 10
0.000000
 20
0.000000
  9
$EXTMIN
 10
0.000000
 20
0.000000
  9
$EXTMAX
 10
297.000000
 20
210.000000
  9
$LIMMIN
 10
0.000000
 20
0.000000
  9
$LIMMAX
 10
297.000000
 20
210.000000
  9
$VIEWCTR
 10
148.500000
 20
105.000000
  9
$VIEWSIZE
 40
210.000000
  9
$PEXTMIN
 10
0.000000
 20
0.000000
 30
0.000000
  9
$PEXTMAX
 10
297.000000
 20
210.000000
 30
0.000000
  9
$SNAPMODE
 70
     0
  9
$SNAPUNIT
 10
1.000000
 20
1.000000
  9
$SNAPBASE
 10
0.000000
 20
0.000000
  9
$SNAPANG
 50
0.000000
  9
$SNAPISOPAIR
 70
     0
  9
$SNAPSTYLE
 70
     0
  9
$GRIDMODE
 70
     0
  9
$GRIDUNIT
 10
0.000000
 20
0.000000
  9
$ORTHOMODE
 70
     0
  9
$REGENMODE
 70
     1
  9
$FILLMODE
 70
     1
  9
$QTEXTMODE
 70
     0
  9
$DRAGMODE
 70
     2
  9
$LTSCALE
 40
0.250000
  9
$OSMODE
 70
     0
  9
$ATTMODE
 70
     1
  9
$TEXTSIZE
 40
0.200000
  9
$TRACEWID
 40
0.050000
  9
$TEXTSTYLE
  7
STANDARD
  9
$CLAYER
  8
0
  9
$CELTYPE
  6
BYLAYER
  9
$CECOLOR
 62
   256
  9
$DIMSCALE
 40
1.000000
  9
$DIMASZ
 40
1.000000
  9
$DIMEXO
 40
0.000000
  9
$DIMDLI
 40
0.500000
  9
$DIMRND
 40
0.000000
  9
$DIMDLE
 40
0.000000
  9
$DIMEXE
 40
0.000000
  9
$DIMTP
 40
0.000000
  9
$DIMTM
 40
0.000000
  9
$DIMTXT
 40
0.180000
  9
$DIMCEN
 40
0.000000
  9
$DIMTSZ
 40
0.000000
  9
$DIMTOL
 70
     0
  9
$DIMLIM
 70
     0
  9
$DIMTIH
 70
     1
  9
$DIMTOH
 70
     1
  9
$DIMSE1
 70
     0
  9
$DIMSE2
 70
     0
  9
$DIMTAD
 70
     0
  9
$DIMZIN
 70
     0
  9
$DIMBLK
  1

  9
$DIMASO
 70
     0
  9
$DIMSHO
 70
     0
  9
$DIMPOST
  1

  9
$DIMAPOST
  1

  9
$DIMALT
 70
     0
  9
$DIMALTD
 70
     0
  9
$DIMALTF
 40
25.400000
  9
$DIMLFAC
 40
1.000000
  9
$DIMTOFL
 70
     0
  9
$DIMTVP
 40
0.000000
  9
$DIMTIX
 70
     0
  9
$DIMSOXD
 70
     0
  9
$DIMSAH
 70
     0
  9
$DIMBLKL
  1

  9
$DIMBLKR
  1

  9
$LUNITS
 70
     2
  9
$LUPREC
 70
     2
  9
$AXISMODE
 70
     0
  9
$AXISUNIT
 10
1.000000
 20
1.000000
  9
$SKETCHINC
 40
0.000000
  9
$FILLETRAD
 40
0.000000
  9
$AUNITS
 70
     1
  9
$AUPREC
 70
     2
  9
$MENU
  1
ACAD
  9
$ELEVATION
 40
0.000000
  9
$THICKNESS
 40
0.000000
  9
$VIEWDIR
 10
0.000000
 20
0.000000
 30
1.000000
  9
$LIMCHECK
 70
     1
  9
$BLIPMODE
 70
     1
  9
$CHAMFERA
 40
0.000000
  9
$CHAMFERB
 40
0.000000
  9
$FASTZOOM
 70
     1
  9
$SKPOLY
 70
     0
  9
$TDCREATE
 40
0.000000
  9
$TDUPDATE
 40
0.000000
  9
$TDINDWG
 40
0.000000
  9
$TDUSRTIMER
 40
0.000000
  9
$USRTIMER
 70
     1
  9
$ANGBASE
 50
0.000000
  9
$ANGDIR
 70
     0
  9
$PDMODE
 70
     0
  9
$PDSIZE
 40
0.000000
  9
$PLINEWID
 40
0.000000
  9
$COORDS
 70
     2
  9
$USERI1
 70
     0
  9
$USERI2
 70
     0
  9
$USERI3
 70
     0
  9
$USERI4
 70
     0
  9
$USERI5
 70
     0
  9
$USERR1
 40
0.000000
  9
$USERR2
 40
0.000000
  9
$USERR3
 40
0.000000
  9
$USERR4
 40
0.000000
  9
$USERR5
 40
0.000000
  0
ENDSEC
  0
SECTION
  2
TABLES
  0
TABLE
  2
LTYPE
 70
     5
  0
LTYPE
  2
CONTINUOUS
 70
    64
  3
Solid line
 72
    65
 73
     0
 40
0.0
  0
LTYPE
  2
HIDDEN
 70
    64
  3
------------------------
 72
    65
 73
     2
 40
12.6
 49
8.4
 49
-4.2
  0
LTYPE
  2
DOT
 70
    64
  3
ÑÑÑÑÑÑÑÑÑÑÑÑÑÑÑÑÑÑÑÑÑÑÑÑ
 72
    65
 73
     2
 40
8.0
 49
6.0
 49
-2.0
  0
LTYPE
  2
DASHDOT
 70
    64
  3
--Ñ--Ñ--Ñ--Ñ--Ñ--Ñ--Ñ--
 72
    65
 73
     4
 40
50.5
 49
30.0
 49
-9.0
 49
2.5
 49
-9.0
  0
LTYPE
  2
DIVIDE
 70
    64
  3
--ÑÑ--ÑÑ--ÑÑ--ÑÑ--ÑÑ--
 72
    65
 73
     6
 40
58.0
 49
30.0
 49
-9.0
 49
2.5
 49
-5.0
 49
2.5
 49
-9.0
  0
ENDTAB
  0
TABLE
  2
LAYER
 70
1
  0
LAYER
  2
1
 70
64
 62
7
  6
CONTINUOUS
  0
ENDTAB
  0
TABLE
  2
STYLE
 70
     2
  0
STYLE
  2
STANDARD
 70
    64
 40
0.0
 41
1.0
 50
0.0
 71
     0
 42
0.2
  3
TXT
  4

  0
STYLE
  2
KANJI
 70
    64
 40
0.0
 41
1.0
 50
0.0
 71
     0
 42
0.2
  3
TXT
  4
BIGFONT
  0
ENDTAB
  0
TABLE
  2
VIEW
 70
     0
  0
ENDTAB
  0
ENDSEC
  0
SECTION
  2
BLOCKS
  0
ENDSEC
  0
SECTION
  2
ENTITIES
  0
LINE
  8
1
 62
7
  6
CONTINUOUS
 10
244.834890
 20
59.450997
 11
247.394890
 21
59.450997
  0
LINE
  8
1
 62
7
  6
CONTINUOUS
 10
250.323822
 20
52.379930
 11
256.266301
 21
46.437451
  0
LINE
  8
1
 62
7
  6
CONTINUOUS
 10
247.394890
 20
59.450997
 11
247.394890
 21
93.018854
  0
LINE
  8
1
 62
7
  6
CONTINUOUS
 10
247.263822
 20
47.643477
 11
253.347126
 21
41.560174
  0
LINE
  8
1
 62
7
  6
CONTINUOUS
 10
244.334890
 20
58.950997
 11
244.334890
 21
54.714545
  0
LINE
  8
1
 62
7
  6
CONTINUOUS
 10
155.553511
 20
34.465343
 11
162.554498
 21
27.464356
  0
LINE
  8
1
 62
7
  6
CONTINUOUS
 10
155.927384
 20
37.711856
 11
147.137079
 21
46.502161
  0
LINE
  8
1
 62
7
  6
CONTINUOUS
 10
153.751545
 20
32.646922
 11
160.744304
 21
25.654163
  0
LINE
  8
1
 62
7
  6
CONTINUOUS
 10
147.490633
 20
46.855715
 11
134.895350
 21
59.450997
  0
LINE
  8
1
 62
7
  6
CONTINUOUS
 10
143.163139
 20
42.528221
 11
147.137079
 21
46.502161
  0
LINE
  8
1
 62
7
  6
CONTINUOUS
 10
130.976815
 20
54.714545
 11
143.163139
 21
42.528221
  0
LINE
  8
1
 62
7
  6
CONTINUOUS
 10
164.723177
 20
24.213434
 11
162.013376
 21
26.923235
  0
LINE
  8
1
 62
7
  6
CONTINUOUS
 10
143.516693
 20
42.881774
 11
152.306998
 21
34.091469
  0
LINE
  8
1
 62
7
  6
CONTINUOUS
 10
145.326886
 20
44.691968
 11
154.108964
 21
35.909890
  0
LINE
  8
1
 62
7
  6
CONTINUOUS
 10
224.394890
 20
77.313593
 11
224.394890
 21
72.618854
  0
LINE
  8
1
 62
7
  6
CONTINUOUS
 10
225.394890
 20
77.313593
 11
224.394890
 21
77.313593
  0
LINE
  8
1
 62
7
  6
CONTINUOUS
 10
225.394890
 20
56.672681
 11
219.394890
 21
56.672681
  0
LINE
  8
1
 62
7
  6
CONTINUOUS
 10
225.394890
 20
77.313593
 11
225.394890
 21
56.672681
  0
LINE
  8
1
 62
7
  6
CONTINUOUS
 10
45.000000
 20
154.318854
 11
45.000000
 21
56.118854
  0
LINE
  8
1
 62
7
  6
DASHDOT
 10
95.400000
 20
94.618854
 11
95.400000
 21
33.918854
  0
LINE
  8
1
 62
7
  6
DASHDOT
 10
214.394890
 20
78.118854
 11
226.394890
 21
78.118854
  0
LINE
  8
1
 62
7
  6
CONTINUOUS
 10
45.000000
 20
154.318854
 11
45.000000
 21
160.918854
  0
LINE
  8
1
 62
7
  6
CONTINUOUS
 10
41.700000
 20
157.618854
 11
48.300000
 21
157.618854
  0
LINE
  8
1
 62
7
  6
CONTINUOUS
 10
45.000000
 20
49.518854
 11
45.000000
 21
56.118854
  0
LINE
  8
1
 62
7
  6
CONTINUOUS
 10
41.700000
 20
52.818854
 11
49.749522
 21
52.818854
  0
LINE
  8
1
 62
7
  6
CONTINUOUS
 10
149.800000
 20
74.818854
 11
149.800000
 21
82.868750
  0
LINE
  8
1
 62
7
  6
CONTINUOUS
 10
153.100000
 20
78.118854
 11
145.050545
 21
78.118854
  0
LINE
  8
1
 62
7
  6
CONTINUOUS
 10
214.794890
 20
63.059244
 11
221.394890
 21
63.059244
  0
LINE
  8
1
 62
7
  6
CONTINUOUS
 10
218.794890
 20
65.728789
 11
218.794890
 21
57.652900
  0
LINE
  8
1
 62
7
  6
CONTINUOUS
 10
219.394890
 20
65.728789
 11
219.394890
 21
59.884244
  0
LINE
  8
1
 62
7
  6
CONTINUOUS
 10
219.394890
 20
65.728789
 11
218.794890
 21
65.728789
  0
LINE
  8
1
 62
7
  6
CONTINUOUS
 10
219.394890
 20
57.652900
 11
219.394890
 21
59.884244
  0
LINE
  8
1
 62
7
  6
CONTINUOUS
 10
218.794890
 20
57.652900
 11
219.394890
 21
57.652900
  0
LINE
  8
1
 62
7
  6
CONTINUOUS
 10
218.794890
 20
70.967771
 11
218.794890
 21
65.728789
  0
LINE
  8
1
 62
7
  6
CONTINUOUS
 10
219.394890
 20
70.967771
 11
219.394890
 21
72.618854
  0
LINE
  8
1
 62
7
  6
CONTINUOUS
 10
219.394890
 20
70.967771
 11
218.794890
 21
70.967771
  0
LINE
  8
1
 62
7
  6
CONTINUOUS
 10
216.794890
 20
66.059244
 11
218.794890
 21
66.059244
  0
LINE
  8
1
 62
7
  6
CONTINUOUS
 10
216.794890
 20
60.059244
 11
216.794890
 21
66.059244
  0
LINE
  8
1
 62
7
  6
CONTINUOUS
 10
218.794890
 20
60.059244
 11
216.794890
 21
60.059244
  0
LINE
  8
1
 62
7
  6
CONTINUOUS
 10
219.394890
 20
66.234244
 11
219.394890
 21
65.728789
  0
LINE
  8
1
 62
7
  6
CONTINUOUS
 10
219.394890
 20
66.234244
 11
219.394890
 21
70.967771
  0
LINE
  8
1
 62
7
  6
DASHDOT
 10
202.394890
 20
94.618854
 11
251.394890
 21
94.618854
  0
LINE
  8
1
 62
7
  6
DASHDOT
 10
95.400000
 20
168.818854
 11
95.400000
 21
94.618854
  0
LINE
  8
1
 62
7
  6
DASHDOT
 10
28.200000
 20
94.618854
 11
161.400000
 21
94.618854
  0
LINE
  8
1
 62
7
  6
CONTINUOUS
 10
146.901131
 20
64.119904
 11
144.779811
 21
61.998584
  0
LINE
  8
1
 62
7
  6
CONTINUOUS
 10
144.779811
 20
64.119904
 11
146.901131
 21
61.998584
  0
LINE
  8
1
 62
7
  6
CONTINUOUS
 10
145.796114
 20
57.652900
 11
137.110386
 21
62.467477
  0
LINE
  8
1
 62
7
  6
CONTINUOUS
 10
141.370771
 20
70.967771
 11
150.822145
 21
65.728789
  0
LINE
  8
1
 62
7
  6
CONTINUOUS
 10
51.232739
 20
152.214416
 11
49.111419
 21
150.093095
  0
LINE
  8
1
 62
7
  6
CONTINUOUS
 10
49.111419
 20
152.214416
 11
51.232739
 21
150.093095
  0
LINE
  8
1
 62
7
  6
CONTINUOUS
 10
44.775865
 20
150.631771
 11
50.350577
 21
143.623398
  0
LINE
  8
1
 62
7
  6
CONTINUOUS
 10
57.251057
 20
150.208991
 11
52.210643
 21
156.545660
  0
LINE
  8
1
 62
7
  6
CONTINUOUS
 10
219.394890
 20
114.918854
 11
224.494890
 21
114.918854
  0
LINE
  8
1
 62
7
  6
CONTINUOUS
 10
219.394890
 20
114.918854
 11
219.394890
 21
130.218854
  0
LINE
  8
1
 62
7
  6
CONTINUOUS
 10
217.394890
 20
131.718854
 11
217.394890
 21
114.918854
  0
LINE
  8
1
 62
7
  6
CONTINUOUS
 10
218.894890
 20
130.218854
 11
219.394890
 21
130.218854
  0
LINE
  8
1
 62
7
  6
CONTINUOUS
 10
217.394890
 20
131.718854
 11
217.394890
 21
164.018854
  0
LINE
  8
1
 62
7
  6
CONTINUOUS
 10
247.394890
 20
40.918854
 11
247.394890
 21
47.512410
  0
LINE
  8
1
 62
7
  6
CONTINUOUS
 10
144.773420
 20
57.362273
 11
138.971326
 21
60.578426
  0
LINE
  8
1
 62
7
  6
CONTINUOUS
 10
219.394890
 20
72.618854
 11
219.394890
 21
77.313593
  0
LINE
  8
1
 62
7
  6
CONTINUOUS
 10
219.394890
 20
72.618854
 11
216.394890
 21
72.618854
  0
LINE
  8
1
 62
7
  6
CONTINUOUS
 10
219.394890
 20
56.672681
 11
219.394890
 21
57.652900
  0
LINE
  8
1
 62
7
  6
CONTINUOUS
 10
216.394890
 20
72.618854
 11
216.394890
 21
83.618854
  0
LINE
  8
1
 62
7
  6
CONTINUOUS
 10
224.394890
 20
83.618854
 11
224.394890
 21
77.313593
  0
LINE
  8
1
 62
7
  6
CONTINUOUS
 10
216.394890
 20
83.618854
 11
216.394890
 21
91.018854
  0
LINE
  8
1
 62
7
  6
CONTINUOUS
 10
216.394890
 20
83.618854
 11
224.394890
 21
83.618854
  0
LINE
  8
1
 62
7
  6
CONTINUOUS
 10
43.752884
 20
150.373453
 11
48.167433
 21
144.855267
  0
LINE
  8
1
 62
7
  6
CONTINUOUS
 10
52.342441
 20
157.245099
 11
49.294779
 21
161.054676
  0
LINE
  8
1
 62
7
  6
CONTINUOUS
 10
52.342441
 20
157.245099
 11
43.752884
 21
150.373453
  0
LINE
  8
1
 62
7
  6
CONTINUOUS
 10
157.400000
 20
90.018854
 11
157.400000
 21
91.018854
  0
LINE
  8
1
 62
7
  6
CONTINUOUS
 10
147.983541
 20
90.018854
 11
157.400000
 21
90.018854
  0
LINE
  8
1
 62
7
  6
CONTINUOUS
 10
157.400000
 20
164.818854
 11
99.400000
 21
164.818854
  0
LINE
  8
1
 62
7
  6
CONTINUOUS
 10
157.400000
 20
164.018854
 11
157.400000
 21
164.818854
  0
LINE
  8
1
 62
7
  6
CONTINUOUS
 10
157.400000
 20
91.018854
 11
157.400000
 21
164.018854
  0
LINE
  8
1
 62
7
  6
CONTINUOUS
 10
147.996133
 20
91.018854
 11
157.400000
 21
91.018854
  0
LINE
  8
1
 62
7
  6
CONTINUOUS
 10
157.400000
 20
164.018854
 11
99.400000
 21
164.018854
  0
LINE
  8
1
 62
7
  6
CONTINUOUS
 10
55.993363
 20
152.681447
 11
52.342441
 21
157.245099
  0
LINE
  8
1
 62
7
  6
CONTINUOUS
 10
40.705222
 20
154.183031
 11
43.752884
 21
150.373453
  0
LINE
  8
1
 62
7
  6
CONTINUOUS
 10
43.277195
 20
58.535461
 11
41.488910
 21
57.052321
  0
LINE
  8
1
 62
7
  6
CONTINUOUS
 10
48.511090
 20
48.585386
 11
51.265098
 21
50.869464
  0
LINE
  8
1
 62
7
  6
CONTINUOUS
 10
147.956188
 20
83.618854
 11
149.800000
 21
83.618854
  0
LINE
  8
1
 62
7
  6
CONTINUOUS
 10
148.203617
 20
72.855626
 11
145.427979
 21
73.697502
  0
LINE
  8
1
 62
7
  6
CONTINUOUS
 10
152.880604
 20
61.367421
 11
155.240732
 21
77.313593
  0
LINE
  8
1
 62
7
  6
CONTINUOUS
 10
244.394890
 20
90.018854
 11
216.394890
 21
90.018854
  0
LINE
  8
1
 62
7
  6
CONTINUOUS
 10
216.394890
 20
164.818854
 11
244.394890
 21
164.818854
  0
LINE
  8
1
 62
7
  6
CONTINUOUS
 10
244.394890
 20
37.918854
 11
216.394890
 21
37.918854
  0
LINE
  8
1
 62
7
  6
CONTINUOUS
 10
216.394890
 20
37.918854
 11
216.394890
 21
64.518854
  0
LINE
  8
1
 62
7
  6
CONTINUOUS
 10
244.394890
 20
100.318854
 11
244.394890
 21
114.918854
  0
LINE
  8
1
 62
7
  6
CONTINUOUS
 10
242.894890
 20
162.618854
 11
217.394890
 21
162.618854
  0
LINE
  8
1
 62
7
  6
CONTINUOUS
 10
247.394890
 20
93.018854
 11
247.394890
 21
161.818854
  0
LINE
  8
1
 62
7
  6
CONTINUOUS
 10
216.394890
 20
91.018854
 11
217.394890
 21
91.018854
  0
LINE
  8
1
 62
7
  6
CONTINUOUS
 10
216.394890
 20
91.018854
 11
216.394890
 21
124.718854
  0
LINE
  8
1
 62
7
  6
CONTINUOUS
 10
217.394890
 20
91.018854
 11
217.394890
 21
114.918854
  0
LINE
  8
1
 62
7
  6
CONTINUOUS
 10
217.394890
 20
164.018854
 11
216.394890
 21
164.018854
  0
LINE
  8
1
 62
7
  6
CONTINUOUS
 10
216.394890
 20
164.018854
 11
216.394890
 21
164.818854
  0
LINE
  8
1
 62
7
  6
CONTINUOUS
 10
217.394890
 20
98.818854
 11
242.894890
 21
98.818854
  0
LINE
  8
1
 62
7
  6
CONTINUOUS
 10
217.394890
 20
114.918854
 11
219.394890
 21
114.918854
  0
LINE
  8
1
 62
7
  6
CONTINUOUS
 10
244.394890
 20
114.918854
 11
244.394890
 21
134.118854
  0
LINE
  8
1
 62
7
  6
CONTINUOUS
 10
224.494890
 20
114.918854
 11
224.494890
 21
124.718854
  0
LINE
  8
1
 62
7
  6
CONTINUOUS
 10
224.494890
 20
114.918854
 11
226.994890
 21
114.918854
  0
LINE
  8
1
 62
7
  6
CONTINUOUS
 10
224.494890
 20
137.318854
 11
226.994890
 21
137.318854
  0
LINE
  8
1
 62
7
  6
CONTINUOUS
 10
226.994890
 20
137.318854
 11
226.994890
 21
135.868854
  0
LINE
  8
1
 62
7
  6
CONTINUOUS
 10
226.994890
 20
114.918854
 11
237.394890
 21
114.918854
  0
LINE
  8
1
 62
7
  6
CONTINUOUS
 10
239.394890
 20
114.918854
 11
239.394890
 21
123.968854
  0
LINE
  8
1
 62
7
  6
CONTINUOUS
 10
239.394890
 20
114.918854
 11
241.894890
 21
114.918854
  0
LINE
  8
1
 62
7
  6
CONTINUOUS
 10
239.394890
 20
135.868854
 11
237.394890
 21
135.868854
  0
LINE
  8
1
 62
7
  6
CONTINUOUS
 10
226.994890
 20
135.868854
 11
226.994890
 21
134.952612
  0
LINE
  8
1
 62
7
  6
CONTINUOUS
 10
237.394890
 20
114.918854
 11
237.394890
 21
119.904296
  0
LINE
  8
1
 62
7
  6
CONTINUOUS
 10
237.394890
 20
114.918854
 11
239.394890
 21
114.918854
  0
LINE
  8
1
 62
7
  6
CONTINUOUS
 10
237.394890
 20
135.868854
 11
226.994890
 21
135.868854
  0
LINE
  8
1
 62
7
  6
CONTINUOUS
 10
237.394890
 20
134.952612
 11
226.994890
 21
134.952612
  0
LINE
  8
1
 62
7
  6
CONTINUOUS
 10
237.394890
 20
134.952612
 11
237.394890
 21
135.868854
  0
LINE
  8
1
 62
7
  6
CONTINUOUS
 10
226.994890
 20
134.952612
 11
226.994890
 21
134.729362
  0
LINE
  8
1
 62
7
  6
CONTINUOUS
 10
226.994890
 20
134.729362
 11
237.394890
 21
134.729362
  0
LINE
  8
1
 62
7
  6
CONTINUOUS
 10
226.994890
 20
134.729362
 11
226.994890
 21
132.003449
  0
LINE
  8
1
 62
7
  6
CONTINUOUS
 10
237.394890
 20
132.003449
 11
226.994890
 21
132.003449
  0
LINE
  8
1
 62
7
  6
CONTINUOUS
 10
237.394890
 20
132.003449
 11
237.394890
 21
134.729362
  0
LINE
  8
1
 62
7
  6
CONTINUOUS
 10
226.994890
 20
132.003449
 11
226.994890
 21
131.568218
  0
LINE
  8
1
 62
7
  6
CONTINUOUS
 10
226.994890
 20
131.568218
 11
237.394890
 21
131.568218
  0
LINE
  8
1
 62
7
  6
CONTINUOUS
 10
226.994890
 20
131.568218
 11
226.994890
 21
127.167200
  0
LINE
  8
1
 62
7
  6
CONTINUOUS
 10
226.994890
 20
126.541958
 11
237.394890
 21
126.541958
  0
LINE
  8
1
 62
7
  6
CONTINUOUS
 10
226.994890
 20
126.541958
 11
226.994890
 21
120.687989
  0
LINE
  8
1
 62
7
  6
CONTINUOUS
 10
237.394890
 20
120.687989
 11
226.994890
 21
120.687989
  0
LINE
  8
1
 62
7
  6
CONTINUOUS
 10
237.394890
 20
120.687989
 11
237.394890
 21
126.541958
  0
LINE
  8
1
 62
7
  6
CONTINUOUS
 10
226.994890
 20
120.687989
 11
226.994890
 21
119.904296
  0
LINE
  8
1
 62
7
  6
CONTINUOUS
 10
226.994890
 20
119.904296
 11
237.394890
 21
119.904296
  0
LINE
  8
1
 62
7
  6
CONTINUOUS
 10
226.994890
 20
119.904296
 11
226.994890
 21
114.918854
  0
LINE
  8
1
 62
7
  6
CONTINUOUS
 10
237.394890
 20
127.167200
 11
226.994890
 21
127.167200
  0
LINE
  8
1
 62
7
  6
CONTINUOUS
 10
237.394890
 20
127.167200
 11
237.394890
 21
131.568218
  0
LINE
  8
1
 62
7
  6
CONTINUOUS
 10
226.994890
 20
127.167200
 11
226.994890
 21
126.541958
  0
LINE
  8
1
 62
7
  6
CONTINUOUS
 10
216.394890
 20
64.518854
 11
212.794890
 21
64.518854
  0
LINE
  8
1
 62
7
  6
CONTINUOUS
 10
216.394890
 20
64.518854
 11
216.394890
 21
72.618854
  0
LINE
  8
1
 62
7
  6
CONTINUOUS
 10
206.394890
 20
70.918854
 11
206.394890
 21
118.318854
  0
LINE
  8
1
 62
7
  6
CONTINUOUS
 10
212.794890
 20
124.718854
 11
216.394890
 21
124.718854
  0
LINE
  8
1
 62
7
  6
CONTINUOUS
 10
216.394890
 20
124.718854
 11
216.394890
 21
164.018854
  0
LINE
  8
1
 62
7
  6
CONTINUOUS
 10
224.494890
 20
124.718854
 11
219.394890
 21
124.718854
  0
LINE
  8
1
 62
7
  6
CONTINUOUS
 10
224.494890
 20
124.718854
 11
224.494890
 21
137.318854
  0
LINE
  8
1
 62
7
  6
CONTINUOUS
 10
240.394890
 20
123.968854
 11
239.394890
 21
123.968854
  0
LINE
  8
1
 62
7
  6
CONTINUOUS
 10
239.394890
 20
123.968854
 11
239.394890
 21
135.868854
  0
LINE
  8
1
 62
7
  6
CONTINUOUS
 10
241.894890
 20
125.468854
 11
241.894890
 21
134.118854
  0
LINE
  8
1
 62
7
  6
CONTINUOUS
 10
241.894890
 20
114.918854
 11
244.394890
 21
114.918854
  0
LINE
  8
1
 62
7
  6
CONTINUOUS
 10
241.894890
 20
134.118854
 11
244.394890
 21
134.118854
  0
LINE
  8
1
 62
7
  6
CONTINUOUS
 10
244.394890
 20
134.118854
 11
244.394890
 21
161.118854
  0
LINE
  8
1
 62
7
  6
CONTINUOUS
 10
241.894890
 20
125.468854
 11
241.894890
 21
114.918854
  0
LINE
  8
1
 62
7
  6
CONTINUOUS
 10
147.137079
 20
46.502161
 11
147.490633
 21
46.855715
  0
LINE
  8
1
 62
7
  6
CONTINUOUS
 10
160.744304
 20
25.654163
 11
164.364691
 21
29.274550
  0
LINE
  8
1
 62
7
  6
CONTINUOUS
 10
161.244071
 20
26.153930
 11
163.953872
 21
23.444129
  0
LINE
  8
1
 62
7
  6
CONTINUOUS
 10
163.054264
 20
27.964123
 11
165.764065
 21
25.254322
  0
LINE
  8
1
 62
7
  6
CONTINUOUS
 10
164.364691
 20
29.274550
 11
157.371931
 21
36.267309
  0
LINE
  8
1
 62
7
  6
CONTINUOUS
 10
166.566856
 20
26.057113
 11
163.857055
 21
28.766914
  0
LINE
  8
1
 62
7
  6
CONTINUOUS
 10
163.953872
 20
23.444129
 11
164.723177
 21
24.213434
  0
LINE
  8
1
 62
7
  6
CONTINUOUS
 10
165.764065
 20
25.254322
 11
166.566856
 21
26.057113
  0
ARC
  8
1
 62
7
  6
CONTINUOUS
 10
257.394890
 20
59.450997
 40
10.000000
 50
180.000000
 51
-135.000000
  0
ARC
  8
1
 62
7
  6
CONTINUOUS
 10
254.334890
 20
54.714545
 40
10.000000
 50
180.000000
 51
-135.000000
  0
ARC
  8
1
 62
7
  6
CONTINUOUS
 10
92.400000
 20
90.618854
 40
52.700000
 50
-42.945014
 51
-36.257870
  0
ARC
  8
1
 62
7
  6
CONTINUOUS
 10
92.400000
 20
90.618854
 40
52.700000
 50
-90.000000
 51
-42.945014
  0
ARC
  8
1
 62
7
  6
CONTINUOUS
 10
92.400000
 20
98.118854
 40
60.200000
 50
171.597368
 51
180.000000
  0
ARC
  8
1
 62
7
  6
CONTINUOUS
 10
95.400000
 20
94.618854
 40
53.000000
 50
-36.479003
 51
-28.349875
  0
ARC
  8
1
 62
7
  6
CONTINUOUS
 10
92.400000
 20
90.618854
 40
51.900000
 50
-31.148514
 51
-22.856508
  0
ARC
  8
1
 62
7
  6
CONTINUOUS
 10
92.400000
 20
90.618854
 40
54.000000
 50
-33.321659
 51
-32.127062
  0
ARC
  8
1
 62
7
  6
CONTINUOUS
 10
92.400000
 20
90.618854
 40
51.900000
 50
-90.000000
 51
-33.277570
  0
ARC
  8
1
 62
7
  6
CONTINUOUS
 10
95.400000
 20
94.618854
 40
62.500000
 50
-36.260346
 51
-27.531812
  0
ARC
  8
1
 62
7
  6
CONTINUOUS
 10
99.400000
 20
97.618854
 40
66.400000
 50
129.576928
 51
136.070535
  0
ARC
  8
1
 62
7
  6
CONTINUOUS
 10
95.400000
 20
94.618854
 40
68.000000
 50
125.338703
 51
131.661297
  0
ARC
  8
1
 62
7
  6
CONTINUOUS
 10
95.400000
 20
94.618854
 40
68.700000
 50
123.726223
 51
124.535338
  0
ARC
  8
1
 62
7
  6
CONTINUOUS
 10
95.400000
 20
94.618854
 40
75.500000
 50
124.892916
 51
132.107084
  0
ARC
  8
1
 62
7
  6
CONTINUOUS
 10
99.400000
 20
97.618854
 40
66.400000
 50
90.000000
 51
127.860702
  0
ARC
  8
1
 62
7
  6
CONTINUOUS
 10
218.894890
 20
131.718854
 40
1.500000
 50
180.000000
 51
-90.000000
  0
ARC
  8
1
 62
7
  6
CONTINUOUS
 10
92.400000
 20
90.618854
 40
52.700000
 50
-36.257870
 51
-35.904250
  0
ARC
  8
1
 62
7
  6
CONTINUOUS
 10
92.400000
 20
90.618854
 40
54.000000
 50
-22.028507
 51
-17.193473
  0
ARC
  8
1
 62
7
  6
CONTINUOUS
 10
95.400000
 20
94.618854
 40
68.700000
 50
132.464662
 51
133.260833
  0
ARC
  8
1
 62
7
  6
CONTINUOUS
 10
92.400000
 20
90.618854
 40
52.700000
 50
-4.118143
 51
-3.705721
  0
ARC
  8
1
 62
7
  6
CONTINUOUS
 10
92.400000
 20
98.118854
 40
60.200000
 50
-128.357468
 51
-90.000000
  0
ARC
  8
1
 62
7
  6
CONTINUOUS
 10
99.400000
 20
97.618854
 40
67.200000
 50
139.745268
 51
172.047781
  0
ARC
  8
1
 62
7
  6
CONTINUOUS
 10
92.400000
 20
90.618854
 40
51.900000
 50
-20.789926
 51
-3.499584
  0
ARC
  8
1
 62
7
  6
CONTINUOUS
 10
92.400000
 20
98.118854
 40
59.400000
 50
171.594336
 51
-90.000000
  0
ARC
  8
1
 62
7
  6
CONTINUOUS
 10
99.400000
 20
97.618854
 40
67.200000
 50
90.000000
 51
125.800003
  0
ARC
  8
1
 62
7
  6
CONTINUOUS
 10
45.000000
 20
157.618854
 40
5.500000
 50
38.659808
 51
-141.340192
  0
ARC
  8
1
 62
7
  6
CONTINUOUS
 10
99.400000
 20
97.618854
 40
66.400000
 50
137.675875
 51
172.050496
  0
ARC
  8
1
 62
7
  6
CONTINUOUS
 10
92.400000
 20
98.118854
 40
60.200000
 50
180.000000
 51
-143.858454
  0
ARC
  8
1
 62
7
  6
CONTINUOUS
 10
45.000000
 20
52.818854
 40
5.500000
 50
129.671127
 51
-50.328873
  0
ARC
  8
1
 62
7
  6
CONTINUOUS
 10
149.800000
 20
78.118854
 40
5.500000
 50
-8.418993
 51
90.000000
  0
ARC
  8
1
 62
7
  6
CONTINUOUS
 10
147.439873
 20
62.172681
 40
5.500000
 50
-119.000000
 51
-8.418993
  0
ARC
  8
1
 62
7
  6
CONTINUOUS
 10
149.800000
 20
78.118854
 40
5.500000
 50
-106.873014
 51
-8.418993
  0
ARC
  8
1
 62
7
  6
CONTINUOUS
 10
92.400000
 20
90.618854
 40
52.700000
 50
-14.610882
 51
-4.118143
  0
CIRCLE
  8
1
 62
7
  6
CONTINUOUS
 10
145.840471
 20
63.059244
 40
3.000000
  0
CIRCLE
  8
1
 62
7
  6
CONTINUOUS
 10
50.172079
 20
151.153755
 40
3.000000
  0
CIRCLE
  8
1
 62
7
  6
CONTINUOUS
 10
95.400000
 20
94.618854
 40
35.000000
  0
CIRCLE
  8
1
 62
7
  6
CONTINUOUS
 10
45.000000
 20
157.618854
 40
2.750000
  0
CIRCLE
  8
1
 62
7
  6
CONTINUOUS
 10
45.000000
 20
52.818854
 40
2.750000
  0
CIRCLE
  8
1
 62
7
  6
CONTINUOUS
 10
149.800000
 20
78.118854
 40
2.750000
  0
CIRCLE
  8
1
 62
7
  6
CONTINUOUS
 10
95.400000
 20
94.618854
 40
30.100000
  0
ARC
  8
1
 62
7
  6
CONTINUOUS
 10
233.698612
 20
44.305868
 40
22.668132
 50
3.990978
 51
5.395743
  0
ARC
  8
1
 62
7
  6
CONTINUOUS
 10
249.721527
 20
45.415924
 40
6.606818
 50
-0.550996
 51
4.058800
  0
ARC
  8
1
 62
7
  6
CONTINUOUS
 10
253.264689
 20
45.373563
 40
3.063423
 50
-9.524147
 51
-0.396014
  0
ARC
  8
1
 62
7
  6
CONTINUOUS
 10
254.723468
 20
45.123394
 40
1.583368
 50
-25.203052
 51
-9.330687
  0
ARC
  8
1
 62
7
  6
CONTINUOUS
 10
255.238405
 20
44.885667
 40
1.016228
 50
-48.672034
 51
-25.438587
  0
ARC
  8
1
 62
7
  6
CONTINUOUS
 10
254.991855
 20
45.234521
 40
1.441722
 50
-68.855620
 51
-50.469741
  0
ARC
  8
1
 62
7
  6
CONTINUOUS
 10
253.905103
 20
47.944617
 40
4.361520
 50
-75.165379
 51
-68.382670
  0
ARC
  8
1
 62
7
  6
CONTINUOUS
 10
262.558006
 20
15.541254
 40
29.177285
 50
104.968667
 51
106.019572
  0
ARC
  8
1
 62
7
  6
CONTINUOUS
 10
255.399644
 20
40.473283
 40
3.237966
 50
106.019572
 51
114.989307
  0
ARC
  8
1
 62
7
  6
CONTINUOUS
 10
254.536899
 20
42.324347
 40
1.195721
 50
114.989307
 51
136.759688
  0
ARC
  8
1
 62
7
  6
CONTINUOUS
 10
254.232245
 20
42.610840
 40
0.777520
 50
136.759688
 51
158.166099
  0
ARC
  8
1
 62
7
  6
CONTINUOUS
 10
255.576151
 20
42.072393
 40
2.225280
 50
158.166099
 51
166.079351
  0
ARC
  8
1
 62
7
  6
CONTINUOUS
 10
255.088712
 20
42.193208
 40
1.723092
 50
166.079351
 51
177.149918
  0
ARC
  8
1
 62
7
  6
CONTINUOUS
 10
258.607341
 20
41.835625
 40
5.258305
 50
175.164385
 51
179.019249
  0
ARC
  8
1
 62
7
  6
CONTINUOUS
 10
272.027119
 20
41.605891
 40
18.680049
 50
179.019249
 51
-179.859774
  0
ARC
  8
1
 62
7
  6
CONTINUOUS
 10
168.648250
 20
30.355817
 40
16.762805
 50
165.860005
 51
167.123303
  0
ARC
  8
1
 62
7
  6
CONTINUOUS
 10
157.357567
 20
33.203754
 40
5.118483
 50
161.879795
 51
165.898361
  0
ARC
  8
1
 62
7
  6
CONTINUOUS
 10
154.976800
 20
33.986450
 40
2.612362
 50
154.492518
 51
161.955073
  0
ARC
  8
1
 62
7
  6
CONTINUOUS
 10
154.009512
 20
34.450172
 40
1.539666
 50
142.683931
 51
154.566241
  0
ARC
  8
1
 62
7
  6
CONTINUOUS
 10
153.630694
 20
34.736967
 40
1.064533
 50
126.063128
 51
142.600254
  0
ARC
  8
1
 62
7
  6
CONTINUOUS
 10
153.811032
 20
34.405616
 40
1.439392
 50
102.751482
 51
124.101161
  0
ARC
  8
1
 62
7
  6
CONTINUOUS
 10
154.500110
 20
31.553266
 40
4.373694
 50
95.481527
 51
103.308301
  0
ARC
  8
1
 62
7
  6
CONTINUOUS
 10
151.223359
 20
64.940800
 40
29.174261
 50
-84.376230
 51
-83.175578
  0
ARC
  8
1
 62
7
  6
CONTINUOUS
 10
154.339485
 20
38.902586
 40
2.950248
 50
-83.175578
 51
-72.317206
  0
ARC
  8
1
 62
7
  6
CONTINUOUS
 10
154.948535
 20
36.992200
 40
0.945126
 50
-72.317206
 51
-43.151079
  0
ARC
  8
1
 62
7
  6
CONTINUOUS
 10
155.184564
 20
36.770933
 40
0.621599
 50
-43.151079
 51
-20.751859
  0
ARC
  8
1
 62
7
  6
CONTINUOUS
 10
153.239839
 20
37.507795
 40
2.701245
 50
-20.751859
 51
-15.165667
  0
ARC
  8
1
 62
7
  6
CONTINUOUS
 10
154.503017
 20
37.165410
 40
1.392487
 50
-15.165667
 51
-3.280807
  0
ARC
  8
1
 62
7
  6
CONTINUOUS
 10
150.840398
 20
37.616833
 40
5.080660
 50
-6.000457
 51
-2.523975
  0
ARC
  8
1
 62
7
  6
CONTINUOUS
 10
137.723701
 20
38.195019
 40
18.210094
 50
-2.523975
 51
-1.520390
  0
ARC
  8
1
 62
7
  6
CONTINUOUS
 10
170.092797
 20
28.911270
 40
16.762805
 50
165.860005
 51
167.123303
  0
ARC
  8
1
 62
7
  6
CONTINUOUS
 10
158.802114
 20
31.759207
 40
5.118483
 50
161.879795
 51
165.898361
  0
ARC
  8
1
 62
7
  6
CONTINUOUS
 10
156.421347
 20
32.541903
 40
2.612362
 50
154.492518
 51
161.955073
  0
ARC
  8
1
 62
7
  6
CONTINUOUS
 10
155.454059
 20
33.005625
 40
1.539666
 50
142.683931
 51
154.566241
  0
ARC
  8
1
 62
7
  6
CONTINUOUS
 10
155.075241
 20
33.292421
 40
1.064533
 50
126.063128
 51
142.600254
  0
ARC
  8
1
 62
7
  6
CONTINUOUS
 10
155.255579
 20
32.961069
 40
1.439392
 50
102.751482
 51
124.101161
  0
ARC
  8
1
 62
7
  6
CONTINUOUS
 10
155.944657
 20
30.108719
 40
4.373694
 50
95.481527
 51
103.308301
  0
ARC
  8
1
 62
7
  6
CONTINUOUS
 10
152.667906
 20
63.496253
 40
29.174261
 50
-84.376230
 51
-83.175578
  0
ARC
  8
1
 62
7
  6
CONTINUOUS
 10
155.784032
 20
37.458039
 40
2.950248
 50
-83.175578
 51
-72.317206
  0
ARC
  8
1
 62
7
  6
CONTINUOUS
 10
156.393082
 20
35.547653
 40
0.945126
 50
-72.317206
 51
-43.151079
  0
ARC
  8
1
 62
7
  6
CONTINUOUS
 10
156.629111
 20
35.326386
 40
0.621599
 50
-43.151079
 51
-20.751859
  0
ARC
  8
1
 62
7
  6
CONTINUOUS
 10
154.684386
 20
36.063248
 40
2.701245
 50
-20.751859
 51
-15.165667
  0
ARC
  8
1
 62
7
  6
CONTINUOUS
 10
155.947564
 20
35.720863
 40
1.392487
 50
-15.165667
 51
-3.280807
  0
ARC
  8
1
 62
7
  6
CONTINUOUS
 10
152.284945
 20
36.172286
 40
5.080660
 50
-6.000457
 51
-2.523975
  0
ARC
  8
1
 62
7
  6
CONTINUOUS
 10
139.168248
 20
36.750472
 40
18.210094
 50
-2.523975
 51
-1.520390
  0
ARC
  8
1
 62
7
  6
CONTINUOUS
 10
244.834890
 20
58.950997
 40
0.500000
 50
90.000000
 51
180.000000
  0
ARC
  8
1
 62
7
  6
CONTINUOUS
 10
141.855581
 20
71.842391
 40
1.000000
 50
159.210074
 51
-119.000000
  0
ARC
  8
1
 62
7
  6
CONTINUOUS
 10
136.625576
 20
61.592858
 40
1.000000
 50
61.000000
 51
146.722430
  0
ARC
  8
1
 62
7
  6
CONTINUOUS
 10
58.033665
 20
150.831505
 40
1.000000
 50
-141.500000
 51
-52.139298
  0
ARC
  8
1
 62
7
  6
CONTINUOUS
 10
49.567969
 20
143.000883
 40
1.000000
 50
-42.324125
 51
38.500000
  0
ARC
  8
1
 62
7
  6
CONTINUOUS
 10
146.298734
 20
76.568353
 40
3.000000
 50
165.389118
 51
-140.410279
  0
ARC
  8
1
 62
7
  6
CONTINUOUS
 10
137.516897
 20
57.954567
 40
3.000000
 50
61.000000
 51
89.895147
  0
ARC
  8
1
 62
7
  6
CONTINUOUS
 10
45.824827
 20
142.981181
 40
3.000000
 50
-40.254732
 51
33.776341
  0
ARC
  8
1
 62
7
  6
CONTINUOUS
 10
58.335969
 20
154.555532
 40
3.000000
 50
-141.340192
 51
-111.098877
  0
ARC
  8
1
 62
7
  6
CONTINUOUS
 10
147.996133
 20
87.218854
 40
3.800000
 50
90.000000
 51
176.500416
  0
ARC
  8
1
 62
7
  6
CONTINUOUS
 10
147.983541
 20
87.018854
 40
3.000000
 50
90.000000
 51
176.294279
  0
ARC
  8
1
 62
7
  6
CONTINUOUS
 10
45.824827
 20
142.981181
 40
3.000000
 50
33.776341
 51
38.659808
  0
ARC
  8
1
 62
7
  6
CONTINUOUS
 10
58.335969
 20
154.555532
 40
3.000000
 50
-111.098877
 51
-54.199997
  0
ARC
  8
1
 62
7
  6
CONTINUOUS
 10
53.180238
 20
48.560300
 40
3.000000
 50
51.642532
 51
129.671127
  0
ARC
  8
1
 62
7
  6
CONTINUOUS
 10
41.362055
 20
60.844625
 40
3.000000
 50
-50.328873
 51
36.141546
  0
ARC
  8
1
 62
7
  6
CONTINUOUS
 10
137.516897
 20
57.954567
 40
3.000000
 50
89.895147
 51
144.095750
  0
ARC
  8
1
 62
7
  6
CONTINUOUS
 10
146.298734
 20
76.568353
 40
3.000000
 50
-140.410279
 51
-106.873014
  0
ARC
  8
1
 62
7
  6
CONTINUOUS
 10
147.956188
 20
86.618854
 40
3.000000
 50
175.881857
 51
-90.000000
  0
ARC
  8
1
 62
7
  6
CONTINUOUS
 10
244.394890
 20
161.818854
 40
3.000000
 50
0.000000
 51
90.000000
  0
ARC
  8
1
 62
7
  6
CONTINUOUS
 10
244.394890
 20
93.018854
 40
3.000000
 50
-90.000000
 51
-0.000000
  0
ARC
  8
1
 62
7
  6
CONTINUOUS
 10
242.894890
 20
100.318854
 40
1.500000
 50
-90.000000
 51
-0.000000
  0
ARC
  8
1
 62
7
  6
CONTINUOUS
 10
242.894890
 20
161.118854
 40
1.500000
 50
0.000000
 51
90.000000
  0
ARC
  8
1
 62
7
  6
CONTINUOUS
 10
244.394890
 20
40.918854
 40
3.000000
 50
-90.000000
 51
-0.000000
  0
ARC
  8
1
 62
7
  6
CONTINUOUS
 10
212.794890
 20
70.918854
 40
6.400000
 50
180.000000
 51
-90.000000
  0
ARC
  8
1
 62
7
  6
CONTINUOUS
 10
212.794890
 20
118.318854
 40
6.400000
 50
90.000000
 51
180.000000
  0
ARC
  8
1
 62
7
  6
CONTINUOUS
 10
240.394890
 20
125.468854
 40
1.500000
 50
-90.000000
 51
-0.000000
  0
LINE
  8
1
 62
7
  6
CONTINUOUS
 10
11.631135
 20
41.748502
 11
29.389118
 21
41.748502
  0
LINE
  8
1
 62
7
  6
CONTINUOUS
 10
29.389118
 20
41.748502
 11
42.756790
 21
51.228096
  0
LINE
  8
1
 62
7
  6
CONTINUOUS
 10
40.168339
 20
48.827629
 11
39.635252
 21
49.579363
  0
LINE
  8
1
 62
7
  6
CONTINUOUS
 10
39.635252
 20
49.579363
 11
42.756790
 21
51.228096
  0
LINE
  8
1
 62
7
  6
CONTINUOUS
 10
42.756790
 20
51.228096
 11
40.168339
 21
48.827629
  0
TEXT
  8
1
 62
7
  6
CONTINUOUS
 10
12.962984
 20
42.748502
 40
3.500000
 41
0.900000
  1
3-âË4.5
  7
KANJI
 50
0.000000
 51
0.000000
  0
LINE
  8
1
 62
7
  6
CONTINUOUS
 10
185.400001
 20
37.918853
 11
185.400001
 21
164.818853
  0
LINE
  8
1
 62
7
  6
CONTINUOUS
 10
92.400001
 20
37.918853
 11
186.400001
 21
37.918853
  0
LINE
  8
1
 62
7
  6
CONTINUOUS
 10
157.400001
 20
164.818853
 11
186.400001
 21
164.818853
  0
LINE
  8
1
 62
7
  6
CONTINUOUS
 10
185.400001
 20
164.818853
 11
185.855001
 21
161.318853
  0
LINE
  8
1
 62
7
  6
CONTINUOUS
 10
185.855001
 20
161.318853
 11
184.945001
 21
161.318853
  0
LINE
  8
1
 62
7
  6
CONTINUOUS
 10
184.945001
 20
161.318853
 11
185.400001
 21
164.818853
  0
LINE
  8
1
 62
7
  6
CONTINUOUS
 10
185.400001
 20
37.918853
 11
184.945001
 21
41.418853
  0
LINE
  8
1
 62
7
  6
CONTINUOUS
 10
184.945001
 20
41.418853
 11
185.855001
 21
41.418853
  0
LINE
  8
1
 62
7
  6
CONTINUOUS
 10
185.855001
 20
41.418853
 11
185.400001
 21
37.918853
  0
TEXT
  8
1
 62
7
  6
CONTINUOUS
 10
184.400001
 20
98.008853
 40
3.200000
 41
0.900000
  1
127
  7
KANJI
 50
90.000000
 51
0.000000
  0
LINE
  8
1
 62
7
  6
CONTINUOUS
 10
45.000001
 20
174.818853
 11
95.400001
 21
174.818853
  0
LINE
  8
1
 62
7
  6
CONTINUOUS
 10
45.000001
 20
160.918853
 11
45.000001
 21
175.818853
  0
LINE
  8
1
 62
7
  6
CONTINUOUS
 10
95.400001
 20
168.818853
 11
95.400001
 21
175.818853
  0
LINE
  8
1
 62
7
  6
CONTINUOUS
 10
45.000001
 20
174.818853
 11
48.500001
 21
175.273853
  0
LINE
  8
1
 62
7
  6
CONTINUOUS
 10
48.500001
 20
175.273853
 11
48.500001
 21
174.363853
  0
LINE
  8
1
 62
7
  6
CONTINUOUS
 10
48.500001
 20
174.363853
 11
45.000001
 21
174.818853
  0
LINE
  8
1
 62
7
  6
CONTINUOUS
 10
95.400001
 20
174.818853
 11
91.900001
 21
174.363853
  0
LINE
  8
1
 62
7
  6
CONTINUOUS
 10
91.900001
 20
174.363853
 11
91.900001
 21
175.273853
  0
LINE
  8
1
 62
7
  6
CONTINUOUS
 10
91.900001
 20
175.273853
 11
95.400001
 21
174.818853
  0
TEXT
  8
1
 62
7
  6
CONTINUOUS
 10
65.840001
 20
175.818853
 40
3.200000
 41
0.900000
  1
50.4
  7
KANJI
 50
0.000000
 51
0.000000
  0
LINE
  8
1
 62
7
  6
CONTINUOUS
 10
95.400001
 20
174.818853
 11
157.400001
 21
174.818853
  0
LINE
  8
1
 62
7
  6
CONTINUOUS
 10
95.400001
 20
168.818853
 11
95.400001
 21
175.818853
  0
LINE
  8
1
 62
7
  6
CONTINUOUS
 10
157.400001
 20
164.018853
 11
157.400001
 21
175.818853
  0
LINE
  8
1
 62
7
  6
CONTINUOUS
 10
157.400001
 20
174.818853
 11
153.900001
 21
174.363853
  0
LINE
  8
1
 62
7
  6
CONTINUOUS
 10
153.900001
 20
174.363853
 11
153.900001
 21
175.273853
  0
LINE
  8
1
 62
7
  6
CONTINUOUS
 10
153.900001
 20
175.273853
 11
157.400001
 21
174.818853
  0
LINE
  8
1
 62
7
  6
CONTINUOUS
 10
95.400001
 20
174.818853
 11
98.900001
 21
175.273853
  0
LINE
  8
1
 62
7
  6
CONTINUOUS
 10
98.900001
 20
175.273853
 11
98.900001
 21
174.363853
  0
LINE
  8
1
 62
7
  6
CONTINUOUS
 10
98.900001
 20
174.363853
 11
95.400001
 21
174.818853
  0
TEXT
  8
1
 62
7
  6
CONTINUOUS
 10
124.000001
 20
175.818853
 40
3.200000
 41
0.900000
  1
62
  7
KANJI
 50
0.000000
 51
0.000000
  0
LINE
  8
1
 62
7
  6
CONTINUOUS
 10
216.394890
 20
85.592587
 11
199.526776
 21
85.592587
  0
LINE
  8
1
 62
7
  6
CONTINUOUS
 10
216.394890
 20
85.592587
 11
224.394890
 21
85.592587
  0
LINE
  8
1
 62
7
  6
CONTINUOUS
 10
231.394890
 20
85.592587
 11
224.394890
 21
85.592587
  0
LINE
  8
1
 62
7
  6
CONTINUOUS
 10
224.394890
 20
83.618853
 11
224.394890
 21
86.592587
  0
LINE
  8
1
 62
7
  6
CONTINUOUS
 10
216.394890
 20
83.618853
 11
216.394890
 21
86.592587
  0
LINE
  8
1
 62
7
  6
CONTINUOUS
 10
224.394890
 20
85.592587
 11
227.894890
 21
86.047587
  0
LINE
  8
1
 62
7
  6
CONTINUOUS
 10
227.894890
 20
86.047587
 11
227.894890
 21
85.137587
  0
LINE
  8
1
 62
7
  6
CONTINUOUS
 10
227.894890
 20
85.137587
 11
224.394890
 21
85.592587
  0
LINE
  8
1
 62
7
  6
CONTINUOUS
 10
216.394890
 20
85.592587
 11
212.894890
 21
85.137587
  0
LINE
  8
1
 62
7
  6
CONTINUOUS
 10
212.894890
 20
85.137587
 11
212.894890
 21
86.047587
  0
LINE
  8
1
 62
7
  6
CONTINUOUS
 10
212.894890
 20
86.047587
 11
216.394890
 21
85.592587
  0
TEXT
  8
1
 62
7
  6
CONTINUOUS
 10
199.526776
 20
86.592587
 40
3.200000
 41
0.900000
  1
8
  7
KANJI
 50
0.000000
 51
0.000000
  0
LINE
  8
1
 62
7
  6
CONTINUOUS
 10
206.394890
 20
174.818853
 11
216.394890
 21
174.818853
  0
LINE
  8
1
 62
7
  6
CONTINUOUS
 10
206.394890
 20
118.318853
 11
206.394890
 21
175.818853
  0
LINE
  8
1
 62
7
  6
CONTINUOUS
 10
216.394890
 20
164.818853
 11
216.394890
 21
175.818853
  0
LINE
  8
1
 62
7
  6
CONTINUOUS
 10
216.394890
 20
174.818853
 11
212.894890
 21
174.363853
  0
LINE
  8
1
 62
7
  6
CONTINUOUS
 10
212.894890
 20
174.363853
 11
212.894890
 21
175.273853
  0
LINE
  8
1
 62
7
  6
CONTINUOUS
 10
212.894890
 20
175.273853
 11
216.394890
 21
174.818853
  0
LINE
  8
1
 62
7
  6
CONTINUOUS
 10
206.394890
 20
174.818853
 11
209.894890
 21
175.273853
  0
LINE
  8
1
 62
7
  6
CONTINUOUS
 10
209.894890
 20
175.273853
 11
209.894890
 21
174.363853
  0
LINE
  8
1
 62
7
  6
CONTINUOUS
 10
209.894890
 20
174.363853
 11
206.394890
 21
174.818853
  0
TEXT
  8
1
 62
7
  6
CONTINUOUS
 10
209.474890
 20
175.818853
 40
3.200000
 41
0.900000
  1
10
  7
KANJI
 50
0.000000
 51
0.000000
  0
TEXT
  8
1
 62
7
  6
CONTINUOUS
 10
207.394890
 20
175.818853
 40
3.200000
 41
0.900000
  1
(
  7
KANJI
 50
0.000000
 51
0.000000
  0
TEXT
  8
1
 62
7
  6
CONTINUOUS
 10
214.914890
 20
175.818853
 40
3.200000
 41
0.900000
  1
)
  7
KANJI
 50
0.000000
 51
0.000000
  0
LINE
  8
1
 62
7
  6
CONTINUOUS
 10
216.394890
 20
174.818853
 11
247.394890
 21
174.818853
  0
LINE
  8
1
 62
7
  6
CONTINUOUS
 10
216.394890
 20
164.818853
 11
216.394890
 21
175.818853
  0
LINE
  8
1
 62
7
  6
CONTINUOUS
 10
247.394890
 20
161.818853
 11
247.394890
 21
175.818853
  0
LINE
  8
1
 62
7
  6
CONTINUOUS
 10
247.394890
 20
174.818853
 11
243.894890
 21
174.363853
  0
LINE
  8
1
 62
7
  6
CONTINUOUS
 10
243.894890
 20
174.363853
 11
243.894890
 21
175.273853
  0
LINE
  8
1
 62
7
  6
CONTINUOUS
 10
243.894890
 20
175.273853
 11
247.394890
 21
174.818853
  0
LINE
  8
1
 62
7
  6
CONTINUOUS
 10
216.394890
 20
174.818853
 11
219.894890
 21
175.273853
  0
LINE
  8
1
 62
7
  6
CONTINUOUS
 10
219.894890
 20
175.273853
 11
219.894890
 21
174.363853
  0
LINE
  8
1
 62
7
  6
CONTINUOUS
 10
219.894890
 20
174.363853
 11
216.394890
 21
174.818853
  0
TEXT
  8
1
 62
7
  6
CONTINUOUS
 10
229.974890
 20
175.818853
 40
3.200000
 41
0.900000
  1
31
  7
KANJI
 50
0.000000
 51
0.000000
  0
LINE
  8
1
 62
7
  6
CONTINUOUS
 10
257.394890
 20
90.018853
 11
257.394890
 21
98.818853
  0
LINE
  8
1
 62
7
  6
CONTINUOUS
 10
257.394890
 20
90.018853
 11
257.394890
 21
83.018853
  0
LINE
  8
1
 62
7
  6
CONTINUOUS
 10
257.394890
 20
98.818853
 11
257.394890
 21
105.818853
  0
LINE
  8
1
 62
7
  6
CONTINUOUS
 10
244.394890
 20
90.018853
 11
258.394890
 21
90.018853
  0
LINE
  8
1
 62
7
  6
CONTINUOUS
 10
242.894890
 20
98.818853
 11
258.394890
 21
98.818853
  0
LINE
  8
1
 62
7
  6
CONTINUOUS
 10
257.394890
 20
98.818853
 11
256.939890
 21
102.318853
  0
LINE
  8
1
 62
7
  6
CONTINUOUS
 10
256.939890
 20
102.318853
 11
257.849890
 21
102.318853
  0
LINE
  8
1
 62
7
  6
CONTINUOUS
 10
257.849890
 20
102.318853
 11
257.394890
 21
98.818853
  0
LINE
  8
1
 62
7
  6
CONTINUOUS
 10
257.394890
 20
90.018853
 11
257.849890
 21
86.518853
  0
LINE
  8
1
 62
7
  6
CONTINUOUS
 10
257.849890
 20
86.518853
 11
256.939890
 21
86.518853
  0
LINE
  8
1
 62
7
  6
CONTINUOUS
 10
256.939890
 20
86.518853
 11
257.394890
 21
90.018853
  0
TEXT
  8
1
 62
7
  6
CONTINUOUS
 10
256.394890
 20
93.458853
 40
3.200000
 41
0.900000
  1
9
  7
KANJI
 50
90.000000
 51
0.000000
  0
LINE
  8
1
 62
7
  6
CONTINUOUS
 10
167.400001
 20
78.118853
 11
167.400001
 21
157.618853
  0
LINE
  8
1
 62
7
  6
CONTINUOUS
 10
153.100001
 20
78.118853
 11
168.400001
 21
78.118853
  0
LINE
  8
1
 62
7
  6
CONTINUOUS
 10
48.300001
 20
157.618853
 11
168.400001
 21
157.618853
  0
LINE
  8
1
 62
7
  6
CONTINUOUS
 10
167.400001
 20
157.618853
 11
167.855001
 21
154.118853
  0
LINE
  8
1
 62
7
  6
CONTINUOUS
 10
167.855001
 20
154.118853
 11
166.945001
 21
154.118853
  0
LINE
  8
1
 62
7
  6
CONTINUOUS
 10
166.945001
 20
154.118853
 11
167.400001
 21
157.618853
  0
LINE
  8
1
 62
7
  6
CONTINUOUS
 10
167.400001
 20
78.118853
 11
166.945001
 21
81.618853
  0
LINE
  8
1
 62
7
  6
CONTINUOUS
 10
166.945001
 20
81.618853
 11
167.855001
 21
81.618853
  0
LINE
  8
1
 62
7
  6
CONTINUOUS
 10
167.855001
 20
81.618853
 11
167.400001
 21
78.118853
  0
TEXT
  8
1
 62
7
  6
CONTINUOUS
 10
166.400001
 20
108.508853
 40
3.200000
 41
0.900000
  1
79.5ü}0.3
  7
KANJI
 50
90.000000
 51
0.000000
  0
LINE
  8
1
 62
7
  6
CONTINUOUS
 10
45.000001
 20
22.918853
 11
149.800001
 21
22.918853
  0
LINE
  8
1
 62
7
  6
CONTINUOUS
 10
45.000001
 20
49.518853
 11
45.000001
 21
21.918853
  0
LINE
  8
1
 62
7
  6
CONTINUOUS
 10
149.800001
 20
74.818853
 11
149.800001
 21
21.918853
  0
LINE
  8
1
 62
7
  6
CONTINUOUS
 10
45.000001
 20
22.918853
 11
48.500001
 21
23.373853
  0
LINE
  8
1
 62
7
  6
CONTINUOUS
 10
48.500001
 20
23.373853
 11
48.500001
 21
22.463853
  0
LINE
  8
1
 62
7
  6
CONTINUOUS
 10
48.500001
 20
22.463853
 11
45.000001
 21
22.918853
  0
LINE
  8
1
 62
7
  6
CONTINUOUS
 10
149.800001
 20
22.918853
 11
146.300001
 21
22.463853
  0
LINE
  8
1
 62
7
  6
CONTINUOUS
 10
146.300001
 20
22.463853
 11
146.300001
 21
23.373853
  0
LINE
  8
1
 62
7
  6
CONTINUOUS
 10
146.300001
 20
23.373853
 11
149.800001
 21
22.918853
  0
TEXT
  8
1
 62
7
  6
CONTINUOUS
 10
87.080001
 20
23.918853
 40
3.200000
 41
0.900000
  1
104.8ü}0.3
  7
KANJI
 50
0.000000
 51
0.000000
  0
LINE
  8
1
 62
7
  6
CONTINUOUS
 10
13.200001
 20
52.818853
 11
13.200001
 21
157.618853
  0
LINE
  8
1
 62
7
  6
CONTINUOUS
 10
41.700001
 20
52.818853
 11
12.200001
 21
52.818853
  0
LINE
  8
1
 62
7
  6
CONTINUOUS
 10
41.700001
 20
157.618853
 11
12.200001
 21
157.618853
  0
LINE
  8
1
 62
7
  6
CONTINUOUS
 10
13.200001
 20
52.818853
 11
12.745001
 21
56.318853
  0
LINE
  8
1
 62
7
  6
CONTINUOUS
 10
12.745001
 20
56.318853
 11
13.655001
 21
56.318853
  0
LINE
  8
1
 62
7
  6
CONTINUOUS
 10
13.655001
 20
56.318853
 11
13.200001
 21
52.818853
  0
LINE
  8
1
 62
7
  6
CONTINUOUS
 10
13.200001
 20
157.618853
 11
13.655001
 21
154.118853
  0
LINE
  8
1
 62
7
  6
CONTINUOUS
 10
13.655001
 20
154.118853
 11
12.745001
 21
154.118853
  0
LINE
  8
1
 62
7
  6
CONTINUOUS
 10
12.745001
 20
154.118853
 11
13.200001
 21
157.618853
  0
TEXT
  8
1
 62
7
  6
CONTINUOUS
 10
12.200001
 20
94.898853
 40
3.200000
 41
0.900000
  1
104.8ü}0.3
  7
KANJI
 50
90.000000
 51
0.000000
  0
LINE
  8
1
 62
7
  6
CONTINUOUS
 10
22.200001
 20
94.618853
 11
22.200001
 21
157.618853
  0
LINE
  8
1
 62
7
  6
CONTINUOUS
 10
28.200001
 20
94.618853
 11
21.200001
 21
94.618853
  0
LINE
  8
1
 62
7
  6
CONTINUOUS
 10
41.700001
 20
157.618853
 11
21.200001
 21
157.618853
  0
LINE
  8
1
 62
7
  6
CONTINUOUS
 10
22.200001
 20
94.618853
 11
21.745001
 21
98.118853
  0
LINE
  8
1
 62
7
  6
CONTINUOUS
 10
21.745001
 20
98.118853
 11
22.655001
 21
98.118853
  0
LINE
  8
1
 62
7
  6
CONTINUOUS
 10
22.655001
 20
98.118853
 11
22.200001
 21
94.618853
  0
LINE
  8
1
 62
7
  6
CONTINUOUS
 10
22.200001
 20
157.618853
 11
22.655001
 21
154.118853
  0
LINE
  8
1
 62
7
  6
CONTINUOUS
 10
22.655001
 20
154.118853
 11
21.745001
 21
154.118853
  0
LINE
  8
1
 62
7
  6
CONTINUOUS
 10
21.745001
 20
154.118853
 11
22.200001
 21
157.618853
  0
TEXT
  8
1
 62
7
  6
CONTINUOUS
 10
21.200001
 20
118.718853
 40
3.200000
 41
0.900000
  1
63ü}0.5
  7
KANJI
 50
90.000000
 51
0.000000
  0
LINE
  8
1
 62
7
  6
CONTINUOUS
 10
176.400001
 20
94.618853
 11
176.400001
 21
164.818853
  0
LINE
  8
1
 62
7
  6
CONTINUOUS
 10
161.400001
 20
94.618853
 11
177.400001
 21
94.618853
  0
LINE
  8
1
 62
7
  6
CONTINUOUS
 10
157.400001
 20
164.818853
 11
177.400001
 21
164.818853
  0
LINE
  8
1
 62
7
  6
CONTINUOUS
 10
176.400001
 20
94.618853
 11
175.945001
 21
98.118853
  0
LINE
  8
1
 62
7
  6
CONTINUOUS
 10
175.945001
 20
98.118853
 11
176.855001
 21
98.118853
  0
LINE
  8
1
 62
7
  6
CONTINUOUS
 10
176.855001
 20
98.118853
 11
176.400001
 21
94.618853
  0
LINE
  8
1
 62
7
  6
CONTINUOUS
 10
176.400001
 20
164.818853
 11
176.855001
 21
161.318853
  0
LINE
  8
1
 62
7
  6
CONTINUOUS
 10
176.855001
 20
161.318853
 11
175.945001
 21
161.318853
  0
LINE
  8
1
 62
7
  6
CONTINUOUS
 10
175.945001
 20
161.318853
 11
176.400001
 21
164.818853
  0
TEXT
  8
1
 62
7
  6
CONTINUOUS
 10
175.400001
 20
127.318853
 40
3.200000
 41
0.900000
  1
70
  7
KANJI
 50
90.000000
 51
0.000000
  0
LINE
  8
1
 62
7
  6
CONTINUOUS
 10
32.200001
 20
184.818853
 11
157.400001
 21
184.818853
  0
LINE
  8
1
 62
7
  6
CONTINUOUS
 10
32.200001
 20
98.118853
 11
32.200001
 21
185.818853
  0
LINE
  8
1
 62
7
  6
CONTINUOUS
 10
157.400001
 20
164.818853
 11
157.400001
 21
185.818853
  0
LINE
  8
1
 62
7
  6
CONTINUOUS
 10
157.400001
 20
184.818853
 11
153.900001
 21
184.363853
  0
LINE
  8
1
 62
7
  6
CONTINUOUS
 10
153.900001
 20
184.363853
 11
153.900001
 21
185.273853
  0
LINE
  8
1
 62
7
  6
CONTINUOUS
 10
153.900001
 20
185.273853
 11
157.400001
 21
184.818853
  0
LINE
  8
1
 62
7
  6
CONTINUOUS
 10
32.200001
 20
184.818853
 11
35.700001
 21
185.273853
  0
LINE
  8
1
 62
7
  6
CONTINUOUS
 10
35.700001
 20
185.273853
 11
35.700001
 21
184.363853
  0
LINE
  8
1
 62
7
  6
CONTINUOUS
 10
35.700001
 20
184.363853
 11
32.200001
 21
184.818853
  0
TEXT
  8
1
 62
7
  6
CONTINUOUS
 10
91.440001
 20
185.818853
 40
3.200000
 41
0.900000
  1
126
  7
KANJI
 50
0.000000
 51
0.000000
  0
LINE
  8
1
 62
7
  6
CONTINUOUS
 10
120.706477
 20
44.444207
 11
152.830214
 21
12.320470
  0
LINE
  8
1
 62
7
  6
CONTINUOUS
 10
130.976815
 20
54.714545
 11
119.999370
 21
43.737100
  0
LINE
  8
1
 62
7
  6
CONTINUOUS
 10
163.953872
 20
23.444129
 11
152.123107
 21
11.613363
  0
LINE
  8
1
 62
7
  6
CONTINUOUS
 10
152.830214
 20
12.320470
 11
150.033606
 21
14.473610
  0
LINE
  8
1
 62
7
  6
CONTINUOUS
 10
150.033606
 20
14.473610
 11
150.677073
 21
15.117078
  0
LINE
  8
1
 62
7
  6
CONTINUOUS
 10
150.677073
 20
15.117078
 11
152.830214
 21
12.320470
  0
LINE
  8
1
 62
7
  6
CONTINUOUS
 10
120.706477
 20
44.444207
 11
123.503084
 21
42.291067
  0
LINE
  8
1
 62
7
  6
CONTINUOUS
 10
123.503084
 20
42.291067
 11
122.859617
 21
41.647599
  0
LINE
  8
1
 62
7
  6
CONTINUOUS
 10
122.859617
 20
41.647599
 11
120.706477
 21
44.444207
  0
TEXT
  8
1
 62
7
  6
CONTINUOUS
 10
131.592324
 20
34.972574
 40
3.200000
 41
0.900000
  1
300ü}30
  7
KANJI
 50
315.000000
 51
0.000000
  0
LINE
  8
1
 62
7
  6
CONTINUOUS
 10
63.151111
 20
81.017048
 11
127.648890
 21
108.220659
  0
LINE
  8
1
 62
7
  6
CONTINUOUS
 10
127.648890
 20
108.220659
 11
124.600825
 21
106.441243
  0
LINE
  8
1
 62
7
  6
CONTINUOUS
 10
124.600825
 20
106.441243
 11
124.247178
 21
107.279714
  0
LINE
  8
1
 62
7
  6
CONTINUOUS
 10
124.247178
 20
107.279714
 11
127.648890
 21
108.220659
  0
LINE
  8
1
 62
7
  6
CONTINUOUS
 10
63.151111
 20
81.017048
 11
66.199176
 21
82.796464
  0
LINE
  8
1
 62
7
  6
CONTINUOUS
 10
66.199176
 20
82.796464
 11
66.552823
 21
81.957993
  0
LINE
  8
1
 62
7
  6
CONTINUOUS
 10
66.552823
 20
81.957993
 11
63.151111
 21
81.017048
  0
TEXT
  8
1
 62
7
  6
CONTINUOUS
 10
109.834820
 20
101.792421
 40
3.200000
 41
0.900000
  1
70
  7
KANJI
 50
22.868846
 51
0.000000
  0
TEXT
  8
1
 62
7
  6
CONTINUOUS
 10
106.296656
 20
100.300109
 40
3.200000
 41
0.900000
  1
âË
  7
KANJI
 50
22.868846
 51
0.000000
  0
LINE
  8
1
 62
7
  6
CONTINUOUS
 10
120.139887
 20
77.473941
 11
70.660114
 21
111.763766
  0
LINE
  8
1
 62
7
  6
CONTINUOUS
 10
70.660114
 20
111.763766
 11
73.796012
 21
110.144146
  0
LINE
  8
1
 62
7
  6
CONTINUOUS
 10
73.796012
 20
110.144146
 11
73.277678
 21
109.396196
  0
LINE
  8
1
 62
7
  6
CONTINUOUS
 10
73.277678
 20
109.396196
 11
70.660114
 21
111.763766
  0
LINE
  8
1
 62
7
  6
CONTINUOUS
 10
120.139887
 20
77.473941
 11
117.003989
 21
79.093560
  0
LINE
  8
1
 62
7
  6
CONTINUOUS
 10
117.003989
 20
79.093560
 11
117.522323
 21
79.841510
  0
LINE
  8
1
 62
7
  6
CONTINUOUS
 10
117.522323
 20
79.841510
 11
120.139887
 21
77.473941
  0
TEXT
  8
1
 62
7
  6
CONTINUOUS
 10
83.789937
 20
103.881367
 40
3.200000
 41
0.900000
  1
60
  7
KANJI
 50
325.277773
 51
0.000000
  0
TEXT
  8
1
 62
7
  6
CONTINUOUS
 10
80.633752
 20
106.068624
 40
3.200000
 41
0.900000
  1
âË
  7
KANJI
 50
325.277773
 51
0.000000
  0
LINE
  8
1
 62
7
  6
CONTINUOUS
 10
257.394890
 20
98.818853
 11
257.394890
 21
162.618853
  0
LINE
  8
1
 62
7
  6
CONTINUOUS
 10
242.894890
 20
98.818853
 11
258.394890
 21
98.818853
  0
LINE
  8
1
 62
7
  6
CONTINUOUS
 10
242.894890
 20
162.618853
 11
258.394890
 21
162.618853
  0
LINE
  8
1
 62
7
  6
CONTINUOUS
 10
257.394890
 20
162.618853
 11
257.849890
 21
159.118853
  0
LINE
  8
1
 62
7
  6
CONTINUOUS
 10
257.849890
 20
159.118853
 11
256.939890
 21
159.118853
  0
LINE
  8
1
 62
7
  6
CONTINUOUS
 10
256.939890
 20
159.118853
 11
257.394890
 21
162.618853
  0
TEXT
  8
1
 62
7
  6
CONTINUOUS
 10
256.394890
 20
128.318853
 40
3.200000
 41
0.900000
  1
64
  7
KANJI
 50
90.000000
 51
0.000000
  0
ENDSEC
  0
EOF
